  0
SECTION
  2
HEADER
  9
$ACADVER
  1
AC1006
  9
$DWGCODEPAGE
  3
ansi_1252
  9
$INSBASE
 10
0.0
 20
0.0
 30
0.0
  9
$EXTMIN
 10
1446.72159486
 20
-855.31817366
  9
$EXTMAX
 10
2268.615989
 20
-476.64317366
  9
$LIMMIN
 10
1446.72159486
 20
-855.31817366
  9
$LIMMAX
 10
2268.615989
 20
-476.64317366
  9
$ORTHOMODE
 70
     0
  9
$REGENMODE
 70
     1
  9
$FILLMODE
 70
     1
  9
$QTEXTMODE
 70
     0
  9
$MIRRTEXT
 70
     1
  9
$DRAGMODE
 70
     2
  9
$LTSCALE
 40
1.0
  9
$OSMODE
 70
    37
  9
$ATTMODE
 70
     1
  9
$TEXTSIZE
 40
1.0
  9
$TRACEWID
 40
0.05
  9
$TEXTSTYLE
  7
STANDARD
  9
$CLAYER
  8
0
  9
$CELTYPE
  6
BYBLOCK
  9
$CECOLOR
 62
   256
  9
$DIMSCALE
 40
1.0
  9
$DIMASZ
 40
0.18
  9
$DIMEXO
 40
0.0625
  9
$DIMDLI
 40
0.38
  9
$DIMRND
 40
0.0
  9
$DIMDLE
 40
0.0
  9
$DIMEXE
 40
0.18
  9
$DIMTP
 40
0.0
  9
$DIMTM
 40
0.0
  9
$DIMTXT
 40
0.18
  9
$DIMCEN
 40
0.09
  9
$DIMTSZ
 40
0.0
  9
$DIMTOL
 70
     0
  9
$DIMLIM
 70
     0
  9
$DIMTIH
 70
     1
  9
$DIMTOH
 70
     1
  9
$DIMSE1
 70
     0
  9
$DIMSE2
 70
     0
  9
$DIMTAD
 70
     0
  9
$DIMZIN
 70
     0
  9
$DIMBLK
  1

  9
$DIMASO
 70
     1
  9
$DIMSHO
 70
     1
  9
$DIMPOST
  1

  9
$DIMAPOST
  1

  9
$DIMALT
 70
     0
  9
$DIMALTD
 70
     2
  9
$DIMALTF
 40
25.4
  9
$DIMLFAC
 40
1.0
  9
$DIMTOFL
 70
     0
  9
$DIMTVP
 40
0.0
  9
$DIMTIX
 70
     0
  9
$DIMSOXD
 70
     0
  9
$DIMSAH
 70
     0
  9
$DIMBLK1
  1

  9
$DIMBLK2
  1

  9
$LUNITS
 70
     2
  9
$LUPREC
 70
     4
  9
$SKETCHINC
 40
0.1
  9
$FILLETRAD
 40
0.5
  9
$AUNITS
 70
     0
  9
$AUPREC
 70
     0
  9
$MENU
  1
.
  9
$ELEVATION
 40
0.0
  9
$THICKNESS
 40
0.0
  9
$LIMCHECK
 70
     0
  9
$CHAMFERA
 40
0.0
  9
$CHAMFERB
 40
0.0
  9
$SKPOLY
 70
     0
  9
$TDCREATE
 40
2447893.125
  9
$TDUPDATE
 40
2460791.47694331
  9
$TDINDWG
 40
0.0
  9
$TDUSRTIMER
 40
0.0
  9
$USRTIMER
 70
     1
  9
$ANGBASE
 50
0.0
  9
$ANGDIR
 70
     0
  9
$PDMODE
 70
     0
  9
$PDSIZE
 40
0.0
  9
$PLINEWID
 40
0.0
  9
$COORDS
 70
     1
  9
$SPLFRAME
 70
     0
  9
$SPLINETYPE
 70
     6
  9
$SPLINESEGS
 70
     8
  9
$ATTDIA
 70
     0
  9
$ATTREQ
 70
     1
  9
$HANDLING
 70
     1
  9
$HANDSEED
  5
3C6
  9
$SURFTAB1
 70
     6
  9
$SURFTAB2
 70
     6
  9
$SURFTYPE
 70
     6
  9
$SURFU
 70
     6
  9
$SURFV
 70
     6
  9
$UCSNAME
  2

  9
$UCSORG
 10
0.0
 20
0.0
 30
0.0
  9
$UCSXDIR
 10
1.0
 20
0.0
 30
0.0
  9
$UCSYDIR
 10
0.0
 20
1.0
 30
0.0
  9
$USERI1
 70
     0
  9
$USERI2
 70
     0
  9
$USERI3
 70
     0
  9
$USERI4
 70
     0
  9
$USERI5
 70
     0
  9
$USERR1
 40
0.0
  9
$USERR2
 40
0.0
  9
$USERR3
 40
0.0
  9
$USERR4
 40
0.0
  9
$USERR5
 40
0.0
  9
$WORLDVIEW
 70
     1
  0
ENDSEC
  0
SECTION
  2
TABLES
  0
TABLE
  2
VPORT
 70
     1
  0
VPORT
  2
*ACTIVE
 70
     0
 10
0.0
 20
0.0
 11
1.0
 21
1.0
 12
1857.66879193
 22
-665.98067366
 13
0.0
 23
0.0
 14
1.0
 24
1.0
 15
0.0
 25
0.0
 16
0.0
 26
0.0
 36
1.0
 17
0.0
 27
0.0
 37
0.0
 40
378.675
 41
2.170447994
 42
50.0
 43
0.0
 44
0.0
 50
0.0
 51
0.0
 71
     0
 72
   100
 73
     1
 74
     1
 75
     0
 76
     0
 77
     0
 78
     0
  0
ENDTAB
  0
TABLE
  2
LTYPE
 70
    19
  0
LTYPE
  2
CONTINUOUS
 70
     0
  3
Solid line
 72
    65
 73
     0
 40
0.0
  0
LTYPE
  2
DOT
 70
     0
  3
..............
 72
    65
 73
     2
 40
2.0
 49
0.5
 49
-1.5
  0
LTYPE
  2
HIDDEN
 70
     0
  3
-- -- -- -- --
 72
    65
 73
     2
 40
7.0
 49
4.0
 49
-3.0
  0
LTYPE
  2
DASHDOT
 70
     0
  3
--.--.--.--.--
 72
    65
 73
     4
 40
8.5
 49
4.0
 49
-2.0
 49
0.5
 49
-2.0
  0
LTYPE
  2
STRICHPUNKT2
 70
     0
  3
--.--.--.--.--
 72
    65
 73
     4
 40
18.5
 49
10.0
 49
-4.0
 49
0.5
 49
-4.0
  0
LTYPE
  2
STRICHPUNKT3
 70
     0
  3
--.--.--.--.--
 72
    65
 73
     4
 40
35.5
 49
25.0
 49
-5.0
 49
0.5
 49
-5.0
  0
LTYPE
  2
PHANTOM
 70
     0
  3
--..--..--..--
 72
    65
 73
     6
 40
23.0
 49
10.0
 49
-4.0
 49
0.5
 49
-4.0
 49
0.5
 49
-4.0
  0
LTYPE
  2
PHANTOM2
 70
     0
  3
--..--..--..--
 72
    65
 73
     6
 40
33.0
 49
20.0
 49
-4.0
 49
0.5
 49
-4.0
 49
0.5
 49
-4.0
  0
LTYPE
  2
PHANTOM3
 70
     0
  3
--..--..--..--
 72
    65
 73
     6
 40
50.0
 49
37.0
 49
-4.0
 49
0.5
 49
-4.0
 49
0.5
 49
-4.0
  0
LTYPE
  2
STR3PKT
 70
     0
  3
--...--...--...
 72
    65
 73
     8
 40
31.5
 49
20.0
 49
-2.5
 49
0.5
 49
-2.5
 49
0.5
 49
-2.5
 49
0.5
 49
-2.5
  0
LTYPE
  2
2STRPKT
 70
     0
  3
--.--.--.--.--
 72
    65
 73
     6
 40
28.0
 49
10.0
 49
-2.5
 49
10.0
 49
-2.5
 49
0.5
 49
-2.5
  0
LTYPE
  2
GESTRICHELT2
 70
     0
  3
-- -- -- -- --
 72
    65
 73
     2
 40
25.0
 49
10.0
 49
-15.0
  0
LTYPE
  2
2STR2PKT
 70
     0
  3
--..--..--..--
 72
    65
 73
     8
 40
31.0
 49
10.0
 49
-2.5
 49
10.0
 49
-2.5
 49
0.5
 49
-2.5
 49
0.5
 49
-2.5
  0
LTYPE
  2
STR3PKT2
 70
     0
  3
--...--...--...
 72
    65
 73
     8
 40
21.0
 49
10.0
 49
-2.5
 49
0.5
 49
-2.5
 49
0.5
 49
-2.5
 49
0.5
 49
-2.0
  0
LTYPE
  2
2STR3PKT
 70
     0
  3
--...--...--...
 72
    65
 73
    10
 40
34.0
 49
10.0
 49
-2.5
 49
10.0
 49
-2.5
 49
0.5
 49
-2.5
 49
0.5
 49
-2.5
 49
0.5
 49
-2.5
  0
LTYPE
  2
STRKSTR
 70
     0
  3
-- - -- - -- -
 72
    65
 73
     4
 40
30.0
 49
20.0
 49
-2.5
 49
5.0
 49
-2.5
  0
LTYPE
  2
STRKSTR2
 70
     0
  3
-- - -- - -- -
 72
    65
 73
     6
 40
37.5
 49
20.0
 49
-2.5
 49
5.0
 49
-2.5
 49
5.0
 49
-2.5
  0
LTYPE
  2
STRKSTR3
 70
     0
  3
-- - -- - -- -
 72
    65
 73
     8
 40
45.0
 49
20.0
 49
-2.5
 49
5.0
 49
-2.5
 49
5.0
 49
-2.5
 49
5.0
 49
-2.5
  0
LTYPE
  2
PUNKT2
 70
     0
  3
..............
 72
    65
 73
     2
 40
3.5
 49
0.5
 49
-3.0
  0
ENDTAB
  0
TABLE
  2
LAYER
 70
    17
  0
LAYER
  2
0
 70
     0
 62
     7
  6
CONTINUOUS
  0
LAYER
  2
LE_GREEN
 70
     0
 62
     3
  6
CONTINUOUS
  0
LAYER
  2
LE_RED
 70
     0
 62
     1
  6
CONTINUOUS
  0
LAYER
  2
LE_ALL
 70
     0
 62
     7
  6
CONTINUOUS
  0
LAYER
  2
LE_HIDDEN1
 70
     0
 62
     3
  6
HIDDEN
  0
LAYER
  2
LE_HIDDEN
 70
     0
 62
     7
  6
CONTINUOUS
  0
LAYER
  2
LE_MIDDLE
 70
     0
 62
     7
  6
CONTINUOUS
  0
LAYER
  2
TXT_YELLOW
 70
     0
 62
     2
  6
CONTINUOUS
  0
LAYER
  2
TXT_DIM49
 70
     0
 62
     2
  6
CONTINUOUS
  0
LAYER
  2
TXT_ALL
 70
     0
 62
     7
  6
CONTINUOUS
  0
LAYER
  2
DIM49
 70
     0
 62
     4
  6
CONTINUOUS
  0
LAYER
  2
HATCH
 70
     0
 62
     3
  6
CONTINUOUS
  0
LAYER
  2
APPLE
 70
     0
 62
     7
  6
CONTINUOUS
  0
LAYER
  2
10
 70
     0
 62
     7
  6
CONTINUOUS
  0
LAYER
  2
20
 70
     0
 62
     7
  6
CONTINUOUS
  0
LAYER
  2
47
 70
     0
 62
     7
  6
CONTINUOUS
  0
LAYER
  2
49
 70
     0
 62
     7
  6
CONTINUOUS
  0
ENDTAB
  0
TABLE
  2
STYLE
 70
     5
  0
STYLE
  2
MONOTXT
 70
     0
 40
0.0
 41
1.0
 50
0.0
 71
     0
 42
1.0
  3
monotxt.shx
  4

  0
STYLE
  2
STANDARD
 70
     0
 40
0.0
 41
1.0
 50
0.0
 71
     0
 42
1.0
  3
txt
  4

  0
STYLE
  2
ARIAL
 70
     0
 40
0.0
 41
1.0
 50
0.0
 71
     0
 42
1.0
  3
arial.ttf
  4

  0
STYLE
  2
ARIAL_NARROW
 70
     0
 40
0.0
 41
1.0
 50
0.0
 71
     0
 42
1.0
  3
ArialN.ttf
  4

  0
STYLE
  2
ISOCPEUR
 70
     0
 40
0.0
 41
1.0
 50
0.0
 71
     0
 42
1.0
  3
ISOCPEUR.ttf
  4

  0
ENDTAB
  0
TABLE
  2
VIEW
 70
     0
  0
ENDTAB
  0
TABLE
  2
UCS
 70
     0
  0
ENDTAB
  0
ENDSEC
  0
SECTION
  2
BLOCKS
  0
ENDSEC
  0
SECTION
  2
ENTITIES
  0
POLYLINE
  5
16E
  8
0
 66
     1
 10
0.0
 20
0.0
 30
0.0
 70
     1
  0
VERTEX
  5
16F
  8
0
 10
1615.35016296
 20
-829.85487198
 30
0.0
  0
VERTEX
  5
170
  8
0
 10
2035.35016296
 20
-829.85487198
 30
0.0
  0
VERTEX
  5
171
  8
0
 10
2035.35016296
 20
-532.85487198
 30
0.0
  0
VERTEX
  5
172
  8
0
 10
1615.35016296
 20
-532.85487198
 30
0.0
  0
SEQEND
  5
173
  8
0
  0
POLYLINE
  5
174
  8
0
 66
     1
 10
0.0
 20
0.0
 30
0.0
 70
     1
  0
VERTEX
  5
175
  8
0
 10
1620.35016296
 20
-824.85487198
 30
0.0
  0
VERTEX
  5
176
  8
0
 10
2030.35016296
 20
-824.85487198
 30
0.0
  0
VERTEX
  5
177
  8
0
 10
2030.35016296
 20
-537.85487198
 30
0.0
  0
VERTEX
  5
178
  8
0
 10
1620.35016296
 20
-537.85487198
 30
0.0
  0
SEQEND
  5
179
  8
0
  0
LINE
  5
17A
  8
0
 10
1845.35016296
 20
-824.85487198
 30
0.0
 11
1845.35016296
 21
-829.85487198
 31
0.0
  0
LINE
  5
17B
  8
0
 10
1845.35016296
 20
-537.85487198
 30
0.0
 11
1845.35016296
 21
-532.85487198
 31
0.0
  0
LINE
  5
17C
  8
0
 10
1635.35016296
 20
-824.85487198
 30
0.0
 11
1635.35016296
 21
-829.85487198
 31
0.0
  0
LINE
  5
17D
  8
0
 10
1635.35016296
 20
-537.85487198
 30
0.0
 11
1635.35016296
 21
-532.85487198
 31
0.0
  0
TEXT
  5
17E
  8
TXT_ALL
 62
     4
 10
2034.35016296
 20
-828.85487198
 30
0.0
 40
2.5
  1

 50
90.00020741
  0
POLYLINE
  5
17F
  8
0
 66
     1
 10
0.0
 20
0.0
 30
0.0
  0
VERTEX
  5
180
  8
0
 10
2030.35016296
 20
-547.85487198
 30
0.0
  0
VERTEX
  5
181
  8
0
 10
1961.35686296
 20
-547.85487198
 30
0.0
  0
VERTEX
  5
182
  8
0
 10
1961.35686296
 20
-537.85487198
 30
0.0
  0
SEQEND
  5
183
  8
0
  0
LINE
  5
184
  8
0
 10
1963.26016296
 20
-805.35487198
 30
0.0
 11
1823.37016296
 21
-805.35487198
 31
0.0
  0
LINE
  5
185
  8
0
 10
1823.37016296
 20
-815.10487198
 30
0.0
 11
1963.26016296
 21
-815.10487198
 31
0.0
  0
POLYLINE
  5
186
  8
0
 66
     1
 10
0.0
 20
0.0
 30
0.0
  0
VERTEX
  5
187
  8
0
 10
1823.37016296
 20
-805.35487198
 30
0.0
  0
VERTEX
  5
188
  8
0
 10
1823.37016296
 20
-815.10487198
 30
0.0
  0
VERTEX
  5
189
  8
0
 10
1823.37016296
 20
-824.85487198
 30
0.0
  0
SEQEND
  5
18A
  8
0
  0
POLYLINE
  5
18B
  8
0
 66
     1
 10
0.0
 20
0.0
 30
0.0
  0
VERTEX
  5
18C
  8
0
 10
1893.31516296
 20
-805.35487198
 30
0.0
  0
VERTEX
  5
18D
  8
0
 10
1893.31516296
 20
-815.10487198
 30
0.0
  0
VERTEX
  5
18E
  8
0
 10
1893.31516296
 20
-824.85487198
 30
0.0
  0
SEQEND
  5
18F
  8
0
  0
TEXT
  5
190
  8
TXT_ALL
 10
1825.37016296
 20
-811.52987193
 30
0.0
 40
2.5999999
  1
E-mail: verkoop@jonkers-bouwmetaal.nl
  7
ARIAL
  0
TEXT
  5
191
  8
TXT_ALL
 10
1825.37016296
 20
-821.27987193
 30
0.0
 40
2.5999999
  1
Telefoon: 0527-685156
  7
ARIAL
  0
TEXT
  5
192
  8
TXT_ALL
 10
1895.31516296
 20
-821.27987193
 30
0.0
 40
2.5999999
  1
Website: www.jonkers-bouwmetaal.nl
  7
ARIAL
  0
TEXT
  5
193
  8
TXT_ALL
 10
1895.31516296
 20
-811.52987193
 30
0.0
 40
2.5999999
  1
Adres: Hoornse Hop 10, 8321 WX Urk
  7
ARIAL
  0
TEXT
  5
194
  8
TXT_ALL
 10
1623.79212321
 20
-544.10487198
 30
0.0
 40
2.5
  1
Art. nr. 91004951
  7
ARIAL
  0
TEXT
  5
195
  8
TXT_ALL
 10
1666.53016003
 20
-544.10487198
 30
0.0
 40
2.5
  1
Omschrijving: H1501-anker 150x40, 70x8
  7
ARIAL
  0
LINE
  5
196
  8
0
 10
2030.35016296
 20
-547.85487198
 30
0.0
 11
1620.35016296
 21
-547.85487198
 31
0.0
  0
LINE
  5
197
  8
0
 10
1663.37016296
 20
-547.85487198
 30
0.0
 11
1663.37016296
 21
-537.85487198
 31
0.0
  0
LINE
  5
198
  8
0
 10
1823.37016296
 20
-547.85487198
 30
0.0
 11
1823.37016296
 21
-537.85487198
 31
0.0
  0
TEXT
  5
199
  8
TXT_ALL
 10
1894.36386296
 20
-544.10487198
 30
0.0
 40
2.5
  1
Behandeling: Thermisch Verzinkt
  7
ARIAL
  0
LINE
  5
19A
  8
0
 10
1963.26016296
 20
-805.35487198
 30
0.0
 11
2030.35016296
 21
-805.35487198
 31
0.0
  0
LINE
  5
19B
  8
0
 10
1963.26016296
 20
-824.85487198
 30
0.0
 11
1963.26016296
 21
-805.35487198
 31
0.0
  0
LINE
  5
19C
  8
0
 10
1963.26016296
 20
-824.85487198
 30
0.0
 11
1963.26016296
 21
-805.35487198
 31
0.0
  0
TEXT
  5
19D
  8
TXT_ALL
 10
1757.71536105
 20
-823.70033857
 30
0.0
 40
2.5
  1

  0
TEXT
  5
19E
  8
TXT_ALL
 10
1878.85054402
 20
-813.60487198
 30
0.0
 40
2.5
  1

  0
POLYLINE
  5
19F
  8
0
 66
     1
 10
0.0
 20
0.0
 30
0.0
  0
VERTEX
  5
1A0
  8
0
 10
1961.35686296
 20
-547.85487198
 30
0.0
  0
VERTEX
  5
1A1
  8
0
 10
1892.36386296
 20
-547.85487198
 30
0.0
  0
VERTEX
  5
1A2
  8
0
 10
1892.36386296
 20
-537.85487198
 30
0.0
  0
SEQEND
  5
1A3
  8
0
  0
TEXT
  5
1A4
  8
TXT_ALL
 10
1963.35686296
 20
-544.10487198
 30
0.0
 40
2.5
  1
Verpakkingshoeveelheid: 1 st.
  7
ARIAL
  0
TEXT
  5
1A5
  8
TXT_ALL
 10
1825.37016296
 20
-544.10487198
 30
0.0
 40
2.5
  1
Materiaal: S355
  7
ARIAL
  0
TEXT
  5
1A6
  8
TXT_ALL
 10
1997.84258588
 20
-828.10438183
 30
0.0
 40
1.5
  1
Onderdeel van
  7
ARIAL
  0
POLYLINE
  5
1A7
  8
0
 66
     1
 10
0.0
 20
0.0
 30
0.0
  0
VERTEX
  5
314
  8
0
 10
1645.060460993605
 20
-775.8080835960137
 30
0.0
  0
VERTEX
  5
315
  8
0
 10
1645.204250794221
 20
-777.2976627545743
 30
0.0
  0
VERTEX
  5
316
  8
0
 10
1645.630094420402
 20
-778.7662298440608
 30
0.0
  0
VERTEX
  5
317
  8
0
 10
1646.321626940551
 20
-780.1573486552929
 30
0.0
  0
VERTEX
  5
318
  8
0
 10
1647.252273147964
 20
-781.4175592729646
 30
0.0
  0
VERTEX
  5
319
  8
0
 10
1648.386268831111
 20
-782.4984325101905
 30
0.0
  0
VERTEX
  5
31A
  8
0
 10
1649.680035172216
 20
-783.3584310149828
 30
0.0
  0
VERTEX
  5
31B
  8
0
 10
1651.083853456772
 20
-783.9645055273804
 30
0.0
  0
VERTEX
  5
31C
  8
0
 10
1652.543775735839
 20
-784.2933649439628
 30
0.0
  0
SEQEND
  5
3B9
  8
0
  0
LINE
  5
1A8
  8
0
 10
1677.29251309
 20
-762.46703021
 30
0.0
 11
1652.54377575
 21
-784.29336496
 31
0.0
  0
POLYLINE
  5
1A9
  8
0
 66
     1
 10
0.0
 20
0.0
 30
0.0
  0
VERTEX
  5
31D
  8
0
 10
1669.809198333606
 20
-753.9817488360137
 30
0.0
  0
VERTEX
  5
31E
  8
0
 10
1669.952988134221
 20
-755.4713279945743
 30
0.0
  0
VERTEX
  5
31F
  8
0
 10
1670.378831760403
 20
-756.9398950840608
 30
0.0
  0
VERTEX
  5
320
  8
0
 10
1671.070364280552
 20
-758.3310138952929
 30
0.0
  0
VERTEX
  5
321
  8
0
 10
1672.001010487964
 20
-759.5912245129646
 30
0.0
  0
VERTEX
  5
322
  8
0
 10
1673.135006171111
 20
-760.6720977501905
 30
0.0
  0
VERTEX
  5
323
  8
0
 10
1674.428772512216
 20
-761.5320962549828
 30
0.0
  0
VERTEX
  5
324
  8
0
 10
1675.832590796772
 20
-762.1381707673804
 30
0.0
  0
VERTEX
  5
325
  8
0
 10
1677.292513075839
 20
-762.4670301839628
 30
0.0
  0
SEQEND
  5
3BA
  8
0
  0
LINE
  5
1AA
  8
0
 10
1669.80919831
 20
-753.98174883
 30
0.0
 11
1645.06046097
 21
-775.80808359
 31
0.0
  0
LINE
  5
1AB
  8
0
 10
1637.5771462
 20
-774.86527455
 30
0.0
 11
1645.06046097
 21
-775.80808359
 31
0.0
  0
POLYLINE
  5
1AC
  8
0
 66
     1
 10
0.0
 20
0.0
 30
0.0
  0
VERTEX
  5
326
  8
0
 10
1637.577146237211
 20
-774.8652745620276
 30
0.0
  0
VERTEX
  5
327
  8
0
 10
1637.864725838442
 20
-777.8444328791486
 30
0.0
  0
VERTEX
  5
328
  8
0
 10
1638.716413090805
 20
-780.7815670581216
 30
0.0
  0
VERTEX
  5
329
  8
0
 10
1640.099478131103
 20
-783.563804680586
 30
0.0
  0
VERTEX
  5
32A
  8
0
 10
1641.960770545929
 20
-786.0842259159293
 30
0.0
  0
VERTEX
  5
32B
  8
0
 10
1644.228761912222
 20
-788.245972390381
 30
0.0
  0
VERTEX
  5
32C
  8
0
 10
1646.816294594432
 20
-789.9659693999658
 30
0.0
  0
VERTEX
  5
32D
  8
0
 10
1649.623931163544
 20
-791.1781184247609
 30
0.0
  0
VERTEX
  5
32E
  8
0
 10
1652.543775721678
 20
-791.8358372579258
 30
0.0
  0
SEQEND
  5
3BB
  8
0
  0
LINE
  5
1AD
  8
0
 10
1652.54377575
 20
-791.8358373
 30
0.0
 11
1652.54377575
 21
-784.29336496
 31
0.0
  0
POLYLINE
  5
1AE
  8
0
 66
     1
 10
0.0
 20
0.0
 30
0.0
  0
VERTEX
  5
32F
  8
0
 10
1714.97841957
 20
-780.5691165216238
 30
0.0
  0
VERTEX
  5
330
  8
0
 10
1715.120147501549
 20
-781.0362715358987
 30
0.0
  0
VERTEX
  5
331
  8
0
 10
1715.53959221846
 20
-781.4845097173023
 30
0.0
  0
VERTEX
  5
332
  8
0
 10
1716.219768853809
 20
-781.8956802451072
 30
0.0
  0
VERTEX
  5
333
  8
0
 10
1717.133134541583
 20
-782.253133304888
 30
0.0
  0
VERTEX
  5
334
  8
0
 10
1718.242703729135
 20
-782.5423943010484
 30
0.0
  0
VERTEX
  5
335
  8
0
 10
1719.503545858909
 20
-782.7517499866973
 30
0.0
  0
SEQEND
  5
3BC
  8
0
  0
POLYLINE
  5
1AF
  8
0
 66
     1
 10
0.0
 20
0.0
 30
0.0
  0
VERTEX
  5
336
  8
0
 10
1724.453293323064
 20
-778.3864830785908
 30
0.0
  0
VERTEX
  5
337
  8
0
 10
1723.149936066805
 20
-778.2686927008095
 30
0.0
  0
VERTEX
  5
338
  8
0
 10
1721.80297899995
 20
-778.236516177818
 30
0.0
  0
VERTEX
  5
339
  8
0
 10
1720.462551227087
 20
-778.2911510090212
 30
0.0
  0
VERTEX
  5
33A
  8
0
 10
1719.178538854963
 20
-778.4305638741042
 30
0.0
  0
VERTEX
  5
33B
  8
0
 10
1717.998728403338
 20
-778.6495663062133
 30
0.0
  0
VERTEX
  5
33C
  8
0
 10
1716.967028355252
 20
-778.9400077888293
 30
0.0
  0
VERTEX
  5
33D
  8
0
 10
1716.121835034452
 20
-779.2910790899307
 30
0.0
  0
VERTEX
  5
33E
  8
0
 10
1715.494603626421
 20
-779.6897145443943
 30
0.0
  0
VERTEX
  5
33F
  8
0
 10
1715.108677524669
 20
-780.1210783130676
 30
0.0
  0
VERTEX
  5
340
  8
0
 10
1714.97841957
 20
-780.5691165216238
 30
0.0
  0
SEQEND
  5
3BD
  8
0
  0
POLYLINE
  5
1B0
  8
0
 66
     1
 10
0.0
 20
0.0
 30
0.0
  0
VERTEX
  5
1B1
  8
0
 10
1724.4532933
 20
-778.38648305
 30
0.0
  0
VERTEX
  5
1B2
  8
0
 10
1767.48235325
 20
-783.80763504
 30
0.0
  0
SEQEND
  5
1B3
  8
0
  0
POLYLINE
  5
1B4
  8
0
 66
     1
 10
0.0
 20
0.0
 30
0.0
  0
VERTEX
  5
341
  8
0
 10
1772.00747951
 20
-785.99026852
 30
0.0
  0
VERTEX
  5
342
  8
0
 10
1771.865751575755
 20
-785.5231135097048
 30
0.0
  0
VERTEX
  5
343
  8
0
 10
1771.446306860835
 20
-785.0748753321471
 30
0.0
  0
VERTEX
  5
344
  8
0
 10
1770.766130231803
 20
-784.6637048075996
 30
0.0
  0
VERTEX
  5
345
  8
0
 10
1769.852764553961
 20
-784.3062517500814
 30
0.0
  0
VERTEX
  5
346
  8
0
 10
1768.743195378946
 20
-784.0169907548584
 30
0.0
  0
VERTEX
  5
347
  8
0
 10
1767.482353263064
 20
-783.8076350685908
 30
0.0
  0
SEQEND
  5
3BE
  8
0
  0
POLYLINE
  5
1B5
  8
0
 66
     1
 10
0.0
 20
0.0
 30
0.0
  0
VERTEX
  5
348
  8
0
 10
1762.532605798909
 20
-788.1729019766973
 30
0.0
  0
VERTEX
  5
349
  8
0
 10
1763.835963055487
 20
-788.2906923515835
 30
0.0
  0
VERTEX
  5
34A
  8
0
 10
1765.18292012096
 20
-788.3228688718401
 30
0.0
  0
VERTEX
  5
34B
  8
0
 10
1766.523347890937
 20
-788.2682340381673
 30
0.0
  0
VERTEX
  5
34C
  8
0
 10
1767.807360258925
 20
-788.128821170966
 30
0.0
  0
VERTEX
  5
34D
  8
0
 10
1768.987170705455
 20
-787.9098187371538
 30
0.0
  0
VERTEX
  5
34E
  8
0
 10
1770.018870747806
 20
-787.6193772532895
 30
0.0
  0
VERTEX
  5
34F
  8
0
 10
1770.864064062556
 20
-787.2683059514095
 30
0.0
  0
VERTEX
  5
350
  8
0
 10
1771.491295464538
 20
-786.869670496628
 30
0.0
  0
VERTEX
  5
351
  8
0
 10
1771.877221560535
 20
-786.4383067280661
 30
0.0
  0
VERTEX
  5
352
  8
0
 10
1772.00747951
 20
-785.99026852
 30
0.0
  0
SEQEND
  5
3BF
  8
0
  0
LINE
  5
1B6
  8
0
 10
1762.53260578
 20
-788.17290199
 30
0.0
 11
1719.50354583
 21
-782.75175
 31
0.0
  0
LINE
  5
1B7
  8
0
 10
1802.63803555
 20
-778.25908165
 30
0.0
 11
1777.8892982
 21
-800.08541641
 31
0.0
  0
LINE
  5
1B8
  8
0
 10
1652.54377575
 20
-784.29336496
 30
0.0
 11
1777.8892982
 21
-800.08541641
 31
0.0
  0
LINE
  5
1B9
  8
0
 10
1677.29251309
 20
-762.46703021
 30
0.0
 11
1652.54377575
 21
-784.29336496
 31
0.0
  0
LINE
  5
1BA
  8
0
 10
1802.63803555
 20
-778.25908165
 30
0.0
 11
1677.29251309
 21
-762.46703021
 31
0.0
  0
LINE
  5
1BB
  8
0
 10
1802.63803555
 20
-785.80155399
 30
0.0
 11
1802.63803555
 21
-778.25908165
 31
0.0
  0
POLYLINE
  5
1BC
  8
0
 66
     1
 10
0.0
 20
0.0
 30
0.0
  0
VERTEX
  5
1BD
  8
0
 10
1802.63803555
 20
-785.80155399
 30
0.0
  0
VERTEX
  5
1BE
  8
0
 10
1777.8892982
 20
-807.62788874
 30
0.0
  0
VERTEX
  5
1BF
  8
0
 10
1777.8892982
 20
-800.08541641
 30
0.0
  0
SEQEND
  5
1C0
  8
0
  0
LINE
  5
1C1
  8
0
 10
1652.54377575
 20
-791.8358373
 30
0.0
 11
1777.8892982
 21
-807.62788874
 31
0.0
  0
LINE
  5
1C2
  8
0
 10
1652.54377575
 20
-791.8358373
 30
0.0
 11
1652.54377575
 21
-784.29336496
 31
0.0
  0
LINE
  5
1C3
  8
0
  6
STRICHPUNKT2
 62
     1
 10
1721.97841957
 20
-777.26928488
 30
0.0
 11
1721.97841957
 21
-783.06355478
 31
0.0
  0
LINE
  5
1C4
  8
0
  6
STRICHPUNKT2
 62
     1
 10
1765.00747951
 20
-782.69043687
 30
0.0
 11
1765.00747951
 21
-788.32360185
 31
0.0
  0
LINE
  5
1C5
  8
0
  6
STRICHPUNKT2
 62
     1
 10
1712.15656893
 20
-779.33167966
 30
0.0
 11
1774.82933015
 21
-787.22770538
 31
0.0
  0
LINE
  5
1C6
  8
0
  6
STRICHPUNKT2
 62
     1
 10
1718.26610896
 20
-783.84306674
 30
0.0
 11
1725.69073017
 21
-777.29516631
 31
0.0
  0
LINE
  5
1C7
  8
0
  6
STRICHPUNKT2
 62
     1
 10
1761.29516891
 20
-789.26421873
 30
0.0
 11
1768.71979011
 21
-782.7163183
 31
0.0
  0
POLYLINE
  5
1C8
  8
0
 66
     1
 10
0.0
 20
0.0
 30
0.0
  0
VERTEX
  5
353
  8
0
 10
1658.304933527123
 20
-750.3892201808974
 30
0.0
  0
VERTEX
  5
354
  8
0
 10
1657.903402134771
 20
-750.4548316784234
 30
0.0
  0
VERTEX
  5
355
  8
0
 10
1657.488479288947
 20
-750.7466899264218
 30
0.0
  0
VERTEX
  5
356
  8
0
 10
1657.076110241959
 20
-751.2535789760724
 30
0.0
  0
VERTEX
  5
357
  8
0
 10
1656.682142105062
 20
-751.9560193654193
 30
0.0
  0
VERTEX
  5
358
  8
0
 10
1656.32171485285
 20
-752.8270167041717
 30
0.0
  0
VERTEX
  5
359
  8
0
 10
1656.008679502527
 20
-753.8330990529861
 30
0.0
  0
VERTEX
  5
35A
  8
0
 10
1655.755065827082
 20
-754.9356032313267
 30
0.0
  0
VERTEX
  5
35B
  8
0
 10
1655.570620057856
 20
-756.0921606218151
 30
0.0
  0
VERTEX
  5
35C
  8
0
 10
1655.462430342338
 20
-757.2583253724382
 30
0.0
  0
VERTEX
  5
35D
  8
0
 10
1655.434654350631
 20
-758.3892824257204
 30
0.0
  0
VERTEX
  5
35E
  8
0
 10
1655.488359498523
 20
-759.441569736253
 30
0.0
  0
VERTEX
  5
35F
  8
0
 10
1655.621481927293
 20
-760.3747484927294
 30
0.0
  0
VERTEX
  5
360
  8
0
 10
1655.828905816648
 20
-761.1529571587896
 30
0.0
  0
VERTEX
  5
361
  8
0
 10
1656.102659982826
 20
-761.746289611753
 30
0.0
  0
VERTEX
  5
362
  8
0
 10
1656.432224206721
 20
-762.1319444181452
 30
0.0
  0
VERTEX
  5
363
  8
0
 10
1656.80493352
 20
-762.29510108
 30
0.0
  0
SEQEND
  5
3C0
  8
0
  0
POLYLINE
  5
1C9
  8
0
 66
     1
 10
0.0
 20
0.0
 30
0.0
  0
VERTEX
  5
364
  8
0
 10
1656.80493352
 20
-762.29510108
 30
0.0
  0
VERTEX
  5
365
  8
0
 10
1657.206464911802
 20
-762.2294895786988
 30
0.0
  0
VERTEX
  5
366
  8
0
 10
1657.621387756762
 20
-761.9376313280666
 30
0.0
  0
VERTEX
  5
367
  8
0
 10
1658.033756802677
 20
-761.4307422769738
 30
0.0
  0
VERTEX
  5
368
  8
0
 10
1658.427724938409
 20
-760.7283018873426
 30
0.0
  0
VERTEX
  5
369
  8
0
 10
1658.788152189474
 20
-759.857304549352
 30
0.0
  0
VERTEX
  5
36A
  8
0
 10
1659.101187538776
 20
-758.851222202164
 30
0.0
  0
VERTEX
  5
36B
  8
0
 10
1659.354801213422
 20
-757.7487180260752
 30
0.0
  0
VERTEX
  5
36C
  8
0
 10
1659.539246982144
 20
-756.5921606381849
 30
0.0
  0
VERTEX
  5
36D
  8
0
 10
1659.647436697506
 20
-755.4259958902035
 30
0.0
  0
VERTEX
  5
36E
  8
0
 10
1659.675212689428
 20
-754.2950388393012
 30
0.0
  0
VERTEX
  5
36F
  8
0
 10
1659.621507542121
 20
-753.2427515305972
 30
0.0
  0
VERTEX
  5
370
  8
0
 10
1659.488385114274
 20
-752.3095727751431
 30
0.0
  0
VERTEX
  5
371
  8
0
 10
1659.280961226119
 20
-751.5313641090969
 30
0.0
  0
VERTEX
  5
372
  8
0
 10
1659.007207061337
 20
-750.9380316550021
 30
0.0
  0
VERTEX
  5
373
  8
0
 10
1658.677642838933
 20
-750.552376846273
 30
0.0
  0
VERTEX
  5
374
  8
0
 10
1658.304933527123
 20
-750.3892201808974
 30
0.0
  0
SEQEND
  5
3C1
  8
0
  0
POLYLINE
  5
1CA
  8
0
 66
     1
 10
0.0
 20
0.0
 30
0.0
  0
VERTEX
  5
375
  8
0
 10
1665.130897465936
 20
-740.4987102707479
 30
0.0
  0
VERTEX
  5
376
  8
0
 10
1664.796287972201
 20
-740.5533865187183
 30
0.0
  0
VERTEX
  5
377
  8
0
 10
1664.45051893391
 20
-740.7966017254785
 30
0.0
  0
VERTEX
  5
378
  8
0
 10
1664.106878061324
 20
-741.2190092670079
 30
0.0
  0
VERTEX
  5
379
  8
0
 10
1663.778571280492
 20
-741.8043762583377
 30
0.0
  0
VERTEX
  5
37A
  8
0
 10
1663.478215236913
 20
-742.5302073742172
 30
0.0
  0
VERTEX
  5
37B
  8
0
 10
1663.217352444926
 20
-743.3686093318506
 30
0.0
  0
VERTEX
  5
37C
  8
0
 10
1663.006007715357
 20
-744.2873628141137
 30
0.0
  0
VERTEX
  5
37D
  8
0
 10
1662.852302907658
 20
-745.251160639846
 30
0.0
  0
VERTEX
  5
37E
  8
0
 10
1662.762144811403
 20
-746.2229645990237
 30
0.0
  0
VERTEX
  5
37F
  8
0
 10
1662.73899815168
 20
-747.1654288104048
 30
0.0
  0
VERTEX
  5
380
  8
0
 10
1662.783752441641
 20
-748.0423349028035
 30
0.0
  0
VERTEX
  5
381
  8
0
 10
1662.894687799018
 20
-748.8199838667864
 30
0.0
  0
VERTEX
  5
382
  8
0
 10
1663.067541040231
 20
-749.4684910887105
 30
0.0
  0
VERTEX
  5
383
  8
0
 10
1663.295669512142
 20
-749.9629347996674
 30
0.0
  0
VERTEX
  5
384
  8
0
 10
1663.570306365492
 20
-750.284313805089
 30
0.0
  0
VERTEX
  5
385
  8
0
 10
1663.88089746
 20
-750.42027769
 30
0.0
  0
SEQEND
  5
3C2
  8
0
  0
POLYLINE
  5
1CB
  8
0
 66
     1
 10
0.0
 20
0.0
 30
0.0
  0
VERTEX
  5
386
  8
0
 10
1663.88089746
 20
-750.42027769
 30
0.0
  0
VERTEX
  5
387
  8
0
 10
1664.215506953276
 20
-750.3656014388837
 30
0.0
  0
VERTEX
  5
388
  8
0
 10
1664.561275990847
 20
-750.1223862299288
 30
0.0
  0
VERTEX
  5
389
  8
0
 10
1664.904916862539
 20
-749.6999786871974
 30
0.0
  0
VERTEX
  5
38A
  8
0
 10
1665.2332236424
 20
-749.1146116956307
 30
0.0
  0
VERTEX
  5
38B
  8
0
 10
1665.533579685024
 20
-748.3887805803861
 30
0.0
  0
VERTEX
  5
38C
  8
0
 10
1665.79444247616
 20
-747.5503786241078
 30
0.0
  0
VERTEX
  5
38D
  8
0
 10
1666.005787205063
 20
-746.6316251437212
 30
0.0
  0
VERTEX
  5
38E
  8
0
 10
1666.159492012342
 20
-745.6678273201541
 30
0.0
  0
VERTEX
  5
38F
  8
0
 10
1666.249650108466
 20
-744.6960233631778
 30
0.0
  0
VERTEX
  5
390
  8
0
 10
1666.27279676837
 20
-743.7535591537799
 30
0.0
  0
VERTEX
  5
391
  8
0
 10
1666.228042478896
 20
-742.8766530629051
 30
0.0
  0
VERTEX
  5
392
  8
0
 10
1666.117107122287
 20
-742.0990040997742
 30
0.0
  0
VERTEX
  5
393
  8
0
 10
1665.944253882074
 20
-741.4504968778617
 30
0.0
  0
VERTEX
  5
394
  8
0
 10
1665.716125411327
 20
-740.956053165962
 30
0.0
  0
VERTEX
  5
395
  8
0
 10
1665.441488559219
 20
-740.6346741585929
 30
0.0
  0
VERTEX
  5
396
  8
0
 10
1665.130897465936
 20
-740.4987102707479
 30
0.0
  0
SEQEND
  5
3C3
  8
0
  0
POLYLINE
  5
1CC
  8
0
 66
     1
 10
0.0
 20
0.0
 30
0.0
  0
VERTEX
  5
397
  8
0
 10
1650.988761835936
 20
-752.9709015607478
 30
0.0
  0
VERTEX
  5
398
  8
0
 10
1650.654152342201
 20
-753.0255778087183
 30
0.0
  0
VERTEX
  5
399
  8
0
 10
1650.30838330391
 20
-753.2687930154784
 30
0.0
  0
VERTEX
  5
39A
  8
0
 10
1649.964742431324
 20
-753.6912005570078
 30
0.0
  0
VERTEX
  5
39B
  8
0
 10
1649.636435650492
 20
-754.2765675483377
 30
0.0
  0
VERTEX
  5
39C
  8
0
 10
1649.336079606913
 20
-755.0023986642171
 30
0.0
  0
VERTEX
  5
39D
  8
0
 10
1649.075216814926
 20
-755.8408006218506
 30
0.0
  0
VERTEX
  5
39E
  8
0
 10
1648.863872085357
 20
-756.7595541041137
 30
0.0
  0
VERTEX
  5
39F
  8
0
 10
1648.710167277658
 20
-757.723351929846
 30
0.0
  0
VERTEX
  5
3A0
  8
0
 10
1648.620009181403
 20
-758.6951558890237
 30
0.0
  0
VERTEX
  5
3A1
  8
0
 10
1648.59686252168
 20
-759.6376201004048
 30
0.0
  0
VERTEX
  5
3A2
  8
0
 10
1648.641616811641
 20
-760.5145261928035
 30
0.0
  0
VERTEX
  5
3A3
  8
0
 10
1648.752552169018
 20
-761.2921751567864
 30
0.0
  0
VERTEX
  5
3A4
  8
0
 10
1648.925405410231
 20
-761.9406823787104
 30
0.0
  0
VERTEX
  5
3A5
  8
0
 10
1649.153533882142
 20
-762.4351260896674
 30
0.0
  0
VERTEX
  5
3A6
  8
0
 10
1649.428170735492
 20
-762.756505095089
 30
0.0
  0
VERTEX
  5
3A7
  8
0
 10
1649.73876183
 20
-762.89246898
 30
0.0
  0
SEQEND
  5
3C4
  8
0
  0
POLYLINE
  5
1CD
  8
0
 66
     1
 10
0.0
 20
0.0
 30
0.0
  0
VERTEX
  5
3A8
  8
0
 10
1649.73876183
 20
-762.89246898
 30
0.0
  0
VERTEX
  5
3A9
  8
0
 10
1650.073371323276
 20
-762.8377927288836
 30
0.0
  0
VERTEX
  5
3AA
  8
0
 10
1650.419140360847
 20
-762.5945775199287
 30
0.0
  0
VERTEX
  5
3AB
  8
0
 10
1650.76278123254
 20
-762.1721699771973
 30
0.0
  0
VERTEX
  5
3AC
  8
0
 10
1651.0910880124
 20
-761.5868029856307
 30
0.0
  0
VERTEX
  5
3AD
  8
0
 10
1651.391444055024
 20
-760.860971870386
 30
0.0
  0
VERTEX
  5
3AE
  8
0
 10
1651.65230684616
 20
-760.0225699141077
 30
0.0
  0
VERTEX
  5
3AF
  8
0
 10
1651.863651575063
 20
-759.1038164337211
 30
0.0
  0
VERTEX
  5
3B0
  8
0
 10
1652.017356382342
 20
-758.140018610154
 30
0.0
  0
VERTEX
  5
3B1
  8
0
 10
1652.107514478466
 20
-757.1682146531778
 30
0.0
  0
VERTEX
  5
3B2
  8
0
 10
1652.13066113837
 20
-756.2257504437798
 30
0.0
  0
VERTEX
  5
3B3
  8
0
 10
1652.085906848896
 20
-755.3488443529051
 30
0.0
  0
VERTEX
  5
3B4
  8
0
 10
1651.974971492287
 20
-754.5711953897742
 30
0.0
  0
VERTEX
  5
3B5
  8
0
 10
1651.802118252074
 20
-753.9226881678617
 30
0.0
  0
VERTEX
  5
3B6
  8
0
 10
1651.573989781327
 20
-753.4282444559619
 30
0.0
  0
VERTEX
  5
3B7
  8
0
 10
1651.299352929219
 20
-753.1068654485929
 30
0.0
  0
VERTEX
  5
3B8
  8
0
 10
1650.988761835936
 20
-752.9709015607478
 30
0.0
  0
SEQEND
  5
3C5
  8
0
  0
POLYLINE
  5
1CE
  8
0
 66
     1
 10
0.0
 20
0.0
 30
0.0
  0
VERTEX
  5
1CF
  8
0
 10
1637.5771462
 20
-752.23785755
 30
0.0
  0
VERTEX
  5
1D0
  8
0
 10
1637.5771462
 20
-774.86527455
 30
0.0
  0
VERTEX
  5
1D1
  8
0
 10
1645.06046097
 20
-775.80808359
 30
0.0
  0
SEQEND
  5
1D2
  8
0
  0
LINE
  5
1D3
  8
0
 10
1645.06046097
 20
-753.18066659
 30
0.0
 11
1645.06046097
 21
-775.80808359
 31
0.0
  0
LINE
  5
1D4
  8
0
 10
1637.5771462
 20
-752.23785755
 30
0.0
 11
1645.06046097
 21
-753.18066659
 31
0.0
  0
LINE
  5
1D5
  8
0
 10
1662.32588354
 20
-730.41152279
 30
0.0
 11
1637.5771462
 21
-752.23785755
 31
0.0
  0
LINE
  5
1D6
  8
0
 10
1662.32588354
 20
-730.41152279
 30
0.0
 11
1669.80919831
 21
-731.35433183
 31
0.0
  0
LINE
  5
1D7
  8
0
 10
1669.80919831
 20
-753.98174883
 30
0.0
 11
1669.80919831
 21
-731.35433183
 31
0.0
  0
LINE
  5
1D8
  8
0
 10
1669.80919831
 20
-753.98174883
 30
0.0
 11
1645.06046097
 21
-775.80808359
 31
0.0
  0
LINE
  5
1D9
  8
0
 10
1669.80919831
 20
-731.35433183
 30
0.0
 11
1645.06046097
 21
-753.18066659
 31
0.0
  0
LINE
  5
1DA
  8
0
  6
STRICHPUNKT2
 62
     1
 10
1652.7022977
 20
-758.2263131
 30
0.0
 11
1648.71016726
 21
-757.72335194
 31
0.0
  0
LINE
  5
1DB
  8
0
  6
STRICHPUNKT2
 62
     1
 10
1650.36376183
 20
-757.93168527
 30
0.0
 11
1647.7121114
 21
-760.27022114
 31
0.0
  0
LINE
  5
1DC
  8
0
  6
STRICHPUNKT2
 62
     1
 10
1650.36376183
 20
-757.93168527
 30
0.0
 11
1653.01541226
 21
-755.59314941
 31
0.0
  0
LINE
  5
1DD
  8
0
  6
STRICHPUNKT2
 62
     1
 10
1650.36376183
 20
-757.93168527
 30
0.0
 11
1650.36376183
 21
-765.00275308
 31
0.0
  0
LINE
  5
1DE
  8
0
  6
STRICHPUNKT2
 62
     1
 10
1650.36376183
 20
-757.93168527
 30
0.0
 11
1650.36376183
 21
-750.86061746
 31
0.0
  0
LINE
  5
1DF
  8
0
  6
STRICHPUNKT2
 62
     1
 10
1666.84443332
 20
-745.75412181
 30
0.0
 11
1662.85230289
 21
-745.25116065
 31
0.0
  0
LINE
  5
1E0
  8
0
  6
STRICHPUNKT2
 62
     1
 10
1664.50589746
 20
-745.45949398
 30
0.0
 11
1661.85424703
 21
-747.79802985
 31
0.0
  0
LINE
  5
1E1
  8
0
  6
STRICHPUNKT2
 62
     1
 10
1664.50589746
 20
-745.45949398
 30
0.0
 11
1667.15754789
 21
-743.12095812
 31
0.0
  0
LINE
  5
1E2
  8
0
  6
STRICHPUNKT2
 62
     1
 10
1664.50589746
 20
-745.45949398
 30
0.0
 11
1664.50589746
 21
-752.5305618
 31
0.0
  0
LINE
  5
1E3
  8
0
  6
STRICHPUNKT2
 62
     1
 10
1664.50589746
 20
-745.45949398
 30
0.0
 11
1664.50589746
 21
-738.38842617
 31
0.0
  0
LINE
  5
1E4
  8
0
  6
STRICHPUNKT2
 62
     1
 10
1660.36117656
 20
-756.69571402
 30
0.0
 11
1655.57062004
 21
-756.09216063
 31
0.0
  0
LINE
  5
1E5
  8
0
  6
STRICHPUNKT2
 62
     1
 10
1657.55493352
 20
-756.34216063
 30
0.0
 11
1654.37295301
 21
-759.14840367
 31
0.0
  0
LINE
  5
1E6
  8
0
  6
STRICHPUNKT2
 62
     1
 10
1657.55493352
 20
-756.34216063
 30
0.0
 11
1660.73691404
 21
-753.53591759
 31
0.0
  0
LINE
  5
1E7
  8
0
  6
STRICHPUNKT2
 62
     1
 10
1657.55493352
 20
-756.34216063
 30
0.0
 11
1657.55493352
 21
-764.78899454
 31
0.0
  0
LINE
  5
1E8
  8
0
  6
STRICHPUNKT2
 62
     1
 10
1657.55493352
 20
-756.34216063
 30
0.0
 11
1657.55493352
 21
-747.85687925
 31
0.0
  0
POLYLINE
  5
1E9
  8
0
 66
     1
 10
0.0
 20
0.0
 30
0.0
  0
VERTEX
  5
1EA
  8
0
 10
1797.5771462
 20
-613.95021921
 30
0.0
 42
0.414213562
  0
VERTEX
  5
1EB
  8
0
 10
1813.5771462
 20
-629.95021921
 30
0.0
  0
VERTEX
  5
1EC
  8
0
 10
1813.5771462
 20
-621.95021921
 30
0.0
  0
SEQEND
  5
1ED
  8
0
  0
ARC
  5
1EE
  8
0
 10
1813.5771462
 20
-613.95021921
 30
0.0
 40
8.0
 50
180.0
 51
-90.0
  0
LINE
  5
1EF
  8
0
 10
1797.5771462
 20
-613.95021921
 30
0.0
 11
1805.5771462
 21
-613.95021921
 31
0.0
  0
POLYLINE
  5
1F0
  8
0
 66
     1
 10
0.0
 20
0.0
 30
0.0
  0
VERTEX
  5
1F1
  8
0
 10
1813.5771462
 20
-629.95021921
 30
0.0
  0
VERTEX
  5
1F2
  8
0
 10
1947.5771462
 20
-629.95021921
 30
0.0
  0
VERTEX
  5
1F3
  8
0
 10
1947.5771462
 20
-621.95021921
 30
0.0
  0
SEQEND
  5
1F4
  8
0
  0
LINE
  5
1F5
  8
0
 10
1813.5771462
 20
-621.95021921
 30
0.0
 11
1947.5771462
 21
-621.95021921
 31
0.0
  0
LINE
  5
1F6
  8
0
 10
1813.5771462
 20
-629.95021921
 30
0.0
 11
1813.5771462
 21
-621.95021921
 31
0.0
  0
LINE
  5
1F7
  8
0
  6
STRICHPUNKT2
 62
     1
 10
1874.5771462
 20
-629.95021921
 30
0.0
 11
1874.5771462
 21
-633.45021921
 31
0.0
  0
LINE
  5
1F8
  8
0
  6
STRICHPUNKT2
 62
     1
 10
1874.5771462
 20
-618.45021921
 30
0.0
 11
1874.5771462
 21
-621.95021921
 31
0.0
  0
LINE
  5
1F9
  8
0
  6
STRICHPUNKT2
 62
     1
 10
1920.5771462
 20
-629.95021921
 30
0.0
 11
1920.5771462
 21
-633.45021921
 31
0.0
  0
LINE
  5
1FA
  8
0
  6
STRICHPUNKT2
 62
     1
 10
1920.5771462
 20
-618.45021921
 30
0.0
 11
1920.5771462
 21
-621.95021921
 31
0.0
  0
POLYLINE
  5
1FB
  8
0
 66
     1
 10
0.0
 20
0.0
 30
0.0
  0
VERTEX
  5
1FC
  8
0
 10
1797.5771462
 20
-589.95021921
 30
0.0
  0
VERTEX
  5
1FD
  8
0
 10
1797.5771462
 20
-613.95021921
 30
0.0
  0
VERTEX
  5
1FE
  8
0
 10
1805.5771462
 20
-613.95021921
 30
0.0
  0
SEQEND
  5
1FF
  8
0
  0
LINE
  5
200
  8
0
 10
1805.5771462
 20
-589.95021921
 30
0.0
 11
1805.5771462
 21
-613.95021921
 31
0.0
  0
LINE
  5
201
  8
0
 10
1797.5771462
 20
-589.95021921
 30
0.0
 11
1805.5771462
 21
-589.95021921
 31
0.0
  0
LINE
  5
202
  8
0
  6
STRICHPUNKT2
 62
     1
 10
1797.5771462
 20
-599.95021921
 30
0.0
 11
1795.0771462
 21
-599.95021921
 31
0.0
  0
LINE
  5
203
  8
0
  6
STRICHPUNKT2
 62
     1
 10
1808.0771462
 20
-599.95021921
 30
0.0
 11
1805.5771462
 21
-599.95021921
 31
0.0
  0
LINE
  5
204
  8
0
  6
STRICHPUNKT2
 62
     1
 10
1797.5771462
 20
-604.9909989
 30
0.0
 11
1794.5771462
 21
-604.9909989
 31
0.0
  0
LINE
  5
205
  8
0
  6
STRICHPUNKT2
 62
     1
 10
1808.5771462
 20
-604.9909989
 30
0.0
 11
1805.5771462
 21
-604.9909989
 31
0.0
  0
LINE
  5
206
  8
0
 10
1742.24636603
 20
-613.95021921
 30
0.0
 11
1742.24636603
 21
-629.95021921
 31
0.0
  0
LINE
  5
207
  8
0
 10
1672.24636603
 20
-629.95021921
 30
0.0
 11
1742.24636603
 21
-629.95021921
 31
0.0
  0
POLYLINE
  5
208
  8
0
 66
     1
 10
0.0
 20
0.0
 30
0.0
  0
VERTEX
  5
209
  8
0
 10
1672.24636603
 20
-629.95021921
 30
0.0
  0
VERTEX
  5
20A
  8
0
 10
1672.24636603
 20
-613.95021921
 30
0.0
  0
VERTEX
  5
20B
  8
0
 10
1742.24636603
 20
-613.95021921
 30
0.0
  0
SEQEND
  5
20C
  8
0
  0
LINE
  5
20D
  8
0
 10
1672.24636603
 20
-629.95021921
 30
0.0
 11
1742.24636603
 21
-629.95021921
 31
0.0
  0
LINE
  5
20E
  8
0
  6
STRICHPUNKT2
 62
     1
 10
1707.24636603
 20
-629.95021921
 30
0.0
 11
1707.24636603
 21
-633.45021921
 31
0.0
  0
CIRCLE
  5
20F
  8
0
 10
1706.90666096
 20
-604.9909989
 30
0.0
 40
6.0
  0
CIRCLE
  5
210
  8
0
 10
1687.24636603
 20
-599.95021921
 30
0.0
 40
5.0
  0
CIRCLE
  5
211
  8
0
 10
1727.24636603
 20
-599.95021921
 30
0.0
 40
5.0
  0
LINE
  5
212
  8
0
 10
1742.24636603
 20
-589.95021921
 30
0.0
 11
1742.24636603
 21
-613.95021921
 31
0.0
  0
LINE
  5
213
  8
0
 10
1672.24636603
 20
-613.95021921
 30
0.0
 11
1742.24636603
 21
-613.95021921
 31
0.0
  0
POLYLINE
  5
214
  8
0
 66
     1
 10
0.0
 20
0.0
 30
0.0
  0
VERTEX
  5
215
  8
0
 10
1672.24636603
 20
-613.95021921
 30
0.0
  0
VERTEX
  5
216
  8
0
 10
1672.24636603
 20
-589.95021921
 30
0.0
  0
VERTEX
  5
217
  8
0
 10
1742.24636603
 20
-589.95021921
 30
0.0
  0
SEQEND
  5
218
  8
0
  0
LINE
  5
219
  8
0
  6
STRICHPUNKT2
 62
     1
 10
1727.24636603
 20
-599.95021921
 30
0.0
 11
1734.74636603
 21
-599.95021921
 31
0.0
  0
LINE
  5
21A
  8
0
  6
STRICHPUNKT2
 62
     1
 10
1727.24636603
 20
-599.95021921
 30
0.0
 11
1719.74636603
 21
-599.95021921
 31
0.0
  0
LINE
  5
21B
  8
0
  6
STRICHPUNKT2
 62
     1
 10
1727.24636603
 20
-599.95021921
 30
0.0
 11
1727.24636603
 21
-607.45021921
 31
0.0
  0
LINE
  5
21C
  8
0
  6
STRICHPUNKT2
 62
     1
 10
1727.24636603
 20
-599.95021921
 30
0.0
 11
1727.24636603
 21
-592.45021921
 31
0.0
  0
LINE
  5
21D
  8
0
  6
STRICHPUNKT2
 62
     1
 10
1687.24636603
 20
-599.95021921
 30
0.0
 11
1694.74636603
 21
-599.95021921
 31
0.0
  0
LINE
  5
21E
  8
0
  6
STRICHPUNKT2
 62
     1
 10
1687.24636603
 20
-599.95021921
 30
0.0
 11
1679.74636603
 21
-599.95021921
 31
0.0
  0
LINE
  5
21F
  8
0
  6
STRICHPUNKT2
 62
     1
 10
1687.24636603
 20
-599.95021921
 30
0.0
 11
1687.24636603
 21
-607.45021921
 31
0.0
  0
LINE
  5
220
  8
0
  6
STRICHPUNKT2
 62
     1
 10
1687.24636603
 20
-599.95021921
 30
0.0
 11
1687.24636603
 21
-592.45021921
 31
0.0
  0
LINE
  5
221
  8
0
  6
STRICHPUNKT2
 62
     1
 10
1706.90666096
 20
-604.9909989
 30
0.0
 11
1715.90666096
 21
-604.9909989
 31
0.0
  0
LINE
  5
222
  8
0
  6
STRICHPUNKT2
 62
     1
 10
1706.90666096
 20
-604.9909989
 30
0.0
 11
1697.90666096
 21
-604.9909989
 31
0.0
  0
LINE
  5
223
  8
0
  6
STRICHPUNKT2
 62
     1
 10
1706.90666096
 20
-604.9909989
 30
0.0
 11
1706.90666096
 21
-613.9909989
 31
0.0
  0
LINE
  5
224
  8
0
  6
STRICHPUNKT2
 62
     1
 10
1706.90666096
 20
-604.9909989
 30
0.0
 11
1706.90666096
 21
-595.9909989
 31
0.0
  0
LINE
  5
225
  8
0
 10
1805.5771462
 20
-729.24049412
 30
0.0
 11
1813.5771462
 21
-729.24049412
 31
0.0
  0
LINE
  5
226
  8
0
 10
1813.5771462
 20
-659.24049412
 30
0.0
 11
1813.5771462
 21
-729.24049412
 31
0.0
  0
LINE
  5
227
  8
0
 10
1813.5771462
 20
-659.24049412
 30
0.0
 11
1805.5771462
 21
-659.24049412
 31
0.0
  0
POLYLINE
  5
228
  8
0
 66
     1
 10
0.0
 20
0.0
 30
0.0
 70
     1
  0
VERTEX
  5
229
  8
0
 10
1874.5771462
 20
-701.24049412
 30
0.0
 42
-1.0
  0
VERTEX
  5
22A
  8
0
 10
1874.5771462
 20
-687.24049412
 30
0.0
  0
VERTEX
  5
22B
  8
0
 10
1920.5771462
 20
-687.24049412
 30
0.0
 42
-1.0
  0
VERTEX
  5
22C
  8
0
 10
1920.5771462
 20
-701.24049412
 30
0.0
  0
SEQEND
  5
22D
  8
0
  0
LINE
  5
22E
  8
0
 10
1947.5771462
 20
-659.24049412
 30
0.0
 11
1947.5771462
 21
-729.24049412
 31
0.0
  0
LINE
  5
22F
  8
0
 10
1813.5771462
 20
-729.24049412
 30
0.0
 11
1947.5771462
 21
-729.24049412
 31
0.0
  0
LINE
  5
230
  8
0
 10
1813.5771462
 20
-659.24049412
 30
0.0
 11
1813.5771462
 21
-729.24049412
 31
0.0
  0
LINE
  5
231
  8
0
 10
1947.5771462
 20
-659.24049412
 30
0.0
 11
1813.5771462
 21
-659.24049412
 31
0.0
  0
LINE
  5
232
  8
0
  6
STRICHPUNKT2
 62
     1
 10
1864.0771462
 20
-694.24049412
 30
0.0
 11
1931.0771462
 21
-694.24049412
 31
0.0
  0
LINE
  5
233
  8
0
  6
STRICHPUNKT2
 62
     1
 10
1874.5771462
 20
-704.74049412
 30
0.0
 11
1874.5771462
 21
-683.74049412
 31
0.0
  0
LINE
  5
234
  8
0
  6
STRICHPUNKT2
 62
     1
 10
1920.5771462
 20
-704.74049412
 30
0.0
 11
1920.5771462
 21
-683.74049412
 31
0.0
  0
POLYLINE
  5
235
  8
0
 66
     1
 10
0.0
 20
0.0
 30
0.0
  0
VERTEX
  5
236
  8
0
 10
1797.5771462
 20
-659.24049412
 30
0.0
  0
VERTEX
  5
237
  8
0
 10
1797.5771462
 20
-729.24049412
 30
0.0
  0
VERTEX
  5
238
  8
0
 10
1805.5771462
 20
-729.24049412
 30
0.0
  0
SEQEND
  5
239
  8
0
  0
LINE
  5
23A
  8
0
 10
1805.5771462
 20
-659.24049412
 30
0.0
 11
1805.5771462
 21
-729.24049412
 31
0.0
  0
LINE
  5
23B
  8
0
 10
1797.5771462
 20
-659.24049412
 30
0.0
 11
1805.5771462
 21
-659.24049412
 31
0.0
  0
LINE
  5
23C
  8
0
  6
STRICHPUNKT2
 62
     1
 10
1797.5771462
 20
-714.24049412
 30
0.0
 11
1795.0771462
 21
-714.24049412
 31
0.0
  0
LINE
  5
23D
  8
0
  6
STRICHPUNKT2
 62
     1
 10
1808.0771462
 20
-714.24049412
 30
0.0
 11
1805.5771462
 21
-714.24049412
 31
0.0
  0
LINE
  5
23E
  8
0
  6
STRICHPUNKT2
 62
     1
 10
1797.5771462
 20
-693.90078904
 30
0.0
 11
1794.5771462
 21
-693.90078904
 31
0.0
  0
LINE
  5
23F
  8
0
  6
STRICHPUNKT2
 62
     1
 10
1808.5771462
 20
-693.90078904
 30
0.0
 11
1805.5771462
 21
-693.90078904
 31
0.0
  0
LINE
  5
240
  8
0
  6
STRICHPUNKT2
 62
     1
 10
1797.5771462
 20
-674.24049412
 30
0.0
 11
1795.0771462
 21
-674.24049412
 31
0.0
  0
LINE
  5
241
  8
0
  6
STRICHPUNKT2
 62
     1
 10
1808.0771462
 20
-674.24049412
 30
0.0
 11
1805.5771462
 21
-674.24049412
 31
0.0
  0
TEXT
  5
242
  8
TXT_DIM49
 10
1786.0771462
 20
-611.80505925
 30
0.0
 40
2.5
  1
40
 50
90.00020741
  7
ARIAL
  0
LINE
  5
243
  8
0
 62
     4
 10
1788.5771462
 20
-590.95021921
 30
0.0
 11
1786.5771462
 21
-588.95021921
 31
0.0
  0
LINE
  5
244
  8
0
 62
     4
 10
1786.8271462
 20
-629.20021921
 30
0.0
 11
1788.3271462
 21
-630.70021921
 31
0.0
  0
LINE
  5
245
  8
0
 62
     4
 10
1787.5771462
 20
-589.95021921
 30
0.0
 11
1787.5771462
 21
-629.95021921
 31
0.0
  0
LINE
  5
246
  8
0
 62
     4
 10
1789.5771462
 20
-589.95021921
 30
0.0
 11
1785.5771462
 21
-589.95021921
 31
0.0
  0
LINE
  5
247
  8
0
 62
     4
 10
1789.5771462
 20
-629.95021921
 30
0.0
 11
1785.5771462
 21
-629.95021921
 31
0.0
  0
TEXT
  5
248
  8
TXT_DIM49
 10
1869.79488626
 20
-639.36652852
 30
0.0
 40
2.5
  1
150
  7
ARIAL
  0
LINE
  5
249
  8
0
 62
     4
 10
1798.5771462
 20
-639.86652852
 30
0.0
 11
1796.5771462
 21
-641.86652852
 31
0.0
  0
LINE
  5
24A
  8
0
 62
     4
 10
1946.8271462
 20
-641.61652852
 30
0.0
 11
1948.3271462
 21
-640.11652852
 31
0.0
  0
LINE
  5
24B
  8
0
 62
     4
 10
1797.5771462
 20
-640.86652852
 30
0.0
 11
1947.5771462
 21
-640.86652852
 31
0.0
  0
LINE
  5
24C
  8
0
 62
     4
 10
1797.5771462
 20
-638.86652852
 30
0.0
 11
1797.5771462
 21
-642.86652852
 31
0.0
  0
LINE
  5
24D
  8
0
 62
     4
 10
1947.5771462
 20
-638.86652852
 30
0.0
 11
1947.5771462
 21
-642.86652852
 31
0.0
  0
TEXT
  5
24E
  8
TXT_DIM49
 10
1956.0771462
 20
-626.87767452
 30
0.0
 40
2.5
  1
8
 50
90.00020741
  7
ARIAL
  0
LINE
  5
24F
  8
0
 62
     4
 10
1958.5771462
 20
-622.95021921
 30
0.0
 11
1956.5771462
 21
-620.95021921
 31
0.0
  0
LINE
  5
250
  8
0
 62
     4
 10
1956.8271462
 20
-629.20021921
 30
0.0
 11
1958.3271462
 21
-630.70021921
 31
0.0
  0
LINE
  5
251
  8
0
 62
     4
 10
1957.5771462
 20
-621.95021921
 30
0.0
 11
1957.5771462
 21
-629.95021921
 31
0.0
  0
LINE
  5
252
  8
0
 62
     4
 10
1955.5771462
 20
-621.95021921
 30
0.0
 11
1959.5771462
 21
-621.95021921
 31
0.0
  0
LINE
  5
253
  8
0
 62
     4
 10
1955.5771462
 20
-629.95021921
 30
0.0
 11
1959.5771462
 21
-629.95021921
 31
0.0
  0
TEXT
  5
254
  8
TXT_DIM49
 10
1800.64969089
 20
-581.07413124
 30
0.0
 40
2.5
  1
8
  7
ARIAL
  0
LINE
  5
255
  8
0
 62
     4
 10
1798.5771462
 20
-581.57413124
 30
0.0
 11
1796.5771462
 21
-583.57413124
 31
0.0
  0
LINE
  5
256
  8
0
 62
     4
 10
1804.8271462
 20
-583.32413124
 30
0.0
 11
1806.3271462
 21
-581.82413124
 31
0.0
  0
LINE
  5
257
  8
0
 62
     4
 10
1797.5771462
 20
-582.57413124
 30
0.0
 11
1805.5771462
 21
-582.57413124
 31
0.0
  0
LINE
  5
258
  8
0
 62
     4
 10
1797.5771462
 20
-584.57413124
 30
0.0
 11
1797.5771462
 21
-580.57413124
 31
0.0
  0
LINE
  5
259
  8
0
 62
     4
 10
1805.5771462
 20
-584.57413124
 30
0.0
 11
1805.5771462
 21
-580.57413124
 31
0.0
  0
TEXT
  5
25A
  8
TXT_DIM49
 10
1677.89152599
 20
-583.78574276
 30
0.0
 40
2.5
  1
15
  7
ARIAL
  0
LINE
  5
25B
  8
0
 62
     4
 10
1673.24636603
 20
-584.28574276
 30
0.0
 11
1671.24636603
 21
-586.28574276
 31
0.0
  0
LINE
  5
25C
  8
0
 62
     4
 10
1686.49636603
 20
-586.03574276
 30
0.0
 11
1687.99636603
 21
-584.53574276
 31
0.0
  0
LINE
  5
25D
  8
0
 62
     4
 10
1672.24636603
 20
-585.28574276
 30
0.0
 11
1687.24636603
 21
-585.28574276
 31
0.0
  0
LINE
  5
25E
  8
0
 62
     4
 10
1672.24636603
 20
-587.28574276
 30
0.0
 11
1672.24636603
 21
-583.28574276
 31
0.0
  0
LINE
  5
25F
  8
0
 62
     4
 10
1687.24636603
 20
-587.28574276
 30
0.0
 11
1687.24636603
 21
-583.28574276
 31
0.0
  0
TEXT
  5
260
  8
TXT_DIM49
 10
1695.22167346
 20
-583.78574276
 30
0.0
 40
2.5
  1
20
  7
ARIAL
  0
LINE
  5
261
  8
0
 62
     4
 10
1688.24636603
 20
-584.28574276
 30
0.0
 11
1686.24636603
 21
-586.28574276
 31
0.0
  0
LINE
  5
262
  8
0
 62
     4
 10
1706.15666096
 20
-586.03574276
 30
0.0
 11
1707.65666096
 21
-584.53574276
 31
0.0
  0
LINE
  5
263
  8
0
 62
     4
 10
1687.24636603
 20
-585.28574276
 30
0.0
 11
1706.90666096
 21
-585.28574276
 31
0.0
  0
LINE
  5
264
  8
0
 62
     4
 10
1687.24636603
 20
-587.28574276
 30
0.0
 11
1687.24636603
 21
-583.28574276
 31
0.0
  0
LINE
  5
265
  8
0
 62
     4
 10
1706.90666096
 20
-587.28574276
 30
0.0
 11
1706.90666096
 21
-583.28574276
 31
0.0
  0
TEXT
  5
266
  8
TXT_DIM49
 10
1715.22167346
 20
-583.78574276
 30
0.0
 40
2.5
  1
20
  7
ARIAL
  0
LINE
  5
267
  8
0
 62
     4
 10
1707.90666096
 20
-584.28574276
 30
0.0
 11
1705.90666096
 21
-586.28574276
 31
0.0
  0
LINE
  5
268
  8
0
 62
     4
 10
1726.49636603
 20
-586.03574276
 30
0.0
 11
1727.99636603
 21
-584.53574276
 31
0.0
  0
LINE
  5
269
  8
0
 62
     4
 10
1706.90666096
 20
-585.28574276
 30
0.0
 11
1727.24636603
 21
-585.28574276
 31
0.0
  0
LINE
  5
26A
  8
0
 62
     4
 10
1706.90666096
 20
-587.28574276
 30
0.0
 11
1706.90666096
 21
-583.28574276
 31
0.0
  0
LINE
  5
26B
  8
0
 62
     4
 10
1727.24636603
 20
-587.28574276
 30
0.0
 11
1727.24636603
 21
-583.28574276
 31
0.0
  0
TEXT
  5
26C
  8
TXT_DIM49
 10
1732.89152599
 20
-583.78574276
 30
0.0
 40
2.5
  1
15
  7
ARIAL
  0
LINE
  5
26D
  8
0
 62
     4
 10
1728.24636603
 20
-584.28574276
 30
0.0
 11
1726.24636603
 21
-586.28574276
 31
0.0
  0
LINE
  5
26E
  8
0
 62
     4
 10
1741.49636603
 20
-586.03574276
 30
0.0
 11
1742.99636603
 21
-584.53574276
 31
0.0
  0
LINE
  5
26F
  8
0
 62
     4
 10
1727.24636603
 20
-585.28574276
 30
0.0
 11
1742.24636603
 21
-585.28574276
 31
0.0
  0
LINE
  5
270
  8
0
 62
     4
 10
1727.24636603
 20
-587.28574276
 30
0.0
 11
1727.24636603
 21
-583.28574276
 31
0.0
  0
LINE
  5
271
  8
0
 62
     4
 10
1742.24636603
 20
-587.28574276
 30
0.0
 11
1742.24636603
 21
-583.28574276
 31
0.0
  0
TEXT
  5
272
  8
TXT_DIM49
 10
1666.0582984
 20
-596.80505925
 30
0.0
 40
2.5
  1
10
 50
90.00020741
  7
ARIAL
  0
LINE
  5
273
  8
0
 62
     4
 10
1668.5582984
 20
-590.95021921
 30
0.0
 11
1666.5582984
 21
-588.95021921
 31
0.0
  0
LINE
  5
274
  8
0
 62
     4
 10
1666.8082984
 20
-599.20021921
 30
0.0
 11
1668.3082984
 21
-600.70021921
 31
0.0
  0
LINE
  5
275
  8
0
 62
     4
 10
1667.5582984
 20
-589.95021921
 30
0.0
 11
1667.5582984
 21
-599.95021921
 31
0.0
  0
LINE
  5
276
  8
0
 62
     4
 10
1669.5582984
 20
-589.95021921
 30
0.0
 11
1665.5582984
 21
-589.95021921
 31
0.0
  0
LINE
  5
277
  8
0
 62
     4
 10
1669.5582984
 20
-599.95021921
 30
0.0
 11
1665.5582984
 21
-599.95021921
 31
0.0
  0
TEXT
  5
278
  8
TXT_DIM49
 10
1666.0582984
 20
-603.39802908
 30
0.0
 40
2.5
  1
5
 50
90.00020741
  7
ARIAL
  0
LINE
  5
279
  8
0
 62
     4
 10
1668.5582984
 20
-600.95021921
 30
0.0
 11
1666.5582984
 21
-598.95021921
 31
0.0
  0
LINE
  5
27A
  8
0
 62
     4
 10
1666.8082984
 20
-604.2409989
 30
0.0
 11
1668.3082984
 21
-605.7409989
 31
0.0
  0
LINE
  5
27B
  8
0
 62
     4
 10
1667.5582984
 20
-599.95021921
 30
0.0
 11
1667.5582984
 21
-604.9909989
 31
0.0
  0
LINE
  5
27C
  8
0
 62
     4
 10
1669.5582984
 20
-599.95021921
 30
0.0
 11
1665.5582984
 21
-599.95021921
 31
0.0
  0
LINE
  5
27D
  8
0
 62
     4
 10
1669.5582984
 20
-604.9909989
 30
0.0
 11
1665.5582984
 21
-604.9909989
 31
0.0
  0
TEXT
  5
27E
  8
TXT_DIM49
 10
1666.0582984
 20
-619.3254491
 30
0.0
 40
2.5
  1
25
 50
90.00020741
  7
ARIAL
  0
LINE
  5
27F
  8
0
 62
     4
 10
1668.5582984
 20
-605.9909989
 30
0.0
 11
1666.5582984
 21
-603.9909989
 31
0.0
  0
LINE
  5
280
  8
0
 62
     4
 10
1666.8082984
 20
-629.20021921
 30
0.0
 11
1668.3082984
 21
-630.70021921
 31
0.0
  0
LINE
  5
281
  8
0
 62
     4
 10
1667.5582984
 20
-604.9909989
 30
0.0
 11
1667.5582984
 21
-629.95021921
 31
0.0
  0
LINE
  5
282
  8
0
 62
     4
 10
1669.5582984
 20
-604.9909989
 30
0.0
 11
1665.5582984
 21
-604.9909989
 31
0.0
  0
LINE
  5
283
  8
0
 62
     4
 10
1669.5582984
 20
-629.95021921
 30
0.0
 11
1665.5582984
 21
-629.95021921
 31
0.0
  0
TEXT
  5
284
  8
TXT_DIM49
 10
1705.39152599
 20
-638.45021921
 30
0.0
 40
2.5
  1
70
  7
ARIAL
  0
LINE
  5
285
  8
0
 62
     4
 10
1673.24636603
 20
-638.95021921
 30
0.0
 11
1671.24636603
 21
-640.95021921
 31
0.0
  0
LINE
  5
286
  8
0
 62
     4
 10
1741.49636603
 20
-640.70021921
 30
0.0
 11
1742.99636603
 21
-639.20021921
 31
0.0
  0
LINE
  5
287
  8
0
 62
     4
 10
1672.24636603
 20
-639.95021921
 30
0.0
 11
1742.24636603
 21
-639.95021921
 31
0.0
  0
LINE
  5
288
  8
0
 62
     4
 10
1672.24636603
 20
-637.95021921
 30
0.0
 11
1672.24636603
 21
-641.95021921
 31
0.0
  0
LINE
  5
289
  8
0
 62
     4
 10
1742.24636603
 20
-637.95021921
 30
0.0
 11
1742.24636603
 21
-641.95021921
 31
0.0
  0
LINE
  5
28A
  8
0
 62
     5
 10
1682.24636603
 20
-599.95021921
 30
0.0
 11
1680.16009365
 21
-597.6104207
 31
0.0
  0
TEXT
  5
28B
  8
TXT_DIM49
 10
1673.87645193
 20
-598.8604207
 30
0.0
 40
2.5
  1
Ø10
  7
ARIAL
  0
LINE
  5
28C
  8
0
 62
     5
 10
1732.24636603
 20
-599.95021921
 30
0.0
 11
1734.5634534
 21
-597.71351913
 31
0.0
  0
TEXT
  5
28D
  8
TXT_DIM49
 10
1734.5634534
 20
-598.96351913
 30
0.0
 40
2.5
  1
Ø10
  7
ARIAL
  0
LINE
  5
28E
  8
0
 62
     5
 10
1700.90666096
 20
-604.9909989
 30
0.0
 11
1698.29489757
 21
-608.80186078
 31
0.0
  0
TEXT
  5
28F
  8
TXT_DIM49
 10
1692.01125586
 20
-610.05186078
 30
0.0
 40
2.5
  1
Ø12
  7
ARIAL
  0
TEXT
  5
290
  8
TXT_DIM49
 10
1932.22230616
 20
-650.16267987
 30
0.0
 40
2.5
  1
27
  7
ARIAL
  0
LINE
  5
291
  8
0
 62
     4
 10
1946.5771462
 20
-652.66267987
 30
0.0
 11
1948.5771462
 21
-650.66267987
 31
0.0
  0
LINE
  5
292
  8
0
 62
     4
 10
1921.3271462
 20
-650.91267987
 30
0.0
 11
1919.8271462
 21
-652.41267987
 31
0.0
  0
LINE
  5
293
  8
0
 62
     4
 10
1947.5771462
 20
-651.66267987
 30
0.0
 11
1920.5771462
 21
-651.66267987
 31
0.0
  0
LINE
  5
294
  8
0
 62
     4
 10
1947.5771462
 20
-653.66267987
 30
0.0
 11
1947.5771462
 21
-649.66267987
 31
0.0
  0
LINE
  5
295
  8
0
 62
     4
 10
1920.5771462
 20
-653.66267987
 30
0.0
 11
1920.5771462
 21
-649.66267987
 31
0.0
  0
TEXT
  5
296
  8
TXT_DIM49
 10
1895.72230616
 20
-650.16267987
 30
0.0
 40
2.5
  1
46
  7
ARIAL
  0
LINE
  5
297
  8
0
 62
     4
 10
1919.5771462
 20
-652.66267987
 30
0.0
 11
1921.5771462
 21
-650.66267987
 31
0.0
  0
LINE
  5
298
  8
0
 62
     4
 10
1875.3271462
 20
-650.91267987
 30
0.0
 11
1873.8271462
 21
-652.41267987
 31
0.0
  0
LINE
  5
299
  8
0
 62
     4
 10
1920.5771462
 20
-651.66267987
 30
0.0
 11
1874.5771462
 21
-651.66267987
 31
0.0
  0
LINE
  5
29A
  8
0
 62
     4
 10
1920.5771462
 20
-653.66267987
 30
0.0
 11
1920.5771462
 21
-649.66267987
 31
0.0
  0
LINE
  5
29B
  8
0
 62
     4
 10
1874.5771462
 20
-653.66267987
 30
0.0
 11
1874.5771462
 21
-649.66267987
 31
0.0
  0
TEXT
  5
29C
  8
TXT_DIM49
 10
1834.22230616
 20
-650.16267987
 30
0.0
 40
2.5
  1
77
  7
ARIAL
  0
LINE
  5
29D
  8
0
 62
     4
 10
1873.5771462
 20
-652.66267987
 30
0.0
 11
1875.5771462
 21
-650.66267987
 31
0.0
  0
LINE
  5
29E
  8
0
 62
     4
 10
1798.3271462
 20
-650.91267987
 30
0.0
 11
1796.8271462
 21
-652.41267987
 31
0.0
  0
LINE
  5
29F
  8
0
 62
     4
 10
1874.5771462
 20
-651.66267987
 30
0.0
 11
1797.5771462
 21
-651.66267987
 31
0.0
  0
LINE
  5
2A0
  8
0
 62
     4
 10
1874.5771462
 20
-653.66267987
 30
0.0
 11
1874.5771462
 21
-649.66267987
 31
0.0
  0
LINE
  5
2A1
  8
0
 62
     4
 10
1797.5771462
 20
-653.66267987
 30
0.0
 11
1797.5771462
 21
-649.66267987
 31
0.0
  0
TEXT
  5
2A2
  8
TXT_DIM49
 10
1952.35083406
 20
-678.59533416
 30
0.0
 40
2.5
  1
35
 50
90.00020741
  7
ARIAL
  0
LINE
  5
2A3
  8
0
 62
     4
 10
1954.85083406
 20
-660.24049412
 30
0.0
 11
1952.85083406
 21
-658.24049412
 31
0.0
  0
LINE
  5
2A4
  8
0
 62
     4
 10
1953.10083406
 20
-693.49049412
 30
0.0
 11
1954.60083406
 21
-694.99049412
 31
0.0
  0
LINE
  5
2A5
  8
0
 62
     4
 10
1953.85083406
 20
-659.24049412
 30
0.0
 11
1953.85083406
 21
-694.24049412
 31
0.0
  0
LINE
  5
2A6
  8
0
 62
     4
 10
1951.85083406
 20
-659.24049412
 30
0.0
 11
1955.85083406
 21
-659.24049412
 31
0.0
  0
LINE
  5
2A7
  8
0
 62
     4
 10
1951.85083406
 20
-694.24049412
 30
0.0
 11
1955.85083406
 21
-694.24049412
 31
0.0
  0
TEXT
  5
2A8
  8
TXT_DIM49
 10
1952.35083406
 20
-713.59533416
 30
0.0
 40
2.5
  1
35
 50
90.00020741
  7
ARIAL
  0
LINE
  5
2A9
  8
0
 62
     4
 10
1954.85083406
 20
-695.24049412
 30
0.0
 11
1952.85083406
 21
-693.24049412
 31
0.0
  0
LINE
  5
2AA
  8
0
 62
     4
 10
1953.10083406
 20
-728.49049412
 30
0.0
 11
1954.60083406
 21
-729.99049412
 31
0.0
  0
LINE
  5
2AB
  8
0
 62
     4
 10
1953.85083406
 20
-694.24049412
 30
0.0
 11
1953.85083406
 21
-729.24049412
 31
0.0
  0
LINE
  5
2AC
  8
0
 62
     4
 10
1951.85083406
 20
-694.24049412
 30
0.0
 11
1955.85083406
 21
-694.24049412
 31
0.0
  0
LINE
  5
2AD
  8
0
 62
     4
 10
1951.85083406
 20
-729.24049412
 30
0.0
 11
1955.85083406
 21
-729.24049412
 31
0.0
  0
LINE
  5
2AE
  8
0
 62
     5
 10
1897.5771462
 20
-687.24049412
 30
0.0
 11
1895.13227746
 21
-680.77243929
 31
0.0
  0
TEXT
  5
2AF
  8
TXT_DIM49
 10
1872.06100778
 20
-682.02243929
 30
0.0
 40
2.5
  1
Slobgat 14 x 60
  7
ARIAL
  0
ENDSEC
  0
EOF
