  0
SECTION
  2
HEADER
  9
$ACADVER
  1
AC1018
  9
$ACADMAINTVER
 70
     0
  9
$DWGCODEPAGE
  3
ANSI_1252
  9
$LASTSAVEDBY
  1
cloudconvert
  9
$INSBASE
 10
0.0
 20
0.0
 30
0.0
  9
$EXTMIN
 10
-329.75739121
 20
-725.14744597
 30
0.0
  9
$EXTMAX
 10
653.08010027
 20
-251.80369597
 30
0.0
  9
$LIMMIN
 10
-329.75739121
 20
-725.14744597
  9
$LIMMAX
 10
653.08010027
 20
-251.80369597
  9
$ORTHOMODE
 70
     0
  9
$REGENMODE
 70
     1
  9
$FILLMODE
 70
     1
  9
$QTEXTMODE
 70
     0
  9
$MIRRTEXT
 70
     1
  9
$LTSCALE
 40
1.0
  9
$ATTMODE
 70
     1
  9
$TEXTSIZE
 40
1.0
  9
$TRACEWID
 40
0.05
  9
$TEXTSTYLE
  7
STANDARD
  9
$CLAYER
  8
0
  9
$CELTYPE
  6
ByBlock
  9
$CECOLOR
 62
   256
  9
$CELTSCALE
 40
1.0
  9
$DISPSILH
 70
     0
  9
$DIMSCALE
 40
1.0
  9
$DIMASZ
 40
0.18
  9
$DIMEXO
 40
0.0625
  9
$DIMDLI
 40
0.38
  9
$DIMRND
 40
0.0
  9
$DIMDLE
 40
0.0
  9
$DIMEXE
 40
0.18
  9
$DIMTP
 40
0.0
  9
$DIMTM
 40
0.0
  9
$DIMTXT
 40
0.18
  9
$DIMCEN
 40
0.09
  9
$DIMTSZ
 40
0.0
  9
$DIMTOL
 70
     0
  9
$DIMLIM
 70
     0
  9
$DIMTIH
 70
     1
  9
$DIMTOH
 70
     1
  9
$DIMSE1
 70
     0
  9
$DIMSE2
 70
     0
  9
$DIMTAD
 70
     0
  9
$DIMZIN
 70
     0
  9
$DIMBLK
  1

  9
$DIMASO
 70
     1
  9
$DIMSHO
 70
     1
  9
$DIMPOST
  1

  9
$DIMAPOST
  1

  9
$DIMALT
 70
     0
  9
$DIMALTD
 70
     2
  9
$DIMALTF
 40
25.4
  9
$DIMLFAC
 40
1.0
  9
$DIMTOFL
 70
     0
  9
$DIMTVP
 40
0.0
  9
$DIMTIX
 70
     0
  9
$DIMSOXD
 70
     0
  9
$DIMSAH
 70
     0
  9
$DIMBLK1
  1

  9
$DIMBLK2
  1

  9
$DIMSTYLE
  2
ISO-25
  9
$DIMCLRD
 70
     0
  9
$DIMCLRE
 70
     0
  9
$DIMCLRT
 70
     0
  9
$DIMTFAC
 40
1.0
  9
$DIMGAP
 40
0.09
  9
$DIMJUST
 70
     0
  9
$DIMSD1
 70
     0
  9
$DIMSD2
 70
     0
  9
$DIMTOLJ
 70
     1
  9
$DIMTZIN
 70
     0
  9
$DIMALTZ
 70
     0
  9
$DIMALTTZ
 70
     0
  9
$DIMUPT
 70
     0
  9
$DIMDEC
 70
     4
  9
$DIMTDEC
 70
     4
  9
$DIMALTU
 70
     2
  9
$DIMALTTD
 70
     2
  9
$DIMTXSTY
  7
STANDARD
  9
$DIMAUNIT
 70
     0
  9
$DIMADEC
 70
     0
  9
$DIMALTRND
 40
0.0
  9
$DIMAZIN
 70
     0
  9
$DIMDSEP
 70
    46
  9
$DIMATFIT
 70
     3
  9
$DIMFRAC
 70
     0
  9
$DIMLDRBLK
  1

  9
$DIMLUNIT
 70
     2
  9
$DIMLWD
 70
    -2
  9
$DIMLWE
 70
    -2
  9
$DIMTMOVE
 70
     0
  9
$LUNITS
 70
     2
  9
$LUPREC
 70
     4
  9
$SKETCHINC
 40
0.1
  9
$FILLETRAD
 40
0.0
  9
$AUNITS
 70
     0
  9
$AUPREC
 70
     0
  9
$MENU
  1
.
  9
$ELEVATION
 40
0.0
  9
$PELEVATION
 40
0.0
  9
$THICKNESS
 40
0.0
  9
$LIMCHECK
 70
     0
  9
$CHAMFERA
 40
0.0
  9
$CHAMFERB
 40
0.0
  9
$CHAMFERC
 40
0.0
  9
$CHAMFERD
 40
0.0
  9
$SKPOLY
 70
     0
  9
$TDCREATE
 40
2447893.0
  9
$TDUCREATE
 40
0.0
  9
$TDUPDATE
 40
2460791.333986539
  9
$TDUUPDATE
 40
2460791.333986539
  9
$TDINDWG
 40
0.0
  9
$TDUSRTIMER
 40
0.0
  9
$USRTIMER
 70
     1
  9
$ANGBASE
 50
0.0
  9
$ANGDIR
 70
     0
  9
$PDMODE
 70
     0
  9
$PDSIZE
 40
0.0
  9
$PLINEWID
 40
0.0
  9
$SPLFRAME
 70
     0
  9
$SPLINETYPE
 70
     6
  9
$SPLINESEGS
 70
     8
  9
$HANDSEED
  5
455
  9
$SURFTAB1
 70
     6
  9
$SURFTAB2
 70
     6
  9
$SURFTYPE
 70
     6
  9
$SURFU
 70
     6
  9
$SURFV
 70
     6
  9
$UCSBASE
  2

  9
$UCSNAME
  2

  9
$UCSORG
 10
0.0
 20
0.0
 30
0.0
  9
$UCSXDIR
 10
1.0
 20
0.0
 30
0.0
  9
$UCSYDIR
 10
0.0
 20
1.0
 30
0.0
  9
$UCSORTHOREF
  2

  9
$UCSORTHOVIEW
 70
     0
  9
$UCSORGTOP
 10
0.0
 20
0.0
 30
0.0
  9
$UCSORGBOTTOM
 10
0.0
 20
0.0
 30
0.0
  9
$UCSORGLEFT
 10
0.0
 20
0.0
 30
0.0
  9
$UCSORGRIGHT
 10
0.0
 20
0.0
 30
0.0
  9
$UCSORGFRONT
 10
0.0
 20
0.0
 30
0.0
  9
$UCSORGBACK
 10
0.0
 20
0.0
 30
0.0
  9
$PUCSBASE
  2

  9
$PUCSNAME
  2

  9
$PUCSORG
 10
0.0
 20
0.0
 30
0.0
  9
$PUCSXDIR
 10
1.0
 20
0.0
 30
0.0
  9
$PUCSYDIR
 10
0.0
 20
1.0
 30
0.0
  9
$PUCSORTHOREF
  2

  9
$PUCSORTHOVIEW
 70
     0
  9
$PUCSORGTOP
 10
0.0
 20
0.0
 30
0.0
  9
$PUCSORGBOTTOM
 10
0.0
 20
0.0
 30
0.0
  9
$PUCSORGLEFT
 10
0.0
 20
0.0
 30
0.0
  9
$PUCSORGRIGHT
 10
0.0
 20
0.0
 30
0.0
  9
$PUCSORGFRONT
 10
0.0
 20
0.0
 30
0.0
  9
$PUCSORGBACK
 10
0.0
 20
0.0
 30
0.0
  9
$USERI1
 70
     0
  9
$USERI2
 70
     0
  9
$USERI3
 70
     0
  9
$USERI4
 70
     0
  9
$USERI5
 70
     0
  9
$USERR1
 40
0.0
  9
$USERR2
 40
0.0
  9
$USERR3
 40
0.0
  9
$USERR4
 40
0.0
  9
$USERR5
 40
0.0
  9
$WORLDVIEW
 70
     1
  9
$SHADEDGE
 70
     3
  9
$SHADEDIF
 70
    70
  9
$TILEMODE
 70
     1
  9
$MAXACTVP
 70
    64
  9
$PINSBASE
 10
0.0
 20
0.0
 30
0.0
  9
$PLIMCHECK
 70
     0
  9
$PEXTMIN
 10
1.000000000000000E+20
 20
1.000000000000000E+20
 30
1.000000000000000E+20
  9
$PEXTMAX
 10
-1.000000000000000E+20
 20
-1.000000000000000E+20
 30
-1.000000000000000E+20
  9
$PLIMMIN
 10
0.0
 20
0.0
  9
$PLIMMAX
 10
12.0
 20
9.0
  9
$UNITMODE
 70
     0
  9
$VISRETAIN
 70
     0
  9
$PLINEGEN
 70
     0
  9
$PSLTSCALE
 70
     1
  9
$TREEDEPTH
 70
  3020
  9
$CMLSTYLE
  2
Standard
  9
$CMLJUST
 70
     0
  9
$CMLSCALE
 40
1.0
  9
$PROXYGRAPHICS
 70
     1
  9
$MEASUREMENT
 70
     1
  9
$CELWEIGHT
370
    -1
  9
$ENDCAPS
280
     0
  9
$JOINSTYLE
280
     0
  9
$LWDISPLAY
290
     0
  9
$INSUNITS
 70
     4
  9
$HYPERLINKBASE
  1

  9
$STYLESHEET
  1

  9
$XEDIT
290
     1
  9
$CEPSNTYPE
380
     0
  9
$PSTYLEMODE
290
     1
  9
$FINGERPRINTGUID
  2
{f2314fb6-a0ba-428a-ba57-c2ef9cae4095}
  9
$VERSIONGUID
  2
{FAEB1C32-E019-11D5-929B-00C0DF256EC4}
  9
$EXTNAMES
290
     1
  9
$PSVPSCALE
 40
0.0
  9
$OLESTARTUP
290
     0
  9
$SORTENTS
280
   127
  9
$INDEXCTL
280
     0
  9
$HIDETEXT
280
     1
  9
$XCLIPFRAME
290
     0
  9
$HALOGAP
280
     0
  9
$OBSCOLOR
 70
   257
  9
$OBSLTYPE
280
     0
  9
$INTERSECTIONDISPLAY
280
     0
  9
$INTERSECTIONCOLOR
 70
   257
  9
$DIMASSOC
280
     2
  9
$PROJECTNAME
  1

  0
ENDSEC
  0
SECTION
  2
CLASSES
  0
CLASS
  1
DICTIONARYVAR
  2
AcDbDictionaryVar
  3
ObjectDBX Classes
 90
        0
 91
        3
280
     0
281
     0
  0
CLASS
  1
ACDBDICTIONARYWDFLT
  2
AcDbDictionaryWithDefault
  3
ObjectDBX Classes
 90
        0
 91
        3
280
     0
281
     0
  0
CLASS
  1
SCALE
  2
AcDbScale
  3
ObjectDBX Classes
 90
     1153
 91
        3
280
     0
281
     0
  0
CLASS
  1
VISUALSTYLE
  2
AcDbVisualStyle
  3
ObjectDBX Classes
 90
     4095
 91
        3
280
     0
281
     0
  0
CLASS
  1
MATERIAL
  2
AcDbMaterial
  3
ObjectDBX Classes
 90
     1153
 91
        3
280
     0
281
     0
  0
CLASS
  1
TABLESTYLE
  2
AcDbTableStyle
  3
ObjectDBX Classes
 90
     4095
 91
        3
280
     0
281
     0
  0
CLASS
  1
MLEADERSTYLE
  2
AcDbMLeaderStyle
  3
ACDB_MLEADERSTYLE_CLASS
 90
     4095
 91
        3
280
     0
281
     0
  0
CLASS
  1
CELLSTYLEMAP
  2
AcDbCellStyleMap
  3
ObjectDBX Classes
 90
     1152
 91
        3
280
     0
281
     0
  0
ENDSEC
  0
SECTION
  2
TABLES
  0
TABLE
  2
VPORT
  5
1
102
{ACAD_XDICTIONARY
360
40E
102
}
330
0
100
AcDbSymbolTable
 70
     1
  0
VPORT
  5
2
330
1
100
AcDbSymbolTableRecord
100
AcDbViewportTableRecord
  2
*Active
 70
     0
 10
0.0
 20
0.0
 11
1.0
 21
1.0
 12
161.66135453
 22
-488.47557097
 13
0.0
 23
0.0
 14
1.0
 24
1.0
 15
0.0
 25
0.0
 16
0.0
 26
0.0
 36
1.0
 17
0.0
 27
0.0
 37
0.0
 40
473.34375
 41
2.076371541
 42
50.0
 43
0.0
 44
0.0
 50
0.0
 51
0.0
 71
     0
 72
   100
 73
     1
 74
     1
 75
     0
 76
     0
 77
     0
 78
     0
281
     0
 65
     1
110
0.0
120
0.0
130
0.0
111
1.0
121
0.0
131
0.0
112
0.0
122
1.0
132
0.0
 79
     0
146
0.0
  0
ENDTAB
  0
TABLE
  2
LTYPE
  5
3
330
0
100
AcDbSymbolTable
 70
    19
  0
LTYPE
  5
4
330
3
100
AcDbSymbolTableRecord
100
AcDbLinetypeTableRecord
  2
ByBlock
 70
     0
  3

 72
    65
 73
     0
 40
0.0
  0
LTYPE
  5
5
330
3
100
AcDbSymbolTableRecord
100
AcDbLinetypeTableRecord
  2
ByLayer
 70
     0
  3

 72
    65
 73
     0
 40
0.0
  0
LTYPE
  5
6
330
3
100
AcDbSymbolTableRecord
100
AcDbLinetypeTableRecord
  2
CONTINUOUS
 70
     0
  3
Solid line
 72
    65
 73
     0
 40
0.0
  0
LTYPE
  5
7
330
3
100
AcDbSymbolTableRecord
100
AcDbLinetypeTableRecord
  2
DOT
 70
     0
  3
..............
 72
    65
 73
     2
 40
2.0
 49
0.5
 74
     0
 49
-1.5
 74
     0
  0
LTYPE
  5
8
330
3
100
AcDbSymbolTableRecord
100
AcDbLinetypeTableRecord
  2
HIDDEN
 70
     0
  3
-- -- -- -- --
 72
    65
 73
     2
 40
7.0
 49
4.0
 74
     0
 49
-3.0
 74
     0
  0
LTYPE
  5
9
330
3
100
AcDbSymbolTableRecord
100
AcDbLinetypeTableRecord
  2
DASHDOT
 70
     0
  3
--.--.--.--.--
 72
    65
 73
     4
 40
8.5
 49
4.0
 74
     0
 49
-2.0
 74
     0
 49
0.5
 74
     0
 49
-2.0
 74
     0
  0
LTYPE
  5
A
330
3
100
AcDbSymbolTableRecord
100
AcDbLinetypeTableRecord
  2
STRICHPUNKT2
 70
     0
  3
--.--.--.--.--
 72
    65
 73
     4
 40
18.5
 49
10.0
 74
     0
 49
-4.0
 74
     0
 49
0.5
 74
     0
 49
-4.0
 74
     0
  0
LTYPE
  5
B
330
3
100
AcDbSymbolTableRecord
100
AcDbLinetypeTableRecord
  2
STRICHPUNKT3
 70
     0
  3
--.--.--.--.--
 72
    65
 73
     4
 40
35.5
 49
25.0
 74
     0
 49
-5.0
 74
     0
 49
0.5
 74
     0
 49
-5.0
 74
     0
  0
LTYPE
  5
13F
330
3
100
AcDbSymbolTableRecord
100
AcDbLinetypeTableRecord
  2
PHANTOM
 70
     0
  3
--..--..--..--
 72
    65
 73
     6
 40
23.0
 49
10.0
 74
     0
 49
-4.0
 74
     0
 49
0.5
 74
     0
 49
-4.0
 74
     0
 49
0.5
 74
     0
 49
-4.0
 74
     0
  0
LTYPE
  5
140
330
3
100
AcDbSymbolTableRecord
100
AcDbLinetypeTableRecord
  2
PHANTOM2
 70
     0
  3
--..--..--..--
 72
    65
 73
     6
 40
33.0
 49
20.0
 74
     0
 49
-4.0
 74
     0
 49
0.5
 74
     0
 49
-4.0
 74
     0
 49
0.5
 74
     0
 49
-4.0
 74
     0
  0
LTYPE
  5
141
330
3
100
AcDbSymbolTableRecord
100
AcDbLinetypeTableRecord
  2
PHANTOM3
 70
     0
  3
--..--..--..--
 72
    65
 73
     6
 40
50.0
 49
37.0
 74
     0
 49
-4.0
 74
     0
 49
0.5
 74
     0
 49
-4.0
 74
     0
 49
0.5
 74
     0
 49
-4.0
 74
     0
  0
LTYPE
  5
142
330
3
100
AcDbSymbolTableRecord
100
AcDbLinetypeTableRecord
  2
STR3PKT
 70
     0
  3
--...--...--...
 72
    65
 73
     8
 40
31.5
 49
20.0
 74
     0
 49
-2.5
 74
     0
 49
0.5
 74
     0
 49
-2.5
 74
     0
 49
0.5
 74
     0
 49
-2.5
 74
     0
 49
0.5
 74
     0
 49
-2.5
 74
     0
  0
LTYPE
  5
143
330
3
100
AcDbSymbolTableRecord
100
AcDbLinetypeTableRecord
  2
2STRPKT
 70
     0
  3
--.--.--.--.--
 72
    65
 73
     6
 40
28.0
 49
10.0
 74
     0
 49
-2.5
 74
     0
 49
10.0
 74
     0
 49
-2.5
 74
     0
 49
0.5
 74
     0
 49
-2.5
 74
     0
  0
LTYPE
  5
144
330
3
100
AcDbSymbolTableRecord
100
AcDbLinetypeTableRecord
  2
GESTRICHELT2
 70
     0
  3
-- -- -- -- --
 72
    65
 73
     2
 40
25.0
 49
10.0
 74
     0
 49
-15.0
 74
     0
  0
LTYPE
  5
145
330
3
100
AcDbSymbolTableRecord
100
AcDbLinetypeTableRecord
  2
2STR2PKT
 70
     0
  3
--..--..--..--
 72
    65
 73
     8
 40
31.0
 49
10.0
 74
     0
 49
-2.5
 74
     0
 49
10.0
 74
     0
 49
-2.5
 74
     0
 49
0.5
 74
     0
 49
-2.5
 74
     0
 49
0.5
 74
     0
 49
-2.5
 74
     0
  0
LTYPE
  5
146
330
3
100
AcDbSymbolTableRecord
100
AcDbLinetypeTableRecord
  2
STR3PKT2
 70
     0
  3
--...--...--...
 72
    65
 73
     8
 40
21.0
 49
10.0
 74
     0
 49
-2.5
 74
     0
 49
0.5
 74
     0
 49
-2.5
 74
     0
 49
0.5
 74
     0
 49
-2.5
 74
     0
 49
0.5
 74
     0
 49
-2.0
 74
     0
  0
LTYPE
  5
147
330
3
100
AcDbSymbolTableRecord
100
AcDbLinetypeTableRecord
  2
2STR3PKT
 70
     0
  3
--...--...--...
 72
    65
 73
    10
 40
34.0
 49
10.0
 74
     0
 49
-2.5
 74
     0
 49
10.0
 74
     0
 49
-2.5
 74
     0
 49
0.5
 74
     0
 49
-2.5
 74
     0
 49
0.5
 74
     0
 49
-2.5
 74
     0
 49
0.5
 74
     0
 49
-2.5
 74
     0
  0
LTYPE
  5
148
330
3
100
AcDbSymbolTableRecord
100
AcDbLinetypeTableRecord
  2
STRKSTR
 70
     0
  3
-- - -- - -- -
 72
    65
 73
     4
 40
30.0
 49
20.0
 74
     0
 49
-2.5
 74
     0
 49
5.0
 74
     0
 49
-2.5
 74
     0
  0
LTYPE
  5
149
330
3
100
AcDbSymbolTableRecord
100
AcDbLinetypeTableRecord
  2
STRKSTR2
 70
     0
  3
-- - -- - -- -
 72
    65
 73
     6
 40
37.5
 49
20.0
 74
     0
 49
-2.5
 74
     0
 49
5.0
 74
     0
 49
-2.5
 74
     0
 49
5.0
 74
     0
 49
-2.5
 74
     0
  0
LTYPE
  5
14A
330
3
100
AcDbSymbolTableRecord
100
AcDbLinetypeTableRecord
  2
STRKSTR3
 70
     0
  3
-- - -- - -- -
 72
    65
 73
     8
 40
45.0
 49
20.0
 74
     0
 49
-2.5
 74
     0
 49
5.0
 74
     0
 49
-2.5
 74
     0
 49
5.0
 74
     0
 49
-2.5
 74
     0
 49
5.0
 74
     0
 49
-2.5
 74
     0
  0
LTYPE
  5
14B
330
3
100
AcDbSymbolTableRecord
100
AcDbLinetypeTableRecord
  2
PUNKT2
 70
     0
  3
..............
 72
    65
 73
     2
 40
3.5
 49
0.5
 74
     0
 49
-3.0
 74
     0
  0
ENDTAB
  0
TABLE
  2
LAYER
  5
14C
330
0
100
AcDbSymbolTable
 70
    16
  0
LAYER
  5
14D
330
14C
100
AcDbSymbolTableRecord
100
AcDbLayerTableRecord
  2
0
 70
     0
 62
     7
  6
CONTINUOUS
370
    -3
390
3DA
  0
LAYER
  5
14E
330
14C
100
AcDbSymbolTableRecord
100
AcDbLayerTableRecord
  2
LE_GREEN
 70
     0
 62
     3
  6
CONTINUOUS
370
    -3
390
3DA
  0
LAYER
  5
14F
330
14C
100
AcDbSymbolTableRecord
100
AcDbLayerTableRecord
  2
LE_RED
 70
     0
 62
     1
  6
CONTINUOUS
370
    -3
390
3DA
  0
LAYER
  5
150
330
14C
100
AcDbSymbolTableRecord
100
AcDbLayerTableRecord
  2
LE_ALL
 70
     0
 62
     7
  6
CONTINUOUS
370
    50
390
3DA
  0
LAYER
  5
151
330
14C
100
AcDbSymbolTableRecord
100
AcDbLayerTableRecord
  2
LE_HIDDEN1
 70
     0
 62
     3
  6
HIDDEN
370
    -3
390
3DA
  0
LAYER
  5
152
330
14C
100
AcDbSymbolTableRecord
100
AcDbLayerTableRecord
  2
LE_HIDDEN
 70
     0
 62
     7
  6
CONTINUOUS
370
    -3
390
3DA
  0
LAYER
  5
153
330
14C
100
AcDbSymbolTableRecord
100
AcDbLayerTableRecord
  2
LE_MIDDLE
 70
     0
 62
     7
  6
CONTINUOUS
370
    -3
390
3DA
  0
LAYER
  5
154
330
14C
100
AcDbSymbolTableRecord
100
AcDbLayerTableRecord
  2
TXT_YELLOW
 70
     0
 62
     2
  6
CONTINUOUS
370
    -3
390
3DA
  0
LAYER
  5
155
330
14C
100
AcDbSymbolTableRecord
100
AcDbLayerTableRecord
  2
TXT_DIM49
 70
     0
 62
     2
  6
CONTINUOUS
370
    -3
390
3DA
  0
LAYER
  5
156
330
14C
100
AcDbSymbolTableRecord
100
AcDbLayerTableRecord
  2
TXT_ALL
 70
     0
 62
     7
  6
CONTINUOUS
370
    -3
390
3DA
  0
LAYER
  5
157
330
14C
100
AcDbSymbolTableRecord
100
AcDbLayerTableRecord
  2
DIM49
 70
     0
 62
     4
  6
CONTINUOUS
370
    -3
390
3DA
  0
LAYER
  5
158
330
14C
100
AcDbSymbolTableRecord
100
AcDbLayerTableRecord
  2
HATCH
 70
     0
 62
     3
  6
CONTINUOUS
370
    -3
390
3DA
  0
LAYER
  5
159
330
14C
100
AcDbSymbolTableRecord
100
AcDbLayerTableRecord
  2
APPLE
 70
     0
 62
     7
  6
CONTINUOUS
370
    -3
390
3DA
  0
LAYER
  5
15A
330
14C
100
AcDbSymbolTableRecord
100
AcDbLayerTableRecord
  2
10
 70
     0
 62
     7
  6
CONTINUOUS
370
    -3
390
3DA
  0
LAYER
  5
15B
330
14C
100
AcDbSymbolTableRecord
100
AcDbLayerTableRecord
  2
20
 70
     0
 62
     7
  6
CONTINUOUS
370
    -3
390
3DA
  0
LAYER
  5
15C
330
14C
100
AcDbSymbolTableRecord
100
AcDbLayerTableRecord
  2
49
 70
     0
 62
     7
  6
CONTINUOUS
370
    -3
390
3DA
  0
ENDTAB
  0
TABLE
  2
STYLE
  5
15D
330
0
100
AcDbSymbolTable
 70
     5
  0
STYLE
  5
15E
330
15D
100
AcDbSymbolTableRecord
100
AcDbTextStyleTableRecord
  2
MONOTXT
 70
     0
 40
0.0
 41
1.0
 50
0.0
 71
     0
 42
1.0
  3
monotxt.shx
  4

  0
STYLE
  5
15F
330
15D
100
AcDbSymbolTableRecord
100
AcDbTextStyleTableRecord
  2
STANDARD
 70
     0
 40
0.0
 41
1.0
 50
0.0
 71
     0
 42
1.0
  3
txt
  4

  0
STYLE
  5
160
330
15D
100
AcDbSymbolTableRecord
100
AcDbTextStyleTableRecord
  2
ARIAL
 70
     0
 40
0.0
 41
1.0
 50
0.0
 71
     0
 42
1.0
  3
arial.ttf
  4

  0
STYLE
  5
161
330
15D
100
AcDbSymbolTableRecord
100
AcDbTextStyleTableRecord
  2
ARIAL Narrow
 70
     0
 40
0.0
 41
1.0
 50
0.0
 71
     0
 42
1.0
  3
ArialN.ttf
  4

  0
STYLE
  5
162
330
15D
100
AcDbSymbolTableRecord
100
AcDbTextStyleTableRecord
  2
ISOCPEUR
 70
     0
 40
0.0
 41
1.0
 50
0.0
 71
     0
 42
1.0
  3
ISOCPEUR.ttf
  4

  0
ENDTAB
  0
TABLE
  2
VIEW
  5
163
330
0
100
AcDbSymbolTable
 70
     0
  0
ENDTAB
  0
TABLE
  2
UCS
  5
164
330
0
100
AcDbSymbolTable
 70
     0
  0
ENDTAB
  0
TABLE
  2
APPID
  5
165
330
0
100
AcDbSymbolTable
 70
     2
  0
APPID
  5
166
330
165
100
AcDbSymbolTableRecord
100
AcDbRegAppTableRecord
  2
ACAD
 70
     0
  0
APPID
  5
44C
330
165
100
AcDbSymbolTableRecord
100
AcDbRegAppTableRecord
  2
ACAD_MLEADERVER
 70
     0
  0
ENDTAB
  0
TABLE
  2
DIMSTYLE
  5
167
330
0
100
AcDbSymbolTable
 70
     1
100
AcDbDimStyleTable
  0
DIMSTYLE
105
3D7
330
167
100
AcDbSymbolTableRecord
100
AcDbDimStyleTableRecord
  2
ISO-25
 70
     0
 41
2.5
 42
0.625
 43
3.75
 44
1.25
 73
     0
 74
     0
 77
     1
 78
     8
140
2.5
141
2.5
143
0.03937007874016
147
0.625
171
     3
172
     1
178
     0
271
     2
272
     2
274
     3
278
    44
283
     0
284
     8
340
15F
  0
ENDTAB
  0
TABLE
  2
BLOCK_RECORD
  5
168
330
0
100
AcDbSymbolTable
 70
     0
  0
BLOCK_RECORD
  5
1E
330
168
100
AcDbSymbolTableRecord
100
AcDbBlockTableRecord
  2
*Model_Space
340
21
  0
BLOCK_RECORD
  5
1A
330
168
100
AcDbSymbolTableRecord
100
AcDbBlockTableRecord
  2
*Paper_Space
340
1D
  0
ENDTAB
  0
ENDSEC
  0
SECTION
  2
BLOCKS
  0
BLOCK
  5
169
330
1E
100
AcDbEntity
  8
0
100
AcDbBlockBegin
  2
*Model_Space
 70
     0
 10
0.0
 20
0.0
 30
0.0
  3
*Model_Space
  1

  0
ENDBLK
  5
16A
330
1E
100
AcDbEntity
  8
0
100
AcDbBlockEnd
  0
BLOCK
  5
16B
330
1A
100
AcDbEntity
 67
     1
  8
0
100
AcDbBlockBegin
  2
*Paper_Space
 70
     0
 10
0.0
 20
0.0
 30
0.0
  3
*Paper_Space
  1

  0
ENDBLK
  5
16C
330
1A
100
AcDbEntity
 67
     1
  8
0
100
AcDbBlockEnd
  0
ENDSEC
  0
SECTION
  2
ENTITIES
  0
POLYLINE
  5
16D
330
1E
100
AcDbEntity
  8
0
100
AcDb2dPolyline
 66
     1
 10
0.0
 20
0.0
 30
0.0
 70
     1
  0
VERTEX
  5
16E
330
16D
100
AcDbEntity
  8
0
100
AcDbVertex
100
AcDb2dVertex
 10
-199.78182355
 20
-643.05773878
 30
0.0
  0
VERTEX
  5
16F
330
16D
100
AcDbEntity
  8
0
100
AcDbVertex
100
AcDb2dVertex
 10
220.21817645
 20
-643.05773878
 30
0.0
  0
VERTEX
  5
170
330
16D
100
AcDbEntity
  8
0
100
AcDbVertex
100
AcDb2dVertex
 10
220.21817645
 20
-346.05773878
 30
0.0
  0
VERTEX
  5
171
330
16D
100
AcDbEntity
  8
0
100
AcDbVertex
100
AcDb2dVertex
 10
-199.78182355
 20
-346.05773878
 30
0.0
  0
SEQEND
  5
172
330
16D
100
AcDbEntity
  8
0
  0
POLYLINE
  5
173
330
1E
100
AcDbEntity
  8
0
100
AcDb2dPolyline
 66
     1
 10
0.0
 20
0.0
 30
0.0
 70
     1
  0
VERTEX
  5
174
330
173
100
AcDbEntity
  8
0
100
AcDbVertex
100
AcDb2dVertex
 10
-194.78182355
 20
-638.05773878
 30
0.0
  0
VERTEX
  5
175
330
173
100
AcDbEntity
  8
0
100
AcDbVertex
100
AcDb2dVertex
 10
215.21817645
 20
-638.05773878
 30
0.0
  0
VERTEX
  5
176
330
173
100
AcDbEntity
  8
0
100
AcDbVertex
100
AcDb2dVertex
 10
215.21817645
 20
-351.05773878
 30
0.0
  0
VERTEX
  5
177
330
173
100
AcDbEntity
  8
0
100
AcDbVertex
100
AcDb2dVertex
 10
-194.78182355
 20
-351.05773878
 30
0.0
  0
SEQEND
  5
178
330
173
100
AcDbEntity
  8
0
  0
LINE
  5
179
330
1E
100
AcDbEntity
  8
0
100
AcDbLine
 10
30.21817645
 20
-638.05773878
 30
0.0
 11
30.21817645
 21
-643.05773878
 31
0.0
  0
LINE
  5
17A
330
1E
100
AcDbEntity
  8
0
100
AcDbLine
 10
30.21817645
 20
-351.05773878
 30
0.0
 11
30.21817645
 21
-346.05773878
 31
0.0
  0
LINE
  5
17B
330
1E
100
AcDbEntity
  8
0
100
AcDbLine
 10
-179.78182355
 20
-638.05773878
 30
0.0
 11
-179.78182355
 21
-643.05773878
 31
0.0
  0
LINE
  5
17C
330
1E
100
AcDbEntity
  8
0
100
AcDbLine
 10
-179.78182355
 20
-351.05773878
 30
0.0
 11
-179.78182355
 21
-346.05773878
 31
0.0
  0
TEXT
  5
17D
330
1E
100
AcDbEntity
  8
TXT_ALL
 62
     4
100
AcDbText
 10
219.21817645
 20
-642.05773878
 30
0.0
 40
2.5
  1

 50
90.00020741
100
AcDbText
  0
POLYLINE
  5
17E
330
1E
100
AcDbEntity
  8
0
100
AcDb2dPolyline
 66
     1
 10
0.0
 20
0.0
 30
0.0
  0
VERTEX
  5
17F
330
17E
100
AcDbEntity
  8
0
100
AcDbVertex
100
AcDb2dVertex
 10
215.21817645
 20
-361.05773878
 30
0.0
  0
VERTEX
  5
180
330
17E
100
AcDbEntity
  8
0
100
AcDbVertex
100
AcDb2dVertex
 10
146.22487645
 20
-361.05773878
 30
0.0
  0
VERTEX
  5
181
330
17E
100
AcDbEntity
  8
0
100
AcDbVertex
100
AcDb2dVertex
 10
146.22487645
 20
-351.05773878
 30
0.0
  0
SEQEND
  5
182
330
17E
100
AcDbEntity
  8
0
  0
LINE
  5
183
330
1E
100
AcDbEntity
  8
0
100
AcDbLine
 10
148.12817645
 20
-618.55773878
 30
0.0
 11
8.23817645
 21
-618.55773878
 31
0.0
  0
LINE
  5
184
330
1E
100
AcDbEntity
  8
0
100
AcDbLine
 10
8.23817645
 20
-628.30773878
 30
0.0
 11
148.12817645
 21
-628.30773878
 31
0.0
  0
POLYLINE
  5
185
330
1E
100
AcDbEntity
  8
0
100
AcDb2dPolyline
 66
     1
 10
0.0
 20
0.0
 30
0.0
  0
VERTEX
  5
186
330
185
100
AcDbEntity
  8
0
100
AcDbVertex
100
AcDb2dVertex
 10
8.23817645
 20
-618.55773878
 30
0.0
  0
VERTEX
  5
187
330
185
100
AcDbEntity
  8
0
100
AcDbVertex
100
AcDb2dVertex
 10
8.23817645
 20
-628.30773878
 30
0.0
  0
VERTEX
  5
188
330
185
100
AcDbEntity
  8
0
100
AcDbVertex
100
AcDb2dVertex
 10
8.23817645
 20
-638.05773878
 30
0.0
  0
SEQEND
  5
189
330
185
100
AcDbEntity
  8
0
  0
POLYLINE
  5
18A
330
1E
100
AcDbEntity
  8
0
100
AcDb2dPolyline
 66
     1
 10
0.0
 20
0.0
 30
0.0
  0
VERTEX
  5
18B
330
18A
100
AcDbEntity
  8
0
100
AcDbVertex
100
AcDb2dVertex
 10
78.18317645
 20
-618.55773878
 30
0.0
  0
VERTEX
  5
18C
330
18A
100
AcDbEntity
  8
0
100
AcDbVertex
100
AcDb2dVertex
 10
78.18317645
 20
-628.30773878
 30
0.0
  0
VERTEX
  5
18D
330
18A
100
AcDbEntity
  8
0
100
AcDbVertex
100
AcDb2dVertex
 10
78.18317645
 20
-638.05773878
 30
0.0
  0
SEQEND
  5
18E
330
18A
100
AcDbEntity
  8
0
  0
TEXT
  5
18F
330
1E
100
AcDbEntity
  8
TXT_ALL
100
AcDbText
 10
10.23817645
 20
-624.73273873
 30
0.0
 40
2.5999999
  1
E-mail: verkoop@jonkers-bouwmetaal.nl
  7
ARIAL
 11
10.23817645
 21
-623.43273878
 31
0.0
100
AcDbText
 73
     2
  0
TEXT
  5
190
330
1E
100
AcDbEntity
  8
TXT_ALL
100
AcDbText
 10
10.23817645
 20
-634.48273873
 30
0.0
 40
2.5999999
  1
Telefoon: 0527-685156
  7
ARIAL
 11
10.23817645
 21
-633.18273878
 31
0.0
100
AcDbText
 73
     2
  0
TEXT
  5
191
330
1E
100
AcDbEntity
  8
TXT_ALL
100
AcDbText
 10
80.18317645
 20
-634.48273873
 30
0.0
 40
2.5999999
  1
Website: www.jonkers-bouwmetaal.nl
  7
ARIAL
 11
80.18317645
 21
-633.18273878
 31
0.0
100
AcDbText
 73
     2
  0
TEXT
  5
192
330
1E
100
AcDbEntity
  8
TXT_ALL
100
AcDbText
 10
80.18317645
 20
-624.73273873
 30
0.0
 40
2.5999999
  1
Adres: Hoornse Hop 10, 8321 WX Urk
  7
ARIAL
 11
80.18317645
 21
-623.43273878
 31
0.0
100
AcDbText
 73
     2
  0
TEXT
  5
193
330
1E
100
AcDbEntity
  8
TXT_ALL
100
AcDbText
 10
-191.3398633
 20
-357.30773878
 30
0.0
 40
2.5
  1
Art. nr. 91004545
  7
ARIAL
 11
-191.3398633
 21
-356.05773878
 31
0.0
100
AcDbText
 73
     2
  0
TEXT
  5
194
330
1E
100
AcDbEntity
  8
TXT_ALL
100
AcDbText
 10
-148.60182648
 20
-357.30773878
 30
0.0
 40
2.5
  1
Omschrijving: F5-anker 315x100 80x8
  7
ARIAL
 11
-148.60182648
 21
-356.05773878
 31
0.0
100
AcDbText
 73
     2
  0
LINE
  5
195
330
1E
100
AcDbEntity
  8
0
100
AcDbLine
 10
215.21817645
 20
-361.05773878
 30
0.0
 11
-194.78182355
 21
-361.05773878
 31
0.0
  0
LINE
  5
196
330
1E
100
AcDbEntity
  8
0
100
AcDbLine
 10
-151.76182355
 20
-361.05773878
 30
0.0
 11
-151.76182355
 21
-351.05773878
 31
0.0
  0
LINE
  5
197
330
1E
100
AcDbEntity
  8
0
100
AcDbLine
 10
8.23817645
 20
-361.05773878
 30
0.0
 11
8.23817645
 21
-351.05773878
 31
0.0
  0
TEXT
  5
198
330
1E
100
AcDbEntity
  8
TXT_ALL
100
AcDbText
 10
79.23187645
 20
-357.30773878
 30
0.0
 40
2.5
  1
Behandeling: Thermisch Verzinkt
  7
ARIAL
 11
79.23187645
 21
-356.05773878
 31
0.0
100
AcDbText
 73
     2
  0
LINE
  5
199
330
1E
100
AcDbEntity
  8
0
100
AcDbLine
 10
148.12817645
 20
-618.55773878
 30
0.0
 11
215.21817645
 21
-618.55773878
 31
0.0
  0
LINE
  5
19A
330
1E
100
AcDbEntity
  8
0
100
AcDbLine
 10
148.12817645
 20
-638.05773878
 30
0.0
 11
148.12817645
 21
-618.55773878
 31
0.0
  0
LINE
  5
19B
330
1E
100
AcDbEntity
  8
0
100
AcDbLine
 10
148.12817645
 20
-638.05773878
 30
0.0
 11
148.12817645
 21
-618.55773878
 31
0.0
  0
TEXT
  5
19C
330
1E
100
AcDbEntity
  8
TXT_ALL
100
AcDbText
 10
-57.41662546
 20
-636.90320536
 30
0.0
 40
2.5
  1

 11
-57.41662546
 21
-635.65320536
 31
0.0
100
AcDbText
 73
     2
  0
TEXT
  5
19D
330
1E
100
AcDbEntity
  8
TXT_ALL
100
AcDbText
 10
63.71855751
 20
-626.80773878
 30
0.0
 40
2.5
  1

 11
63.71855751
 21
-625.55773878
 31
0.0
100
AcDbText
 73
     2
  0
POLYLINE
  5
19E
330
1E
100
AcDbEntity
  8
0
100
AcDb2dPolyline
 66
     1
 10
0.0
 20
0.0
 30
0.0
  0
VERTEX
  5
19F
330
19E
100
AcDbEntity
  8
0
100
AcDbVertex
100
AcDb2dVertex
 10
146.22487645
 20
-361.05773878
 30
0.0
  0
VERTEX
  5
1A0
330
19E
100
AcDbEntity
  8
0
100
AcDbVertex
100
AcDb2dVertex
 10
77.23187645
 20
-361.05773878
 30
0.0
  0
VERTEX
  5
1A1
330
19E
100
AcDbEntity
  8
0
100
AcDbVertex
100
AcDb2dVertex
 10
77.23187645
 20
-351.05773878
 30
0.0
  0
SEQEND
  5
1A2
330
19E
100
AcDbEntity
  8
0
  0
TEXT
  5
1A3
330
1E
100
AcDbEntity
  8
TXT_ALL
100
AcDbText
 10
148.22487645
 20
-357.30773878
 30
0.0
 40
2.5
  1
Verpakkingshoeveelheid: 1 st.
  7
ARIAL
 11
148.22487645
 21
-356.05773878
 31
0.0
100
AcDbText
 73
     2
  0
TEXT
  5
1A4
330
1E
100
AcDbEntity
  8
TXT_ALL
100
AcDbText
 10
10.23817645
 20
-357.30773878
 30
0.0
 40
2.5
  1
Materiaal: S355
  7
ARIAL
 11
10.23817645
 21
-356.05773878
 31
0.0
100
AcDbText
 73
     2
  0
TEXT
  5
1A5
330
1E
100
AcDbEntity
  8
TXT_ALL
100
AcDbText
 10
183.33466186
 20
-641.30724863
 30
0.0
 40
1.5
  1
Onderdeel van
  7
ARIAL
 11
183.33466186
 21
-640.55724863
 31
0.0
100
AcDbText
 73
     2
  0
POLYLINE
  5
1A6
330
1E
100
AcDbEntity
  8
0
100
AcDb2dPolyline
 66
     1
 10
0.0
 20
0.0
 30
0.0
  0
VERTEX
  5
1A7
330
1A6
100
AcDbEntity
  8
0
100
AcDbVertex
100
AcDb2dVertex
 10
-157.16728718
 20
-575.27216551
 30
0.0
  0
VERTEX
  5
1A8
330
1A6
100
AcDbEntity
  8
0
100
AcDbVertex
100
AcDb2dVertex
 10
-170.0982658
 20
-588.37123807
 30
0.0
  0
VERTEX
  5
1A9
330
1A6
100
AcDbEntity
  8
0
100
AcDbVertex
100
AcDb2dVertex
 10
-173.02536298
 20
-587.79256297
 30
0.0
  0
SEQEND
  5
1AA
330
1A6
100
AcDbEntity
  8
0
  0
ELLIPSE
  5
1AB
330
1E
100
AcDbEntity
  8
0
100
AcDbEllipse
 10
-154.24019
 20
-575.85084062
 30
0.0
 11
2.2773063
 21
-2.24808275
 31
0.0
210
0.0
220
0.0
230
1.0
 40
0.8180126
 41
3.82089942
 42
5.39169574
  0
POLYLINE
  5
1AC
330
1E
100
AcDbEntity
  8
0
100
AcDb2dPolyline
 66
     1
 10
0.0
 20
0.0
 30
0.0
  0
VERTEX
  5
1AD
330
1AC
100
AcDbEntity
  8
0
100
AcDbVertex
100
AcDb2dVertex
 10
-154.24019
 20
-578.71253209
 30
0.0
  0
VERTEX
  5
1AE
330
1AC
100
AcDbEntity
  8
0
100
AcDbVertex
100
AcDb2dVertex
 10
-167.17116862
 20
-591.81160466
 30
0.0
  0
SEQEND
  5
1AF
330
1AC
100
AcDbEntity
  8
0
  0
ELLIPSE
  5
1B0
330
1E
100
AcDbEntity
  8
0
100
AcDbEllipse
 10
-167.17116862
 20
-588.94991318
 30
0.0
 11
2.2773063
 21
-2.24808275
 31
0.0
210
0.0
220
0.0
230
1.0
 40
0.8180126
 41
3.82089942
 42
5.39169574
  0
POLYLINE
  5
1B1
330
1E
100
AcDbEntity
  8
0
100
AcDb2dPolyline
 66
     1
 10
0.0
 20
0.0
 30
0.0
  0
VERTEX
  5
1B2
330
1B1
100
AcDbEntity
  8
0
100
AcDbVertex
100
AcDb2dVertex
 10
-167.17116862
 20
-591.81160466
 30
0.0
  0
VERTEX
  5
1B3
330
1B1
100
AcDbEntity
  8
0
100
AcDbVertex
100
AcDb2dVertex
 10
-167.17116862
 20
-594.67329613
 30
0.0
  0
SEQEND
  5
1B4
330
1B1
100
AcDbEntity
  8
0
  0
ELLIPSE
  5
1B5
330
1E
100
AcDbEntity
  8
0
100
AcDbEllipse
 10
-167.17116862
 20
-588.94991318
 30
0.0
 11
4.554612590000001
 21
-4.496165490000001
 31
0.0
210
0.0
220
0.0
230
1.0
 40
0.8180126
 41
3.82089942
 42
5.39169574
  0
ELLIPSE
  5
1B6
330
1E
100
AcDbEntity
  8
0
100
AcDbEllipse
 10
-127.775836
 20
-591.77216331
 30
0.0
 11
2.8
 21
0.0
 31
0.0
210
0.0
220
0.0
230
1.0
 40
0.44751068
 41
3.14159265
 42
4.29640184
  0
ELLIPSE
  5
1B7
330
1E
100
AcDbEntity
  8
0
100
AcDbEllipse
 10
-127.775836
 20
-591.77216331
 30
0.0
 11
2.8
 21
0.0
 31
0.0
210
0.0
220
0.0
230
1.0
 40
0.44751068
 41
1.15480919
 42
3.14159265
  0
POLYLINE
  5
1B8
330
1E
100
AcDbEntity
  8
0
100
AcDb2dPolyline
 66
     1
 10
0.0
 20
0.0
 30
0.0
  0
VERTEX
  5
1B9
330
1B8
100
AcDbEntity
  8
0
100
AcDbVertex
100
AcDb2dVertex
 10
-126.64437537
 20
-590.62599446
 30
0.0
  0
VERTEX
  5
1BA
330
1B8
100
AcDbEntity
  8
0
100
AcDbVertex
100
AcDb2dVertex
 10
-117.13130952
 20
-592.50668856
 30
0.0
  0
SEQEND
  5
1BB
330
1B8
100
AcDbEntity
  8
0
  0
ELLIPSE
  5
1BC
330
1E
100
AcDbEntity
  8
0
100
AcDbEllipse
 10
-118.26277015
 20
-593.65285741
 30
0.0
 11
2.8
 21
0.0
 31
0.0
210
0.0
220
0.0
230
1.0
 40
0.44751068
 41
0.0
 42
1.15480919
  0
ELLIPSE
  5
1BD
330
1E
100
AcDbEntity
  8
0
100
AcDbEllipse
 10
-118.26277015
 20
-593.65285741
 30
0.0
 11
2.8
 21
0.0
 31
0.0
210
0.0
220
0.0
230
1.0
 40
0.44751068
 41
4.29640184
 42
6.283185307179586
  0
LINE
  5
1BE
330
1E
100
AcDbEntity
  8
0
100
AcDbLine
 10
-119.39423078
 20
-594.79902626
 30
0.0
 11
-128.90729663
 21
-592.91833216
 31
0.0
  0
ELLIPSE
  5
1BF
330
1E
100
AcDbEntity
  8
0
100
AcDbEllipse
 10
-68.13623089
 20
-603.5626686
 30
0.0
 11
2.8
 21
0.0
 31
0.0
210
0.0
220
0.0
230
1.0
 40
0.44751068
 41
0.0
 42
3.14159265
  0
ELLIPSE
  5
1C0
330
1E
100
AcDbEntity
  8
0
100
AcDbEllipse
 10
-68.13623089
 20
-603.5626686
 30
0.0
 11
2.8
 21
0.0
 31
0.0
210
0.0
220
0.0
230
1.0
 40
0.44751068
 41
3.14159265
 42
6.283185307179586
  0
ELLIPSE
  5
1C1
330
1E
100
AcDbEntity
  8
0
100
AcDbEllipse
 10
-150.27789559
 20
-587.32359844
 30
0.0
 11
2.8
 21
0.0
 31
0.0
210
0.0
220
0.0
230
1.0
 40
0.44751068
 41
0.0
 42
3.14159265
  0
ELLIPSE
  5
1C2
330
1E
100
AcDbEntity
  8
0
100
AcDbEllipse
 10
-150.27789559
 20
-587.32359844
 30
0.0
 11
2.8
 21
0.0
 31
0.0
210
0.0
220
0.0
230
1.0
 40
0.44751068
 41
3.14159265
 42
6.283185307179586
  0
LINE
  5
1C3
330
1E
100
AcDbEntity
  8
0
100
AcDbLine
 10
-57.7709114
 20
-613.43958674
 30
0.0
 11
-167.17116862
 21
-591.81160466
 31
0.0
  0
LINE
  5
1C4
330
1E
100
AcDbEntity
  8
0
100
AcDbLine
 10
-154.24019
 20
-578.71253209
 30
0.0
 11
-167.17116862
 21
-591.81160466
 31
0.0
  0
LINE
  5
1C5
330
1E
100
AcDbEntity
  8
0
100
AcDbLine
 10
-47.03525567
 20
-599.90650784
 30
0.0
 11
-44.83993278
 21
-600.34051417
 31
0.0
  0
LINE
  5
1C6
330
1E
100
AcDbEntity
  8
0
100
AcDbLine
 10
-154.24019
 20
-578.71253209
 30
0.0
 11
-143.388504
 21
-580.8578659
 31
0.0
  0
POLYLINE
  5
1C7
330
1E
100
AcDbEntity
  8
0
100
AcDb2dPolyline
 66
     1
 10
0.0
 20
0.0
 30
0.0
  0
VERTEX
  5
1C8
330
1C7
100
AcDbEntity
  8
0
100
AcDbVertex
100
AcDb2dVertex
 10
-44.83993278
 20
-600.34051417
 30
0.0
  0
VERTEX
  5
1C9
330
1C7
100
AcDbEntity
  8
0
100
AcDbVertex
100
AcDb2dVertex
 10
-57.7709114
 20
-613.43958674
 30
0.0
  0
VERTEX
  5
1CA
330
1C7
100
AcDbEntity
  8
0
100
AcDbVertex
100
AcDb2dVertex
 10
-57.7709114
 20
-616.30127821
 30
0.0
  0
VERTEX
  5
1CB
330
1C7
100
AcDbEntity
  8
0
100
AcDbVertex
100
AcDb2dVertex
 10
-167.17116862
 20
-594.67329613
 30
0.0
  0
SEQEND
  5
1CC
330
1C7
100
AcDbEntity
  8
0
  0
LINE
  5
1CD
330
1E
100
AcDbEntity
  8
0
100
AcDbLine
 10
-167.17116862
 20
-591.81160466
 30
0.0
 11
-167.17116862
 21
-594.67329613
 31
0.0
  0
LINE
  5
1CE
330
1E
100
AcDbEntity
  8
0
100
AcDbLine
 10
-44.83993278
 20
-603.20220565
 30
0.0
 11
-57.7709114
 21
-616.30127821
 31
0.0
  0
LINE
  5
1CF
330
1E
100
AcDbEntity
  8
0
100
AcDbLine
 10
-44.83993278
 20
-600.34051417
 30
0.0
 11
-44.83993278
 21
-603.20220565
 31
0.0
  0
LINE
  5
1D0
330
1E
100
AcDbEntity
  8
0
  6
STRICHPUNKT2
 62
     1
100
AcDbLine
 10
-150.27789559
 20
-586.25046413
 30
0.0
 11
-150.27789559
 21
-588.57662835
 31
0.0
  0
LINE
  5
1D1
330
1E
100
AcDbEntity
  8
0
  6
STRICHPUNKT2
 62
     1
100
AcDbLine
 10
-150.27789559
 20
-587.32359844
 30
0.0
 11
-146.61902412
 21
-588.04694232
 31
0.0
  0
LINE
  5
1D2
330
1E
100
AcDbEntity
  8
0
  6
STRICHPUNKT2
 62
     1
100
AcDbLine
 10
-150.27789559
 20
-587.32359844
 30
0.0
 11
-153.93676707
 21
-586.60025456
 31
0.0
  0
LINE
  5
1D3
330
1E
100
AcDbEntity
  8
0
  6
STRICHPUNKT2
 62
     1
100
AcDbLine
 10
-150.27789559
 20
-587.32359844
 30
0.0
 11
-148.66152327
 21
-585.68621437
 31
0.0
  0
LINE
  5
1D4
330
1E
100
AcDbEntity
  8
0
  6
STRICHPUNKT2
 62
     1
100
AcDbLine
 10
-150.27789559
 20
-587.32359844
 30
0.0
 11
-151.89426792
 21
-588.96098251
 31
0.0
  0
LINE
  5
1D5
330
1E
100
AcDbEntity
  8
0
  6
STRICHPUNKT2
 62
     1
100
AcDbLine
 10
-68.13623089
 20
-602.48953429
 30
0.0
 11
-68.13623089
 21
-604.8156985
 31
0.0
  0
LINE
  5
1D6
330
1E
100
AcDbEntity
  8
0
  6
STRICHPUNKT2
 62
     1
100
AcDbLine
 10
-68.13623089
 20
-603.5626686
 30
0.0
 11
-64.47735941
 21
-604.28601248
 31
0.0
  0
LINE
  5
1D7
330
1E
100
AcDbEntity
  8
0
  6
STRICHPUNKT2
 62
     1
100
AcDbLine
 10
-68.13623089
 20
-603.5626686
 30
0.0
 11
-71.79510237
 21
-602.83932471
 31
0.0
  0
LINE
  5
1D8
330
1E
100
AcDbEntity
  8
0
  6
STRICHPUNKT2
 62
     1
100
AcDbLine
 10
-68.13623089
 20
-603.5626686
 30
0.0
 11
-66.51985856
 21
-601.92528452
 31
0.0
  0
LINE
  5
1D9
330
1E
100
AcDbEntity
  8
0
  6
STRICHPUNKT2
 62
     1
100
AcDbLine
 10
-68.13623089
 20
-603.5626686
 30
0.0
 11
-69.75260322
 21
-605.20005267
 31
0.0
  0
LINE
  5
1DA
330
1E
100
AcDbEntity
  8
0
  6
STRICHPUNKT2
 62
     1
100
AcDbLine
 10
-127.775836
 20
-590.69902901
 30
0.0
 11
-127.775836
 21
-593.14201729
 31
0.0
  0
LINE
  5
1DB
330
1E
100
AcDbEntity
  8
0
  6
STRICHPUNKT2
 62
     1
100
AcDbLine
 10
-118.26277015
 20
-592.5797231
 30
0.0
 11
-118.26277015
 21
-594.90588732
 31
0.0
  0
LINE
  5
1DC
330
1E
100
AcDbEntity
  8
0
  6
STRICHPUNKT2
 62
     1
100
AcDbLine
 10
-131.43470748
 20
-591.04881943
 30
0.0
 11
-114.60389867
 21
-594.37620129
 31
0.0
  0
LINE
  5
1DD
330
1E
100
AcDbEntity
  8
0
  6
STRICHPUNKT2
 62
     1
100
AcDbLine
 10
-129.39220833
 20
-593.40954738
 30
0.0
 11
-126.15946367
 21
-590.13477924
 31
0.0
  0
LINE
  5
1DE
330
1E
100
AcDbEntity
  8
0
  6
STRICHPUNKT2
 62
     1
100
AcDbLine
 10
-119.87914248
 20
-595.29024148
 30
0.0
 11
-116.64639783
 21
-592.01547334
 31
0.0
  0
ELLIPSE
  5
1DF
330
1E
100
AcDbEntity
  8
0
100
AcDbEllipse
 10
-159.59184568
 20
-558.41182415
 30
0.0
 11
-0.38788447
 21
-1.9620259
 31
0.0
210
0.0
220
0.0
230
1.0
 40
0.36137179
 41
0.0
 42
3.14159265
  0
ELLIPSE
  5
1E0
330
1E
100
AcDbEntity
  8
0
100
AcDbEllipse
 10
-159.59184568
 20
-558.41182415
 30
0.0
 11
-0.38788447
 21
-1.9620259
 31
0.0
210
0.0
220
0.0
230
1.0
 40
0.36137179
 41
3.14159265
 42
6.283185307179586
  0
ELLIPSE
  5
1E1
330
1E
100
AcDbEntity
  8
0
100
AcDbEllipse
 10
-163.63277649
 20
-564.2938415
 30
0.0
 11
-0.5430382600000002
 21
-2.74683626
 31
0.0
210
0.0
220
0.0
230
1.0
 40
0.36137179
 41
0.0
 42
3.14159265
  0
ELLIPSE
  5
1E2
330
1E
100
AcDbEntity
  8
0
100
AcDbEllipse
 10
-163.63277649
 20
-564.2938415
 30
0.0
 11
-0.5430382600000002
 21
-2.74683626
 31
0.0
210
0.0
220
0.0
230
1.0
 40
0.36137179
 41
3.14159265
 42
6.283185307179586
  0
POLYLINE
  5
1E3
330
1E
100
AcDbEntity
  8
0
100
AcDb2dPolyline
 66
     1
 10
0.0
 20
0.0
 30
0.0
  0
VERTEX
  5
1E4
330
1E3
100
AcDbEntity
  8
0
100
AcDbVertex
100
AcDb2dVertex
 10
-157.16728718
 20
-545.22440502
 30
0.0
  0
VERTEX
  5
1E5
330
1E3
100
AcDbEntity
  8
0
100
AcDbVertex
100
AcDb2dVertex
 10
-170.0982658
 20
-558.32347758
 30
0.0
  0
VERTEX
  5
1E6
330
1E3
100
AcDbEntity
  8
0
100
AcDbVertex
100
AcDb2dVertex
 10
-173.02536298
 20
-557.74480247
 30
0.0
  0
SEQEND
  5
1E7
330
1E3
100
AcDbEntity
  8
0
  0
LINE
  5
1E8
330
1E
100
AcDbEntity
  8
0
100
AcDbLine
 10
-160.09438437
 20
-544.64572991
 30
0.0
 11
-173.02536298
 21
-557.74480247
 31
0.0
  0
LINE
  5
1E9
330
1E
100
AcDbEntity
  8
0
100
AcDbLine
 10
-157.16728718
 20
-545.22440502
 30
0.0
 11
-160.09438437
 21
-544.64572991
 31
0.0
  0
POLYLINE
  5
1EA
330
1E
100
AcDbEntity
  8
0
100
AcDb2dPolyline
 66
     1
 10
0.0
 20
0.0
 30
0.0
  0
VERTEX
  5
1EB
330
1EA
100
AcDbEntity
  8
0
100
AcDbVertex
100
AcDb2dVertex
 10
-157.16728718
 20
-545.22440502
 30
0.0
  0
VERTEX
  5
1EC
330
1EA
100
AcDbEntity
  8
0
100
AcDbVertex
100
AcDb2dVertex
 10
-157.16728718
 20
-575.27216551
 30
0.0
  0
VERTEX
  5
1ED
330
1EA
100
AcDbEntity
  8
0
100
AcDbVertex
100
AcDb2dVertex
 10
-170.0982658
 20
-588.37123807
 30
0.0
  0
VERTEX
  5
1EE
330
1EA
100
AcDbEntity
  8
0
100
AcDbVertex
100
AcDb2dVertex
 10
-170.0982658
 20
-558.32347758
 30
0.0
  0
SEQEND
  5
1EF
330
1EA
100
AcDbEntity
  8
0
  0
POLYLINE
  5
1F0
330
1E
100
AcDbEntity
  8
0
100
AcDb2dPolyline
 66
     1
 10
0.0
 20
0.0
 30
0.0
  0
VERTEX
  5
1F1
330
1F0
100
AcDbEntity
  8
0
100
AcDbVertex
100
AcDb2dVertex
 10
-170.0982658
 20
-588.37123807
 30
0.0
  0
VERTEX
  5
1F2
330
1F0
100
AcDbEntity
  8
0
100
AcDbVertex
100
AcDb2dVertex
 10
-173.02536298
 20
-587.79256297
 30
0.0
  0
VERTEX
  5
1F3
330
1F0
100
AcDbEntity
  8
0
100
AcDbVertex
100
AcDb2dVertex
 10
-173.02536298
 20
-557.74480247
 30
0.0
  0
SEQEND
  5
1F4
330
1F0
100
AcDbEntity
  8
0
  0
LINE
  5
1F5
330
1E
100
AcDbEntity
  8
0
  6
STRICHPUNKT2
 62
     1
100
AcDbLine
 10
-162.53511505
 20
-564.51084467
 30
0.0
 11
-164.62540563
 21
-564.0976028
 31
0.0
  0
LINE
  5
1F6
330
1E
100
AcDbEntity
  8
0
  6
STRICHPUNKT2
 62
     1
100
AcDbLine
 10
-163.63277649
 20
-564.2938415
 30
0.0
 11
-163.63277649
 21
-567.87095585
 31
0.0
  0
LINE
  5
1F7
330
1E
100
AcDbEntity
  8
0
  6
STRICHPUNKT2
 62
     1
100
AcDbLine
 10
-163.63277649
 20
-564.2938415
 30
0.0
 11
-163.63277649
 21
-560.71672716
 31
0.0
  0
LINE
  5
1F8
330
1E
100
AcDbEntity
  8
0
  6
STRICHPUNKT2
 62
     1
100
AcDbLine
 10
-163.63277649
 20
-564.2938415
 30
0.0
 11
-162.01640417
 21
-562.65645743
 31
0.0
  0
LINE
  5
1F9
330
1E
100
AcDbEntity
  8
0
  6
STRICHPUNKT2
 62
     1
100
AcDbLine
 10
-163.63277649
 20
-564.2938415
 30
0.0
 11
-165.24914882
 21
-565.93122557
 31
0.0
  0
LINE
  5
1FA
330
1E
100
AcDbEntity
  8
0
  6
STRICHPUNKT2
 62
     1
100
AcDbLine
 10
-158.67712781
 20
-558.59266013
 30
0.0
 11
-160.30086649
 21
-558.27165365
 31
0.0
  0
LINE
  5
1FB
330
1E
100
AcDbEntity
  8
0
  6
STRICHPUNKT2
 62
     1
100
AcDbLine
 10
-159.59184568
 20
-558.41182415
 30
0.0
 11
-159.59184568
 21
-561.09465991
 31
0.0
  0
LINE
  5
1FC
330
1E
100
AcDbEntity
  8
0
  6
STRICHPUNKT2
 62
     1
100
AcDbLine
 10
-159.59184568
 20
-558.41182415
 30
0.0
 11
-159.59184568
 21
-555.7289884
 31
0.0
  0
LINE
  5
1FD
330
1E
100
AcDbEntity
  8
0
  6
STRICHPUNKT2
 62
     1
100
AcDbLine
 10
-159.59184568
 20
-558.41182415
 30
0.0
 11
-158.37956643
 21
-557.1837861
 31
0.0
  0
LINE
  5
1FE
330
1E
100
AcDbEntity
  8
0
  6
STRICHPUNKT2
 62
     1
100
AcDbLine
 10
-159.59184568
 20
-558.41182415
 30
0.0
 11
-160.80412492
 21
-559.63986221
 31
0.0
  0
ELLIPSE
  5
1FF
330
1E
100
AcDbEntity
  8
0
100
AcDbEllipse
 10
-138.03684833
 20
-568.88071561
 30
0.0
 11
-0.38788447
 21
-1.9620259
 31
0.0
210
0.0
220
0.0
230
1.0
 40
0.36137179
 41
0.0
 42
3.14159265
  0
ELLIPSE
  5
200
330
1E
100
AcDbEntity
  8
0
100
AcDbEllipse
 10
-138.03684833
 20
-568.88071561
 30
0.0
 11
-0.38788447
 21
-1.9620259
 31
0.0
210
0.0
220
0.0
230
1.0
 40
0.36137179
 41
3.14159265
 42
6.283185307179586
  0
ELLIPSE
  5
201
330
1E
100
AcDbEntity
  8
0
100
AcDbEllipse
 10
-133.99591751
 20
-570.15292695
 30
0.0
 11
-0.5430382600000002
 21
-2.74683626
 31
0.0
210
0.0
220
0.0
230
1.0
 40
0.36137179
 41
0.0
 42
3.14159265
  0
ELLIPSE
  5
202
330
1E
100
AcDbEntity
  8
0
100
AcDbEllipse
 10
-133.99591751
 20
-570.15292695
 30
0.0
 11
-0.5430382600000002
 21
-2.74683626
 31
0.0
210
0.0
220
0.0
230
1.0
 40
0.36137179
 41
3.14159265
 42
6.28318531
  0
POLYLINE
  5
203
330
1E
100
AcDbEntity
  8
0
100
AcDb2dPolyline
 66
     1
 10
0.0
 20
0.0
 30
0.0
  0
VERTEX
  5
204
330
203
100
AcDbEntity
  8
0
100
AcDbVertex
100
AcDb2dVertex
 10
-127.5304282
 20
-551.08349046
 30
0.0
  0
VERTEX
  5
205
330
203
100
AcDbEntity
  8
0
100
AcDbVertex
100
AcDb2dVertex
 10
-140.46140682
 20
-564.18256303
 30
0.0
  0
VERTEX
  5
206
330
203
100
AcDbEntity
  8
0
100
AcDbVertex
100
AcDb2dVertex
 10
-143.388504
 20
-563.60388792
 30
0.0
  0
SEQEND
  5
207
330
203
100
AcDbEntity
  8
0
  0
LINE
  5
208
330
1E
100
AcDbEntity
  8
0
100
AcDbLine
 10
-130.45752539
 20
-550.50481536
 30
0.0
 11
-143.388504
 21
-563.60388792
 31
0.0
  0
LINE
  5
209
330
1E
100
AcDbEntity
  8
0
100
AcDbLine
 10
-127.5304282
 20
-551.08349046
 30
0.0
 11
-130.45752539
 21
-550.50481536
 31
0.0
  0
LINE
  5
20A
330
1E
100
AcDbEntity
  8
0
100
AcDbLine
 10
-127.5304282
 20
-551.08349046
 30
0.0
 11
-127.5304282
 21
-555.37602768
 31
0.0
  0
POLYLINE
  5
20B
330
1E
100
AcDbEntity
  8
0
100
AcDb2dPolyline
 66
     1
 10
0.0
 20
0.0
 30
0.0
  0
VERTEX
  5
20C
330
20B
100
AcDbEntity
  8
0
100
AcDbVertex
100
AcDb2dVertex
 10
-128.82352607
 20
-585.30284969
 30
0.0
  0
VERTEX
  5
20D
330
20B
100
AcDbEntity
  8
0
100
AcDbVertex
100
AcDb2dVertex
 10
-140.46140682
 20
-597.092015
 30
0.0
  0
VERTEX
  5
20E
330
20B
100
AcDbEntity
  8
0
100
AcDbVertex
100
AcDb2dVertex
 10
-140.46140682
 20
-564.18256303
 30
0.0
  0
SEQEND
  5
20F
330
20B
100
AcDbEntity
  8
0
  0
POLYLINE
  5
210
330
1E
100
AcDbEntity
  8
0
100
AcDb2dPolyline
 66
     1
 10
0.0
 20
0.0
 30
0.0
  0
VERTEX
  5
211
330
210
100
AcDbEntity
  8
0
100
AcDbVertex
100
AcDb2dVertex
 10
-140.46140682
 20
-597.092015
 30
0.0
  0
VERTEX
  5
212
330
210
100
AcDbEntity
  8
0
100
AcDbVertex
100
AcDb2dVertex
 10
-143.388504
 20
-596.51333989
 30
0.0
  0
VERTEX
  5
213
330
210
100
AcDbEntity
  8
0
100
AcDbVertex
100
AcDb2dVertex
 10
-143.388504
 20
-563.60388792
 30
0.0
  0
SEQEND
  5
214
330
210
100
AcDbEntity
  8
0
  0
LINE
  5
215
330
1E
100
AcDbEntity
  8
0
  6
STRICHPUNKT2
 62
     1
100
AcDbLine
 10
-132.7153125
 20
-570.40609731
 30
0.0
 11
-134.98854665
 21
-569.95668824
 31
0.0
  0
LINE
  5
216
330
1E
100
AcDbEntity
  8
0
  6
STRICHPUNKT2
 62
     1
100
AcDbLine
 10
-133.99591751
 20
-570.15292695
 30
0.0
 11
-133.99591751
 21
-566.39695689
 31
0.0
  0
LINE
  5
217
330
1E
100
AcDbEntity
  8
0
  6
STRICHPUNKT2
 62
     1
100
AcDbLine
 10
-133.99591751
 20
-570.15292695
 30
0.0
 11
-133.99591751
 21
-573.90889701
 31
0.0
  0
LINE
  5
218
330
1E
100
AcDbEntity
  8
0
  6
STRICHPUNKT2
 62
     1
100
AcDbLine
 10
-133.99591751
 20
-570.15292695
 30
0.0
 11
-135.69310846
 21
-571.87218022
 31
0.0
  0
LINE
  5
219
330
1E
100
AcDbEntity
  8
0
  6
STRICHPUNKT2
 62
     1
100
AcDbLine
 10
-133.99591751
 20
-570.15292695
 30
0.0
 11
-132.29872657
 21
-568.43367368
 31
0.0
  0
LINE
  5
21A
330
1E
100
AcDbEntity
  8
0
  6
STRICHPUNKT2
 62
     1
100
AcDbLine
 10
-137.12213046
 20
-569.06155158
 30
0.0
 11
-138.74586914
 21
-568.7405451
 31
0.0
  0
LINE
  5
21B
330
1E
100
AcDbEntity
  8
0
  6
STRICHPUNKT2
 62
     1
100
AcDbLine
 10
-138.03684833
 20
-568.88071561
 30
0.0
 11
-138.03684833
 21
-566.19787985
 31
0.0
  0
LINE
  5
21C
330
1E
100
AcDbEntity
  8
0
  6
STRICHPUNKT2
 62
     1
100
AcDbLine
 10
-138.03684833
 20
-568.88071561
 30
0.0
 11
-138.03684833
 21
-571.56355137
 31
0.0
  0
LINE
  5
21D
330
1E
100
AcDbEntity
  8
0
  6
STRICHPUNKT2
 62
     1
100
AcDbLine
 10
-138.03684833
 20
-568.88071561
 30
0.0
 11
-139.24912758
 21
-570.10875366
 31
0.0
  0
LINE
  5
21E
330
1E
100
AcDbEntity
  8
0
  6
STRICHPUNKT2
 62
     1
100
AcDbLine
 10
-138.03684833
 20
-568.88071561
 30
0.0
 11
-136.82456909
 21
-567.65267756
 31
0.0
  0
POLYLINE
  5
21F
330
1E
100
AcDbEntity
  8
0
100
AcDb2dPolyline
 66
     1
 10
0.0
 20
0.0
 30
0.0
  0
VERTEX
  5
220
330
21F
100
AcDbEntity
  8
0
100
AcDbVertex
100
AcDb2dVertex
 10
-48.32835353
 20
-601.2164151
 30
0.0
  0
VERTEX
  5
221
330
21F
100
AcDbEntity
  8
0
100
AcDbVertex
100
AcDb2dVertex
 10
-48.32835353
 20
-572.59950034
 30
0.0
  0
VERTEX
  5
222
330
21F
100
AcDbEntity
  8
0
100
AcDbVertex
100
AcDb2dVertex
 10
-47.03525567
 20
-571.28959309
 30
0.0
  0
SEQEND
  5
223
330
21F
100
AcDbEntity
  8
0
  0
LINE
  5
224
330
1E
100
AcDbEntity
  8
0
100
AcDbLine
 10
-47.03525567
 20
-599.90650784
 30
0.0
 11
-47.03525567
 21
-571.28959309
 31
0.0
  0
LINE
  5
225
330
1E
100
AcDbEntity
  8
0
100
AcDbLine
 10
-48.32835353
 20
-601.2164151
 30
0.0
 11
-47.03525567
 21
-599.90650784
 31
0.0
  0
POLYLINE
  5
226
330
1E
100
AcDbEntity
  8
0
100
AcDb2dPolyline
 66
     1
 10
0.0
 20
0.0
 30
0.0
  0
VERTEX
  5
227
330
226
100
AcDbEntity
  8
0
100
AcDbVertex
100
AcDb2dVertex
 10
-48.32835353
 20
-601.2164151
 30
0.0
  0
VERTEX
  5
228
330
226
100
AcDbEntity
  8
0
100
AcDbVertex
100
AcDb2dVertex
 10
-128.82352607
 20
-585.30284969
 30
0.0
  0
VERTEX
  5
229
330
226
100
AcDbEntity
  8
0
100
AcDbVertex
100
AcDb2dVertex
 10
-128.82352607
 20
-556.68593493
 30
0.0
  0
VERTEX
  5
22A
330
226
100
AcDbEntity
  8
0
100
AcDbVertex
100
AcDb2dVertex
 10
-48.32835353
 20
-572.59950034
 30
0.0
  0
SEQEND
  5
22B
330
226
100
AcDbEntity
  8
0
  0
POLYLINE
  5
22C
330
1E
100
AcDbEntity
  8
0
100
AcDb2dPolyline
 66
     1
 10
0.0
 20
0.0
 30
0.0
  0
VERTEX
  5
22D
330
22C
100
AcDbEntity
  8
0
100
AcDbVertex
100
AcDb2dVertex
 10
-128.82352607
 20
-556.68593493
 30
0.0
  0
VERTEX
  5
22E
330
22C
100
AcDbEntity
  8
0
100
AcDbVertex
100
AcDb2dVertex
 10
-127.5304282
 20
-555.37602768
 30
0.0
  0
VERTEX
  5
22F
330
22C
100
AcDbEntity
  8
0
100
AcDbVertex
100
AcDb2dVertex
 10
-47.03525567
 20
-571.28959309
 30
0.0
  0
SEQEND
  5
230
330
22C
100
AcDbEntity
  8
0
  0
POLYLINE
  5
231
330
1E
100
AcDbEntity
  8
0
100
AcDb2dPolyline
 66
     1
 10
0.0
 20
0.0
 30
0.0
  0
VERTEX
  5
232
330
231
100
AcDbEntity
  8
0
100
AcDbVertex
100
AcDb2dVertex
 10
-59.78182355
 20
-434.32376434
 30
0.0
 42
-0.414213562
  0
VERTEX
  5
233
330
231
100
AcDbEntity
  8
0
100
AcDbVertex
100
AcDb2dVertex
 10
-63.78182355
 20
-430.32376434
 30
0.0
  0
VERTEX
  5
234
330
231
100
AcDbEntity
  8
0
100
AcDbVertex
100
AcDb2dVertex
 10
-67.78182355
 20
-430.32376434
 30
0.0
  0
SEQEND
  5
235
330
231
100
AcDbEntity
  8
0
  0
ARC
  5
236
330
1E
100
AcDbEntity
  8
0
100
AcDbCircle
 10
-59.78182355
 20
-430.32376434
 30
0.0
 40
8.0
100
AcDbArc
 50
-180.0
 51
-90.0
  0
LINE
  5
237
330
1E
100
AcDbEntity
  8
0
100
AcDbLine
 10
-59.78182355
 20
-434.32376434
 30
0.0
 11
-59.78182355
 21
-438.32376434
 31
0.0
  0
POLYLINE
  5
238
330
1E
100
AcDbEntity
  8
0
100
AcDb2dPolyline
 66
     1
 10
0.0
 20
0.0
 30
0.0
  0
VERTEX
  5
239
330
238
100
AcDbEntity
  8
0
100
AcDbVertex
100
AcDb2dVertex
 10
89.71817645
 20
-434.32376434
 30
0.0
  0
VERTEX
  5
23A
330
238
100
AcDbEntity
  8
0
100
AcDbVertex
100
AcDb2dVertex
 10
-59.78182355
 20
-434.32376434
 30
0.0
  0
VERTEX
  5
23B
330
238
100
AcDbEntity
  8
0
100
AcDbVertex
100
AcDb2dVertex
 10
-59.78182355
 20
-438.32376434
 30
0.0
  0
SEQEND
  5
23C
330
238
100
AcDbEntity
  8
0
  0
LINE
  5
23D
330
1E
100
AcDbEntity
  8
0
100
AcDbLine
 10
89.71817645
 20
-438.32376434
 30
0.0
 11
-59.78182355
 21
-438.32376434
 31
0.0
  0
LINE
  5
23E
330
1E
100
AcDbEntity
  8
0
100
AcDbLine
 10
89.71817645
 20
-434.32376434
 30
0.0
 11
89.71817645
 21
-438.32376434
 31
0.0
  0
LINE
  5
23F
330
1E
100
AcDbEntity
  8
0
  6
STRICHPUNKT2
 62
     1
100
AcDbLine
 10
-45.53182355
 20
-438.32376434
 30
0.0
 11
-45.53182355
 21
-439.82376434
 31
0.0
  0
LINE
  5
240
330
1E
100
AcDbEntity
  8
0
  6
STRICHPUNKT2
 62
     1
100
AcDbLine
 10
-45.53182355
 20
-432.82376434
 30
0.0
 11
-45.53182355
 21
-434.32376434
 31
0.0
  0
LINE
  5
241
330
1E
100
AcDbEntity
  8
0
  6
STRICHPUNKT2
 62
     1
100
AcDbLine
 10
66.71817645
 20
-438.32376434
 30
0.0
 11
66.71817645
 21
-439.82376434
 31
0.0
  0
LINE
  5
242
330
1E
100
AcDbEntity
  8
0
  6
STRICHPUNKT2
 62
     1
100
AcDbLine
 10
66.71817645
 20
-432.82376434
 30
0.0
 11
66.71817645
 21
-434.32376434
 31
0.0
  0
LINE
  5
243
330
1E
100
AcDbEntity
  8
0
  6
STRICHPUNKT2
 62
     1
100
AcDbLine
 10
-14.78182355
 20
-438.32376434
 30
0.0
 11
-14.78182355
 21
-439.82376434
 31
0.0
  0
LINE
  5
244
330
1E
100
AcDbEntity
  8
0
  6
STRICHPUNKT2
 62
     1
100
AcDbLine
 10
-14.78182355
 20
-432.82376434
 30
0.0
 11
-14.78182355
 21
-434.32376434
 31
0.0
  0
LINE
  5
245
330
1E
100
AcDbEntity
  8
0
  6
STRICHPUNKT2
 62
     1
100
AcDbLine
 10
-1.78182355
 20
-438.32376434
 30
0.0
 11
-1.78182355
 21
-439.82376434
 31
0.0
  0
LINE
  5
246
330
1E
100
AcDbEntity
  8
0
  6
STRICHPUNKT2
 62
     1
100
AcDbLine
 10
-1.78182355
 20
-432.82376434
 30
0.0
 11
-1.78182355
 21
-434.32376434
 31
0.0
  0
POLYLINE
  5
247
330
1E
100
AcDbEntity
  8
0
100
AcDb2dPolyline
 66
     1
 10
0.0
 20
0.0
 30
0.0
  0
VERTEX
  5
248
330
247
100
AcDbEntity
  8
0
100
AcDbVertex
100
AcDb2dVertex
 10
-63.78182355
 20
-430.32376434
 30
0.0
  0
VERTEX
  5
249
330
247
100
AcDbEntity
  8
0
100
AcDbVertex
100
AcDb2dVertex
 10
-63.78182355
 20
-388.32376434
 30
0.0
  0
VERTEX
  5
24A
330
247
100
AcDbEntity
  8
0
100
AcDbVertex
100
AcDb2dVertex
 10
-67.78182355
 20
-388.32376434
 30
0.0
  0
SEQEND
  5
24B
330
247
100
AcDbEntity
  8
0
  0
LINE
  5
24C
330
1E
100
AcDbEntity
  8
0
100
AcDbLine
 10
-67.78182355
 20
-430.32376434
 30
0.0
 11
-67.78182355
 21
-388.32376434
 31
0.0
  0
LINE
  5
24D
330
1E
100
AcDbEntity
  8
0
100
AcDbLine
 10
-63.78182355
 20
-430.32376434
 30
0.0
 11
-67.78182355
 21
-430.32376434
 31
0.0
  0
LINE
  5
24E
330
1E
100
AcDbEntity
  8
0
  6
STRICHPUNKT2
 62
     1
100
AcDbLine
 10
-67.78182355
 20
-405.82376434
 30
0.0
 11
-69.28182355
 21
-405.82376434
 31
0.0
  0
LINE
  5
24F
330
1E
100
AcDbEntity
  8
0
  6
STRICHPUNKT2
 62
     1
100
AcDbLine
 10
-62.28182355
 20
-405.82376434
 30
0.0
 11
-63.78182355
 21
-405.82376434
 31
0.0
  0
LINE
  5
250
330
1E
100
AcDbEntity
  8
0
  6
STRICHPUNKT2
 62
     1
100
AcDbLine
 10
-67.78182355
 20
-403.32376434
 30
0.0
 11
-69.03182355
 21
-403.32376434
 31
0.0
  0
LINE
  5
251
330
1E
100
AcDbEntity
  8
0
  6
STRICHPUNKT2
 62
     1
100
AcDbLine
 10
-62.53182355
 20
-403.32376434
 30
0.0
 11
-63.78182355
 21
-403.32376434
 31
0.0
  0
POLYLINE
  5
252
330
1E
100
AcDbEntity
  8
0
100
AcDb2dPolyline
 66
     1
 10
0.0
 20
0.0
 30
0.0
  0
VERTEX
  5
253
330
252
100
AcDbEntity
  8
0
100
AcDbVertex
100
AcDb2dVertex
 10
-23.28182355
 20
-434.32376434
 30
0.0
  0
VERTEX
  5
254
330
252
100
AcDbEntity
  8
0
100
AcDbVertex
100
AcDb2dVertex
 10
-23.28182355
 20
-388.32376434
 30
0.0
  0
VERTEX
  5
255
330
252
100
AcDbEntity
  8
0
100
AcDbVertex
100
AcDb2dVertex
 10
-27.28182355
 20
-388.32376434
 30
0.0
  0
SEQEND
  5
256
330
252
100
AcDbEntity
  8
0
  0
LINE
  5
257
330
1E
100
AcDbEntity
  8
0
100
AcDbLine
 10
-27.28182355
 20
-434.32376434
 30
0.0
 11
-27.28182355
 21
-388.32376434
 31
0.0
  0
LINE
  5
258
330
1E
100
AcDbEntity
  8
0
100
AcDbLine
 10
-23.28182355
 20
-434.32376434
 30
0.0
 11
-27.28182355
 21
-434.32376434
 31
0.0
  0
LINE
  5
259
330
1E
100
AcDbEntity
  8
0
  6
STRICHPUNKT2
 62
     1
100
AcDbLine
 10
-27.28182355
 20
-405.82376434
 30
0.0
 11
-29.03182355
 21
-405.82376434
 31
0.0
  0
LINE
  5
25A
330
1E
100
AcDbEntity
  8
0
  6
STRICHPUNKT2
 62
     1
100
AcDbLine
 10
-21.53182355
 20
-405.82376434
 30
0.0
 11
-23.28182355
 21
-405.82376434
 31
0.0
  0
LINE
  5
25B
330
1E
100
AcDbEntity
  8
0
  6
STRICHPUNKT2
 62
     1
100
AcDbLine
 10
-27.28182355
 20
-398.32376434
 30
0.0
 11
-28.53182355
 21
-398.32376434
 31
0.0
  0
LINE
  5
25C
330
1E
100
AcDbEntity
  8
0
  6
STRICHPUNKT2
 62
     1
100
AcDbLine
 10
-22.03182355
 20
-398.32376434
 30
0.0
 11
-23.28182355
 21
-398.32376434
 31
0.0
  0
LINE
  5
25D
330
1E
100
AcDbEntity
  8
0
100
AcDbLine
 10
-23.28182355
 20
-394.32376434
 30
0.0
 11
86.71817645
 21
-394.32376434
 31
0.0
  0
LINE
  5
25E
330
1E
100
AcDbEntity
  8
0
100
AcDbLine
 10
86.71817645
 20
-434.32376434
 30
0.0
 11
86.71817645
 21
-394.32376434
 31
0.0
  0
POLYLINE
  5
25F
330
1E
100
AcDbEntity
  8
0
100
AcDb2dPolyline
 66
     1
 10
0.0
 20
0.0
 30
0.0
  0
VERTEX
  5
260
330
25F
100
AcDbEntity
  8
0
100
AcDbVertex
100
AcDb2dVertex
 10
86.71817645
 20
-434.32376434
 30
0.0
  0
VERTEX
  5
261
330
25F
100
AcDbEntity
  8
0
100
AcDbVertex
100
AcDb2dVertex
 10
-23.28182355
 20
-434.32376434
 30
0.0
  0
VERTEX
  5
262
330
25F
100
AcDbEntity
  8
0
100
AcDbVertex
100
AcDb2dVertex
 10
-23.28182355
 20
-394.32376434
 30
0.0
  0
SEQEND
  5
263
330
25F
100
AcDbEntity
  8
0
  0
LINE
  5
264
330
1E
100
AcDbEntity
  8
0
100
AcDbLine
 10
-156.64000198
 20
-430.32376434
 30
0.0
 11
-116.64000198
 21
-430.32376434
 31
0.0
  0
LINE
  5
265
330
1E
100
AcDbEntity
  8
0
100
AcDbLine
 10
-116.64000198
 20
-438.32376434
 30
0.0
 11
-116.64000198
 21
-430.32376434
 31
0.0
  0
LINE
  5
266
330
1E
100
AcDbEntity
  8
0
100
AcDbLine
 10
-156.64000198
 20
-438.32376434
 30
0.0
 11
-116.64000198
 21
-438.32376434
 31
0.0
  0
LINE
  5
267
330
1E
100
AcDbEntity
  8
0
100
AcDbLine
 10
-156.64000198
 20
-430.32376434
 30
0.0
 11
-156.64000198
 21
-438.32376434
 31
0.0
  0
LINE
  5
268
330
1E
100
AcDbEntity
  8
0
100
AcDbLine
 10
-156.64000198
 20
-438.32376434
 30
0.0
 11
-116.64000198
 21
-438.32376434
 31
0.0
  0
LINE
  5
269
330
1E
100
AcDbEntity
  8
0
  6
STRICHPUNKT2
 62
     1
100
AcDbLine
 10
-136.64000198
 20
-438.32376434
 30
0.0
 11
-136.64000198
 21
-439.82376434
 31
0.0
  0
CIRCLE
  5
26A
330
1E
100
AcDbEntity
  8
0
100
AcDbCircle
 10
-149.14000198
 20
-403.32376434
 30
0.0
 40
2.5
  0
CIRCLE
  5
26B
330
1E
100
AcDbEntity
  8
0
100
AcDbCircle
 10
-136.64000198
 20
-405.82376434
 30
0.0
 40
3.5
  0
LINE
  5
26C
330
1E
100
AcDbEntity
  8
0
100
AcDbLine
 10
-156.64000198
 20
-388.32376434
 30
0.0
 11
-116.64000198
 21
-388.32376434
 31
0.0
  0
LINE
  5
26D
330
1E
100
AcDbEntity
  8
0
100
AcDbLine
 10
-116.64000198
 20
-430.32376434
 30
0.0
 11
-116.64000198
 21
-388.32376434
 31
0.0
  0
LINE
  5
26E
330
1E
100
AcDbEntity
  8
0
100
AcDbLine
 10
-156.64000198
 20
-430.32376434
 30
0.0
 11
-116.64000198
 21
-430.32376434
 31
0.0
  0
LINE
  5
26F
330
1E
100
AcDbEntity
  8
0
100
AcDbLine
 10
-156.64000198
 20
-388.32376434
 30
0.0
 11
-156.64000198
 21
-430.32376434
 31
0.0
  0
LINE
  5
270
330
1E
100
AcDbEntity
  8
0
  6
STRICHPUNKT2
 62
     1
100
AcDbLine
 10
-136.64000198
 20
-405.82376434
 30
0.0
 11
-136.64000198
 21
-410.82376434
 31
0.0
  0
LINE
  5
271
330
1E
100
AcDbEntity
  8
0
  6
STRICHPUNKT2
 62
     1
100
AcDbLine
 10
-136.64000198
 20
-405.82376434
 30
0.0
 11
-136.64000198
 21
-400.82376434
 31
0.0
  0
LINE
  5
272
330
1E
100
AcDbEntity
  8
0
  6
STRICHPUNKT2
 62
     1
100
AcDbLine
 10
-136.64000198
 20
-405.82376434
 30
0.0
 11
-141.64000198
 21
-405.82376434
 31
0.0
  0
LINE
  5
273
330
1E
100
AcDbEntity
  8
0
  6
STRICHPUNKT2
 62
     1
100
AcDbLine
 10
-136.64000198
 20
-405.82376434
 30
0.0
 11
-131.64000198
 21
-405.82376434
 31
0.0
  0
LINE
  5
274
330
1E
100
AcDbEntity
  8
0
  6
STRICHPUNKT2
 62
     1
100
AcDbLine
 10
-149.14000198
 20
-403.32376434
 30
0.0
 11
-149.14000198
 21
-407.07376434
 31
0.0
  0
LINE
  5
275
330
1E
100
AcDbEntity
  8
0
  6
STRICHPUNKT2
 62
     1
100
AcDbLine
 10
-149.14000198
 20
-403.32376434
 30
0.0
 11
-149.14000198
 21
-399.57376434
 31
0.0
  0
LINE
  5
276
330
1E
100
AcDbEntity
  8
0
  6
STRICHPUNKT2
 62
     1
100
AcDbLine
 10
-149.14000198
 20
-403.32376434
 30
0.0
 11
-152.89000198
 21
-403.32376434
 31
0.0
  0
LINE
  5
277
330
1E
100
AcDbEntity
  8
0
  6
STRICHPUNKT2
 62
     1
100
AcDbLine
 10
-149.14000198
 20
-403.32376434
 30
0.0
 11
-145.39000198
 21
-403.32376434
 31
0.0
  0
POLYLINE
  5
278
330
1E
100
AcDbEntity
  8
0
100
AcDb2dPolyline
 66
     1
 10
0.0
 20
0.0
 30
0.0
  0
VERTEX
  5
279
330
278
100
AcDbEntity
  8
0
100
AcDbVertex
100
AcDb2dVertex
 10
165.78708586
 20
-434.32376434
 30
0.0
  0
VERTEX
  5
27A
330
278
100
AcDbEntity
  8
0
100
AcDbVertex
100
AcDb2dVertex
 10
125.78708586
 20
-434.32376434
 30
0.0
  0
VERTEX
  5
27B
330
278
100
AcDbEntity
  8
0
100
AcDbVertex
100
AcDb2dVertex
 10
125.78708586
 20
-438.32376434
 30
0.0
  0
SEQEND
  5
27C
330
278
100
AcDbEntity
  8
0
  0
LINE
  5
27D
330
1E
100
AcDbEntity
  8
0
100
AcDbLine
 10
165.78708586
 20
-438.32376434
 30
0.0
 11
125.78708586
 21
-438.32376434
 31
0.0
  0
LINE
  5
27E
330
1E
100
AcDbEntity
  8
0
100
AcDbLine
 10
165.78708586
 20
-434.32376434
 30
0.0
 11
165.78708586
 21
-438.32376434
 31
0.0
  0
LINE
  5
27F
330
1E
100
AcDbEntity
  8
0
  6
STRICHPUNKT2
 62
     1
100
AcDbLine
 10
145.78708586
 20
-438.32376434
 30
0.0
 11
145.78708586
 21
-439.82376434
 31
0.0
  0
LINE
  5
280
330
1E
100
AcDbEntity
  8
0
  6
STRICHPUNKT2
 62
     1
100
AcDbLine
 10
145.78708586
 20
-432.82376434
 30
0.0
 11
145.78708586
 21
-434.32376434
 31
0.0
  0
CIRCLE
  5
281
330
1E
100
AcDbEntity
  8
0
100
AcDbCircle
 10
133.28708586
 20
-398.32376434
 30
0.0
 40
2.5
  0
CIRCLE
  5
282
330
1E
100
AcDbEntity
  8
0
100
AcDbCircle
 10
145.78708586
 20
-405.82376434
 30
0.0
 40
3.5
  0
LINE
  5
283
330
1E
100
AcDbEntity
  8
0
100
AcDbLine
 10
125.78708586
 20
-434.32376434
 30
0.0
 11
125.78708586
 21
-388.32376434
 31
0.0
  0
LINE
  5
284
330
1E
100
AcDbEntity
  8
0
100
AcDbLine
 10
165.78708586
 20
-388.32376434
 30
0.0
 11
125.78708586
 21
-388.32376434
 31
0.0
  0
LINE
  5
285
330
1E
100
AcDbEntity
  8
0
100
AcDbLine
 10
165.78708586
 20
-388.32376434
 30
0.0
 11
165.78708586
 21
-394.32376434
 31
0.0
  0
LINE
  5
286
330
1E
100
AcDbEntity
  8
0
100
AcDbLine
 10
161.78708586
 20
-434.32376434
 30
0.0
 11
125.78708586
 21
-434.32376434
 31
0.0
  0
LINE
  5
287
330
1E
100
AcDbEntity
  8
0
  6
STRICHPUNKT2
 62
     1
100
AcDbLine
 10
145.78708586
 20
-405.82376434
 30
0.0
 11
145.78708586
 21
-400.57376434
 31
0.0
  0
LINE
  5
288
330
1E
100
AcDbEntity
  8
0
  6
STRICHPUNKT2
 62
     1
100
AcDbLine
 10
145.78708586
 20
-405.82376434
 30
0.0
 11
145.78708586
 21
-411.07376434
 31
0.0
  0
LINE
  5
289
330
1E
100
AcDbEntity
  8
0
  6
STRICHPUNKT2
 62
     1
100
AcDbLine
 10
145.78708586
 20
-405.82376434
 30
0.0
 11
140.53708586
 21
-405.82376434
 31
0.0
  0
LINE
  5
28A
330
1E
100
AcDbEntity
  8
0
  6
STRICHPUNKT2
 62
     1
100
AcDbLine
 10
145.78708586
 20
-405.82376434
 30
0.0
 11
151.03708586
 21
-405.82376434
 31
0.0
  0
LINE
  5
28B
330
1E
100
AcDbEntity
  8
0
  6
STRICHPUNKT2
 62
     1
100
AcDbLine
 10
133.28708586
 20
-398.32376434
 30
0.0
 11
133.28708586
 21
-394.57376434
 31
0.0
  0
LINE
  5
28C
330
1E
100
AcDbEntity
  8
0
  6
STRICHPUNKT2
 62
     1
100
AcDbLine
 10
133.28708586
 20
-398.32376434
 30
0.0
 11
133.28708586
 21
-402.07376434
 31
0.0
  0
LINE
  5
28D
330
1E
100
AcDbEntity
  8
0
  6
STRICHPUNKT2
 62
     1
100
AcDbLine
 10
133.28708586
 20
-398.32376434
 30
0.0
 11
129.53708586
 21
-398.32376434
 31
0.0
  0
LINE
  5
28E
330
1E
100
AcDbEntity
  8
0
  6
STRICHPUNKT2
 62
     1
100
AcDbLine
 10
133.28708586
 20
-398.32376434
 30
0.0
 11
137.03708586
 21
-398.32376434
 31
0.0
  0
POLYLINE
  5
28F
330
1E
100
AcDbEntity
  8
0
100
AcDb2dPolyline
 66
     1
 10
0.0
 20
0.0
 30
0.0
  0
VERTEX
  5
290
330
28F
100
AcDbEntity
  8
0
100
AcDbVertex
100
AcDb2dVertex
 10
161.78708586
 20
-434.32376434
 30
0.0
  0
VERTEX
  5
291
330
28F
100
AcDbEntity
  8
0
100
AcDbVertex
100
AcDb2dVertex
 10
161.78708586
 20
-394.32376434
 30
0.0
  0
VERTEX
  5
292
330
28F
100
AcDbEntity
  8
0
100
AcDbVertex
100
AcDb2dVertex
 10
165.78708586
 20
-394.32376434
 30
0.0
  0
SEQEND
  5
293
330
28F
100
AcDbEntity
  8
0
  0
LINE
  5
294
330
1E
100
AcDbEntity
  8
0
100
AcDbLine
 10
165.78708586
 20
-434.32376434
 30
0.0
 11
165.78708586
 21
-394.32376434
 31
0.0
  0
LINE
  5
295
330
1E
100
AcDbEntity
  8
0
100
AcDbLine
 10
161.78708586
 20
-434.32376434
 30
0.0
 11
165.78708586
 21
-434.32376434
 31
0.0
  0
POLYLINE
  5
296
330
1E
100
AcDbEntity
  8
0
100
AcDb2dPolyline
 66
     1
 10
0.0
 20
0.0
 30
0.0
  0
VERTEX
  5
297
330
296
100
AcDbEntity
  8
0
100
AcDbVertex
100
AcDb2dVertex
 10
-63.78182355
 20
-472.23474712
 30
0.0
  0
VERTEX
  5
298
330
296
100
AcDbEntity
  8
0
100
AcDbVertex
100
AcDb2dVertex
 10
-59.78182355
 20
-472.23474712
 30
0.0
  0
VERTEX
  5
299
330
296
100
AcDbEntity
  8
0
100
AcDbVertex
100
AcDb2dVertex
 10
-59.78182355
 20
-512.23474712
 30
0.0
  0
VERTEX
  5
29A
330
296
100
AcDbEntity
  8
0
100
AcDbVertex
100
AcDb2dVertex
 10
-63.78182355
 20
-512.23474712
 30
0.0
  0
SEQEND
  5
29B
330
296
100
AcDbEntity
  8
0
  0
POLYLINE
  5
29C
330
1E
100
AcDbEntity
  8
0
100
AcDb2dPolyline
 66
     1
 10
0.0
 20
0.0
 30
0.0
 70
     1
  0
VERTEX
  5
29D
330
29C
100
AcDbEntity
  8
0
100
AcDbVertex
100
AcDb2dVertex
 10
-14.78182355
 20
-495.73474712
 30
0.0
 42
-1.0
  0
VERTEX
  5
29E
330
29C
100
AcDbEntity
  8
0
100
AcDbVertex
100
AcDb2dVertex
 10
-14.78182355
 20
-488.73474712
 30
0.0
  0
VERTEX
  5
29F
330
29C
100
AcDbEntity
  8
0
100
AcDbVertex
100
AcDb2dVertex
 10
-1.78182355
 20
-488.73474712
 30
0.0
 42
-1.0
  0
VERTEX
  5
2A0
330
29C
100
AcDbEntity
  8
0
100
AcDbVertex
100
AcDb2dVertex
 10
-1.78182355
 20
-495.73474712
 30
0.0
  0
SEQEND
  5
2A1
330
29C
100
AcDbEntity
  8
0
  0
CIRCLE
  5
2A2
330
1E
100
AcDbEntity
  8
0
100
AcDbCircle
 10
66.71817645
 20
-492.23474712
 30
0.0
 40
3.5
  0
CIRCLE
  5
2A3
330
1E
100
AcDbEntity
  8
0
100
AcDbCircle
 10
-45.53182355
 20
-492.23474712
 30
0.0
 40
3.5
  0
LINE
  5
2A4
330
1E
100
AcDbEntity
  8
0
100
AcDbLine
 10
-27.28182355
 20
-512.23474712
 30
0.0
 11
-59.78182355
 21
-512.23474712
 31
0.0
  0
LINE
  5
2A5
330
1E
100
AcDbEntity
  8
0
100
AcDbLine
 10
89.71817645
 20
-512.23474712
 30
0.0
 11
-23.28182355
 21
-512.23474712
 31
0.0
  0
LINE
  5
2A6
330
1E
100
AcDbEntity
  8
0
100
AcDbLine
 10
-59.78182355
 20
-472.23474712
 30
0.0
 11
-59.78182355
 21
-512.23474712
 31
0.0
  0
LINE
  5
2A7
330
1E
100
AcDbEntity
  8
0
100
AcDbLine
 10
86.71817645
 20
-472.23474712
 30
0.0
 11
89.71817645
 21
-472.23474712
 31
0.0
  0
LINE
  5
2A8
330
1E
100
AcDbEntity
  8
0
100
AcDbLine
 10
-59.78182355
 20
-472.23474712
 30
0.0
 11
-27.28182355
 21
-472.23474712
 31
0.0
  0
LINE
  5
2A9
330
1E
100
AcDbEntity
  8
0
100
AcDbLine
 10
89.71817645
 20
-472.23474712
 30
0.0
 11
89.71817645
 21
-512.23474712
 31
0.0
  0
LINE
  5
2AA
330
1E
100
AcDbEntity
  8
0
  6
STRICHPUNKT2
 62
     1
100
AcDbLine
 10
-45.53182355
 20
-492.23474712
 30
0.0
 11
-40.53182355
 21
-492.23474712
 31
0.0
  0
LINE
  5
2AB
330
1E
100
AcDbEntity
  8
0
  6
STRICHPUNKT2
 62
     1
100
AcDbLine
 10
-45.53182355
 20
-492.23474712
 30
0.0
 11
-50.53182355
 21
-492.23474712
 31
0.0
  0
LINE
  5
2AC
330
1E
100
AcDbEntity
  8
0
  6
STRICHPUNKT2
 62
     1
100
AcDbLine
 10
-45.53182355
 20
-492.23474712
 30
0.0
 11
-45.53182355
 21
-487.23474712
 31
0.0
  0
LINE
  5
2AD
330
1E
100
AcDbEntity
  8
0
  6
STRICHPUNKT2
 62
     1
100
AcDbLine
 10
-45.53182355
 20
-492.23474712
 30
0.0
 11
-45.53182355
 21
-497.23474712
 31
0.0
  0
LINE
  5
2AE
330
1E
100
AcDbEntity
  8
0
  6
STRICHPUNKT2
 62
     1
100
AcDbLine
 10
66.71817645
 20
-492.23474712
 30
0.0
 11
71.71817645
 21
-492.23474712
 31
0.0
  0
LINE
  5
2AF
330
1E
100
AcDbEntity
  8
0
  6
STRICHPUNKT2
 62
     1
100
AcDbLine
 10
66.71817645
 20
-492.23474712
 30
0.0
 11
61.71817645
 21
-492.23474712
 31
0.0
  0
LINE
  5
2B0
330
1E
100
AcDbEntity
  8
0
  6
STRICHPUNKT2
 62
     1
100
AcDbLine
 10
66.71817645
 20
-492.23474712
 30
0.0
 11
66.71817645
 21
-487.23474712
 31
0.0
  0
LINE
  5
2B1
330
1E
100
AcDbEntity
  8
0
  6
STRICHPUNKT2
 62
     1
100
AcDbLine
 10
66.71817645
 20
-492.23474712
 30
0.0
 11
66.71817645
 21
-497.23474712
 31
0.0
  0
LINE
  5
2B2
330
1E
100
AcDbEntity
  8
0
  6
STRICHPUNKT2
 62
     1
100
AcDbLine
 10
-19.78182355
 20
-492.23474712
 30
0.0
 11
3.21817645
 21
-492.23474712
 31
0.0
  0
LINE
  5
2B3
330
1E
100
AcDbEntity
  8
0
  6
STRICHPUNKT2
 62
     1
100
AcDbLine
 10
-14.78182355
 20
-497.23474712
 30
0.0
 11
-14.78182355
 21
-487.23474712
 31
0.0
  0
LINE
  5
2B4
330
1E
100
AcDbEntity
  8
0
  6
STRICHPUNKT2
 62
     1
100
AcDbLine
 10
-1.78182355
 20
-497.23474712
 30
0.0
 11
-1.78182355
 21
-487.23474712
 31
0.0
  0
POLYLINE
  5
2B5
330
1E
100
AcDbEntity
  8
0
100
AcDb2dPolyline
 66
     1
 10
0.0
 20
0.0
 30
0.0
  0
VERTEX
  5
2B6
330
2B5
100
AcDbEntity
  8
0
100
AcDbVertex
100
AcDb2dVertex
 10
-63.78182355
 20
-472.23474712
 30
0.0
  0
VERTEX
  5
2B7
330
2B5
100
AcDbEntity
  8
0
100
AcDbVertex
100
AcDb2dVertex
 10
-63.78182355
 20
-512.23474712
 30
0.0
  0
VERTEX
  5
2B8
330
2B5
100
AcDbEntity
  8
0
100
AcDbVertex
100
AcDb2dVertex
 10
-67.78182355
 20
-512.23474712
 30
0.0
  0
SEQEND
  5
2B9
330
2B5
100
AcDbEntity
  8
0
  0
LINE
  5
2BA
330
1E
100
AcDbEntity
  8
0
100
AcDbLine
 10
-67.78182355
 20
-472.23474712
 30
0.0
 11
-67.78182355
 21
-512.23474712
 31
0.0
  0
LINE
  5
2BB
330
1E
100
AcDbEntity
  8
0
100
AcDbLine
 10
-63.78182355
 20
-472.23474712
 30
0.0
 11
-67.78182355
 21
-472.23474712
 31
0.0
  0
LINE
  5
2BC
330
1E
100
AcDbEntity
  8
0
  6
STRICHPUNKT2
 62
     1
100
AcDbLine
 10
-67.78182355
 20
-492.23474712
 30
0.0
 11
-69.28182355
 21
-492.23474712
 31
0.0
  0
LINE
  5
2BD
330
1E
100
AcDbEntity
  8
0
  6
STRICHPUNKT2
 62
     1
100
AcDbLine
 10
-62.28182355
 20
-492.23474712
 30
0.0
 11
-63.78182355
 21
-492.23474712
 31
0.0
  0
LINE
  5
2BE
330
1E
100
AcDbEntity
  8
0
  6
STRICHPUNKT2
 62
     1
100
AcDbLine
 10
-67.78182355
 20
-479.73474712
 30
0.0
 11
-69.03182355
 21
-479.73474712
 31
0.0
  0
LINE
  5
2BF
330
1E
100
AcDbEntity
  8
0
  6
STRICHPUNKT2
 62
     1
100
AcDbLine
 10
-62.53182355
 20
-479.73474712
 30
0.0
 11
-63.78182355
 21
-479.73474712
 31
0.0
  0
POLYLINE
  5
2C0
330
1E
100
AcDbEntity
  8
0
100
AcDb2dPolyline
 66
     1
 10
0.0
 20
0.0
 30
0.0
  0
VERTEX
  5
2C1
330
2C0
100
AcDbEntity
  8
0
100
AcDbVertex
100
AcDb2dVertex
 10
-23.28182355
 20
-472.23474712
 30
0.0
  0
VERTEX
  5
2C2
330
2C0
100
AcDbEntity
  8
0
100
AcDbVertex
100
AcDb2dVertex
 10
-23.28182355
 20
-512.23474712
 30
0.0
  0
VERTEX
  5
2C3
330
2C0
100
AcDbEntity
  8
0
100
AcDbVertex
100
AcDb2dVertex
 10
-27.28182355
 20
-512.23474712
 30
0.0
  0
SEQEND
  5
2C4
330
2C0
100
AcDbEntity
  8
0
  0
LINE
  5
2C5
330
1E
100
AcDbEntity
  8
0
100
AcDbLine
 10
-27.28182355
 20
-472.23474712
 30
0.0
 11
-27.28182355
 21
-512.23474712
 31
0.0
  0
LINE
  5
2C6
330
1E
100
AcDbEntity
  8
0
100
AcDbLine
 10
-23.28182355
 20
-472.23474712
 30
0.0
 11
-27.28182355
 21
-472.23474712
 31
0.0
  0
LINE
  5
2C7
330
1E
100
AcDbEntity
  8
0
  6
STRICHPUNKT2
 62
     1
100
AcDbLine
 10
-27.28182355
 20
-492.23474712
 30
0.0
 11
-29.03182355
 21
-492.23474712
 31
0.0
  0
LINE
  5
2C8
330
1E
100
AcDbEntity
  8
0
  6
STRICHPUNKT2
 62
     1
100
AcDbLine
 10
-21.53182355
 20
-492.23474712
 30
0.0
 11
-23.28182355
 21
-492.23474712
 31
0.0
  0
LINE
  5
2C9
330
1E
100
AcDbEntity
  8
0
  6
STRICHPUNKT2
 62
     1
100
AcDbLine
 10
-27.28182355
 20
-504.73474712
 30
0.0
 11
-28.53182355
 21
-504.73474712
 31
0.0
  0
LINE
  5
2CA
330
1E
100
AcDbEntity
  8
0
  6
STRICHPUNKT2
 62
     1
100
AcDbLine
 10
-22.03182355
 20
-504.73474712
 30
0.0
 11
-23.28182355
 21
-504.73474712
 31
0.0
  0
POLYLINE
  5
2CB
330
1E
100
AcDbEntity
  8
0
100
AcDb2dPolyline
 66
     1
 10
0.0
 20
0.0
 30
0.0
  0
VERTEX
  5
2CC
330
2CB
100
AcDbEntity
  8
0
100
AcDbVertex
100
AcDb2dVertex
 10
-23.28182355
 20
-476.23474712
 30
0.0
  0
VERTEX
  5
2CD
330
2CB
100
AcDbEntity
  8
0
100
AcDbVertex
100
AcDb2dVertex
 10
86.71817645
 20
-476.23474712
 30
0.0
  0
VERTEX
  5
2CE
330
2CB
100
AcDbEntity
  8
0
100
AcDbVertex
100
AcDb2dVertex
 10
86.71817645
 20
-472.23474712
 30
0.0
  0
SEQEND
  5
2CF
330
2CB
100
AcDbEntity
  8
0
  0
LINE
  5
2D0
330
1E
100
AcDbEntity
  8
0
100
AcDbLine
 10
-23.28182355
 20
-472.23474712
 30
0.0
 11
86.71817645
 21
-472.23474712
 31
0.0
  0
LINE
  5
2D1
330
1E
100
AcDbEntity
  8
0
100
AcDbLine
 10
-23.28182355
 20
-476.23474712
 30
0.0
 11
-23.28182355
 21
-472.23474712
 31
0.0
  0
TEXT
  5
2D2
330
1E
100
AcDbEntity
  8
TXT_DIM49
100
AcDbText
 10
-66.7092757
 20
-380.34199213
 30
0.0
 40
2.5
  1
8
  7
ARIAL
100
AcDbText
  0
LINE
  5
2D3
330
1E
100
AcDbEntity
  8
0
 62
     4
100
AcDbLine
 10
-66.78182355
 20
-380.84199213
 30
0.0
 11
-68.78182355
 21
-382.84199213
 31
0.0
  0
LINE
  5
2D4
330
1E
100
AcDbEntity
  8
0
 62
     4
100
AcDbLine
 10
-64.53182355
 20
-382.59199213
 30
0.0
 11
-63.03182355
 21
-381.09199213
 31
0.0
  0
LINE
  5
2D5
330
1E
100
AcDbEntity
  8
0
 62
     4
100
AcDbLine
 10
-67.78182355
 20
-381.84199213
 30
0.0
 11
-63.78182355
 21
-381.84199213
 31
0.0
  0
LINE
  5
2D6
330
1E
100
AcDbEntity
  8
0
 62
     4
100
AcDbLine
 10
-67.78182355
 20
-383.84199213
 30
0.0
 11
-67.78182355
 21
-379.84199213
 31
0.0
  0
LINE
  5
2D7
330
1E
100
AcDbEntity
  8
0
 62
     4
100
AcDbLine
 10
-63.78182355
 20
-383.84199213
 30
0.0
 11
-63.78182355
 21
-379.84199213
 31
0.0
  0
TEXT
  5
2D8
330
1E
100
AcDbEntity
  8
TXT_DIM49
100
AcDbText
 10
-47.38672784
 20
-380.34199213
 30
0.0
 40
2.5
  1
73
  7
ARIAL
100
AcDbText
  0
LINE
  5
2D9
330
1E
100
AcDbEntity
  8
0
 62
     4
100
AcDbLine
 10
-62.78182355
 20
-380.84199213
 30
0.0
 11
-64.78182355
 21
-382.84199213
 31
0.0
  0
LINE
  5
2DA
330
1E
100
AcDbEntity
  8
0
 62
     4
100
AcDbLine
 10
-28.03182355
 20
-382.59199213
 30
0.0
 11
-26.53182355
 21
-381.09199213
 31
0.0
  0
LINE
  5
2DB
330
1E
100
AcDbEntity
  8
0
 62
     4
100
AcDbLine
 10
-63.78182355
 20
-381.84199213
 30
0.0
 11
-27.28182355
 21
-381.84199213
 31
0.0
  0
LINE
  5
2DC
330
1E
100
AcDbEntity
  8
0
 62
     4
100
AcDbLine
 10
-63.78182355
 20
-383.84199213
 30
0.0
 11
-63.78182355
 21
-379.84199213
 31
0.0
  0
LINE
  5
2DD
330
1E
100
AcDbEntity
  8
0
 62
     4
100
AcDbLine
 10
-27.28182355
 20
-383.84199213
 30
0.0
 11
-27.28182355
 21
-379.84199213
 31
0.0
  0
TEXT
  5
2DE
330
1E
100
AcDbEntity
  8
TXT_DIM49
100
AcDbText
 10
-26.2092757
 20
-380.34199213
 30
0.0
 40
2.5
  1
8
  7
ARIAL
100
AcDbText
  0
LINE
  5
2DF
330
1E
100
AcDbEntity
  8
0
 62
     4
100
AcDbLine
 10
-26.28182355
 20
-380.84199213
 30
0.0
 11
-28.28182355
 21
-382.84199213
 31
0.0
  0
LINE
  5
2E0
330
1E
100
AcDbEntity
  8
0
 62
     4
100
AcDbLine
 10
-24.03182355
 20
-382.59199213
 30
0.0
 11
-22.53182355
 21
-381.09199213
 31
0.0
  0
LINE
  5
2E1
330
1E
100
AcDbEntity
  8
0
 62
     4
100
AcDbLine
 10
-27.28182355
 20
-381.84199213
 30
0.0
 11
-23.28182355
 21
-381.84199213
 31
0.0
  0
LINE
  5
2E2
330
1E
100
AcDbEntity
  8
0
 62
     4
100
AcDbLine
 10
-27.28182355
 20
-383.84199213
 30
0.0
 11
-27.28182355
 21
-379.84199213
 31
0.0
  0
LINE
  5
2E3
330
1E
100
AcDbEntity
  8
0
 62
     4
100
AcDbLine
 10
-23.28182355
 20
-383.84199213
 30
0.0
 11
-23.28182355
 21
-379.84199213
 31
0.0
  0
TEXT
  5
2E4
330
1E
100
AcDbEntity
  8
TXT_DIM49
100
AcDbText
 10
28.93581995
 20
-380.34199213
 30
0.0
 40
2.5
  1
220
  7
ARIAL
100
AcDbText
  0
LINE
  5
2E5
330
1E
100
AcDbEntity
  8
0
 62
     4
100
AcDbLine
 10
-22.28182355
 20
-380.84199213
 30
0.0
 11
-24.28182355
 21
-382.84199213
 31
0.0
  0
LINE
  5
2E6
330
1E
100
AcDbEntity
  8
0
 62
     4
100
AcDbLine
 10
85.96817645
 20
-382.59199213
 30
0.0
 11
87.46817645
 21
-381.09199213
 31
0.0
  0
LINE
  5
2E7
330
1E
100
AcDbEntity
  8
0
 62
     4
100
AcDbLine
 10
-23.28182355
 20
-381.84199213
 30
0.0
 11
86.71817645
 21
-381.84199213
 31
0.0
  0
LINE
  5
2E8
330
1E
100
AcDbEntity
  8
0
 62
     4
100
AcDbLine
 10
-23.28182355
 20
-383.84199213
 30
0.0
 11
-23.28182355
 21
-379.84199213
 31
0.0
  0
LINE
  5
2E9
330
1E
100
AcDbEntity
  8
0
 62
     4
100
AcDbLine
 10
86.71817645
 20
-383.84199213
 30
0.0
 11
86.71817645
 21
-379.84199213
 31
0.0
  0
TEXT
  5
2EA
330
1E
100
AcDbEntity
  8
TXT_DIM49
100
AcDbText
 10
87.2907243
 20
-380.34199213
 30
0.0
 40
2.5
  1
6
  7
ARIAL
100
AcDbText
  0
LINE
  5
2EB
330
1E
100
AcDbEntity
  8
0
 62
     4
100
AcDbLine
 10
87.71817645
 20
-380.84199213
 30
0.0
 11
85.71817645
 21
-382.84199213
 31
0.0
  0
LINE
  5
2EC
330
1E
100
AcDbEntity
  8
0
 62
     4
100
AcDbLine
 10
88.96817645
 20
-382.59199213
 30
0.0
 11
90.46817645
 21
-381.09199213
 31
0.0
  0
LINE
  5
2ED
330
1E
100
AcDbEntity
  8
0
 62
     4
100
AcDbLine
 10
86.71817645
 20
-381.84199213
 30
0.0
 11
89.71817645
 21
-381.84199213
 31
0.0
  0
LINE
  5
2EE
330
1E
100
AcDbEntity
  8
0
 62
     4
100
AcDbLine
 10
86.71817645
 20
-383.84199213
 30
0.0
 11
86.71817645
 21
-379.84199213
 31
0.0
  0
LINE
  5
2EF
330
1E
100
AcDbEntity
  8
0
 62
     4
100
AcDbLine
 10
89.71817645
 20
-383.84199213
 30
0.0
 11
89.71817645
 21
-379.84199213
 31
0.0
  0
TEXT
  5
2F0
330
1E
100
AcDbEntity
  8
TXT_DIM49
100
AcDbText
 10
8.18581995
 20
-450.34199213
 30
0.0
 40
2.5
  1
315
  7
ARIAL
100
AcDbText
  0
LINE
  5
2F1
330
1E
100
AcDbEntity
  8
0
 62
     4
100
AcDbLine
 10
-66.78182355
 20
-450.84199213
 30
0.0
 11
-68.78182355
 21
-452.84199213
 31
0.0
  0
LINE
  5
2F2
330
1E
100
AcDbEntity
  8
0
 62
     4
100
AcDbLine
 10
88.96817645
 20
-452.59199213
 30
0.0
 11
90.46817645
 21
-451.09199213
 31
0.0
  0
LINE
  5
2F3
330
1E
100
AcDbEntity
  8
0
 62
     4
100
AcDbLine
 10
-67.78182355
 20
-451.84199213
 30
0.0
 11
89.71817645
 21
-451.84199213
 31
0.0
  0
LINE
  5
2F4
330
1E
100
AcDbEntity
  8
0
 62
     4
100
AcDbLine
 10
-67.78182355
 20
-449.84199213
 30
0.0
 11
-67.78182355
 21
-453.84199213
 31
0.0
  0
LINE
  5
2F5
330
1E
100
AcDbEntity
  8
0
 62
     4
100
AcDbLine
 10
89.71817645
 20
-449.84199213
 30
0.0
 11
89.71817645
 21
-453.84199213
 31
0.0
  0
TEXT
  5
2F6
330
1E
100
AcDbEntity
  8
TXT_DIM49
100
AcDbText
 10
-79.28182355
 20
-437.25121648
 30
0.0
 40
2.5
  1
8
 50
90.00020741
  7
ARIAL
100
AcDbText
  0
LINE
  5
2F7
330
1E
100
AcDbEntity
  8
0
 62
     4
100
AcDbLine
 10
-78.78182355
 20
-437.32376434
 30
0.0
 11
-76.78182355
 21
-439.32376434
 31
0.0
  0
LINE
  5
2F8
330
1E
100
AcDbEntity
  8
0
 62
     4
100
AcDbLine
 10
-77.03182355
 20
-435.07376434
 30
0.0
 11
-78.53182355
 21
-433.57376434
 31
0.0
  0
LINE
  5
2F9
330
1E
100
AcDbEntity
  8
0
 62
     4
100
AcDbLine
 10
-77.78182355
 20
-438.32376434
 30
0.0
 11
-77.78182355
 21
-434.32376434
 31
0.0
  0
LINE
  5
2FA
330
1E
100
AcDbEntity
  8
0
 62
     4
100
AcDbLine
 10
-75.78182355
 20
-438.32376434
 30
0.0
 11
-79.78182355
 21
-438.32376434
 31
0.0
  0
LINE
  5
2FB
330
1E
100
AcDbEntity
  8
0
 62
     4
100
AcDbLine
 10
-75.78182355
 20
-434.32376434
 30
0.0
 11
-79.78182355
 21
-434.32376434
 31
0.0
  0
TEXT
  5
2FC
330
1E
100
AcDbEntity
  8
TXT_DIM49
100
AcDbText
 10
-79.28182355
 20
-413.17866863
 30
0.0
 40
2.5
  1
92
 50
90.00020741
  7
ARIAL
100
AcDbText
  0
LINE
  5
2FD
330
1E
100
AcDbEntity
  8
0
 62
     4
100
AcDbLine
 10
-78.78182355
 20
-433.32376434
 30
0.0
 11
-76.78182355
 21
-435.32376434
 31
0.0
  0
LINE
  5
2FE
330
1E
100
AcDbEntity
  8
0
 62
     4
100
AcDbLine
 10
-77.03182355
 20
-389.07376434
 30
0.0
 11
-78.53182355
 21
-387.57376434
 31
0.0
  0
LINE
  5
2FF
330
1E
100
AcDbEntity
  8
0
 62
     4
100
AcDbLine
 10
-77.78182355
 20
-434.32376434
 30
0.0
 11
-77.78182355
 21
-388.32376434
 31
0.0
  0
LINE
  5
300
330
1E
100
AcDbEntity
  8
0
 62
     4
100
AcDbLine
 10
-75.78182355
 20
-434.32376434
 30
0.0
 11
-79.78182355
 21
-434.32376434
 31
0.0
  0
LINE
  5
301
330
1E
100
AcDbEntity
  8
0
 62
     4
100
AcDbLine
 10
-75.78182355
 20
-388.32376434
 30
0.0
 11
-79.78182355
 21
-388.32376434
 31
0.0
  0
TEXT
  5
302
330
1E
100
AcDbEntity
  8
TXT_DIM49
100
AcDbText
 10
95.80161962
 20
-393.17866863
 30
0.0
 40
2.5
  1
12
 50
90.00020741
  7
ARIAL
100
AcDbText
  0
LINE
  5
303
330
1E
100
AcDbEntity
  8
0
 62
     4
100
AcDbLine
 10
98.30161962
 20
-389.32376434
 30
0.0
 11
96.30161962
 21
-387.32376434
 31
0.0
  0
LINE
  5
304
330
1E
100
AcDbEntity
  8
0
 62
     4
100
AcDbLine
 10
96.55161962
 20
-393.57376434
 30
0.0
 11
98.05161962
 21
-395.07376434
 31
0.0
  0
LINE
  5
305
330
1E
100
AcDbEntity
  8
0
 62
     4
100
AcDbLine
 10
97.30161962
 20
-388.32376434
 30
0.0
 11
97.30161962
 21
-394.32376434
 31
0.0
  0
LINE
  5
306
330
1E
100
AcDbEntity
  8
0
 62
     4
100
AcDbLine
 10
95.30161962
 20
-388.32376434
 30
0.0
 11
99.30161962
 21
-388.32376434
 31
0.0
  0
LINE
  5
307
330
1E
100
AcDbEntity
  8
0
 62
     4
100
AcDbLine
 10
95.30161962
 20
-394.32376434
 30
0.0
 11
99.30161962
 21
-394.32376434
 31
0.0
  0
TEXT
  5
308
330
1E
100
AcDbEntity
  8
TXT_DIM49
100
AcDbText
 10
95.80161962
 20
-416.17866863
 30
0.0
 40
2.5
  1
80
 50
90.00020741
  7
ARIAL
100
AcDbText
  0
LINE
  5
309
330
1E
100
AcDbEntity
  8
0
 62
     4
100
AcDbLine
 10
98.30161962
 20
-395.32376434
 30
0.0
 11
96.30161962
 21
-393.32376434
 31
0.0
  0
LINE
  5
30A
330
1E
100
AcDbEntity
  8
0
 62
     4
100
AcDbLine
 10
96.55161962
 20
-433.57376434
 30
0.0
 11
98.05161962
 21
-435.07376434
 31
0.0
  0
LINE
  5
30B
330
1E
100
AcDbEntity
  8
0
 62
     4
100
AcDbLine
 10
97.30161962
 20
-394.32376434
 30
0.0
 11
97.30161962
 21
-434.32376434
 31
0.0
  0
LINE
  5
30C
330
1E
100
AcDbEntity
  8
0
 62
     4
100
AcDbLine
 10
95.30161962
 20
-394.32376434
 30
0.0
 11
99.30161962
 21
-394.32376434
 31
0.0
  0
LINE
  5
30D
330
1E
100
AcDbEntity
  8
0
 62
     4
100
AcDbLine
 10
95.30161962
 20
-434.32376434
 30
0.0
 11
99.30161962
 21
-434.32376434
 31
0.0
  0
TEXT
  5
30E
330
1E
100
AcDbEntity
  8
TXT_DIM49
100
AcDbText
 10
95.80161962
 20
-437.25121648
 30
0.0
 40
2.5
  1
8
 50
90.00020741
  7
ARIAL
100
AcDbText
  0
LINE
  5
30F
330
1E
100
AcDbEntity
  8
0
 62
     4
100
AcDbLine
 10
98.30161962
 20
-435.32376434
 30
0.0
 11
96.30161962
 21
-433.32376434
 31
0.0
  0
LINE
  5
310
330
1E
100
AcDbEntity
  8
0
 62
     4
100
AcDbLine
 10
96.55161962
 20
-437.57376434
 30
0.0
 11
98.05161962
 21
-439.07376434
 31
0.0
  0
LINE
  5
311
330
1E
100
AcDbEntity
  8
0
 62
     4
100
AcDbLine
 10
97.30161962
 20
-434.32376434
 30
0.0
 11
97.30161962
 21
-438.32376434
 31
0.0
  0
LINE
  5
312
330
1E
100
AcDbEntity
  8
0
 62
     4
100
AcDbLine
 10
95.30161962
 20
-434.32376434
 30
0.0
 11
99.30161962
 21
-434.32376434
 31
0.0
  0
LINE
  5
313
330
1E
100
AcDbEntity
  8
0
 62
     4
100
AcDbLine
 10
95.30161962
 20
-438.32376434
 30
0.0
 11
99.30161962
 21
-438.32376434
 31
0.0
  0
TEXT
  5
314
330
1E
100
AcDbEntity
  8
TXT_DIM49
100
AcDbText
 10
-88.55510568
 20
-416.10612084
 30
0.0
 40
2.5
  1
100
 50
90.00020741
  7
ARIAL
100
AcDbText
  0
LINE
  5
315
330
1E
100
AcDbEntity
  8
0
 62
     4
100
AcDbLine
 10
-86.05510568
 20
-389.32376434
 30
0.0
 11
-88.05510568
 21
-387.32376434
 31
0.0
  0
LINE
  5
316
330
1E
100
AcDbEntity
  8
0
 62
     4
100
AcDbLine
 10
-87.80510568
 20
-437.57376434
 30
0.0
 11
-86.30510568
 21
-439.07376434
 31
0.0
  0
LINE
  5
317
330
1E
100
AcDbEntity
  8
0
 62
     4
100
AcDbLine
 10
-87.05510568
 20
-388.32376434
 30
0.0
 11
-87.05510568
 21
-438.32376434
 31
0.0
  0
LINE
  5
318
330
1E
100
AcDbEntity
  8
0
 62
     4
100
AcDbLine
 10
-85.05510568
 20
-388.32376434
 30
0.0
 11
-89.05510568
 21
-388.32376434
 31
0.0
  0
LINE
  5
319
330
1E
100
AcDbEntity
  8
0
 62
     4
100
AcDbLine
 10
-85.05510568
 20
-438.32376434
 30
0.0
 11
-89.05510568
 21
-438.32376434
 31
0.0
  0
TEXT
  5
31A
330
1E
100
AcDbEntity
  8
TXT_DIM49
100
AcDbText
 10
-154.74490627
 20
-379.52731575
 30
0.0
 40
2.5
  1
15
  7
ARIAL
100
AcDbText
  0
LINE
  5
31B
330
1E
100
AcDbEntity
  8
0
 62
     4
100
AcDbLine
 10
-155.64000198
 20
-380.02731575
 30
0.0
 11
-157.64000198
 21
-382.02731575
 31
0.0
  0
LINE
  5
31C
330
1E
100
AcDbEntity
  8
0
 62
     4
100
AcDbLine
 10
-149.89000198
 20
-381.77731575
 30
0.0
 11
-148.39000198
 21
-380.27731575
 31
0.0
  0
LINE
  5
31D
330
1E
100
AcDbEntity
  8
0
 62
     4
100
AcDbLine
 10
-156.64000198
 20
-381.02731575
 30
0.0
 11
-149.14000198
 21
-381.02731575
 31
0.0
  0
LINE
  5
31E
330
1E
100
AcDbEntity
  8
0
 62
     4
100
AcDbLine
 10
-156.64000198
 20
-383.02731575
 30
0.0
 11
-156.64000198
 21
-379.02731575
 31
0.0
  0
LINE
  5
31F
330
1E
100
AcDbEntity
  8
0
 62
     4
100
AcDbLine
 10
-149.14000198
 20
-383.02731575
 30
0.0
 11
-149.14000198
 21
-379.02731575
 31
0.0
  0
TEXT
  5
320
330
1E
100
AcDbEntity
  8
TXT_DIM49
100
AcDbText
 10
-144.74490627
 20
-379.52731575
 30
0.0
 40
2.5
  1
25
  7
ARIAL
100
AcDbText
  0
LINE
  5
321
330
1E
100
AcDbEntity
  8
0
 62
     4
100
AcDbLine
 10
-148.14000198
 20
-380.02731575
 30
0.0
 11
-150.14000198
 21
-382.02731575
 31
0.0
  0
LINE
  5
322
330
1E
100
AcDbEntity
  8
0
 62
     4
100
AcDbLine
 10
-137.39000198
 20
-381.77731575
 30
0.0
 11
-135.89000198
 21
-380.27731575
 31
0.0
  0
LINE
  5
323
330
1E
100
AcDbEntity
  8
0
 62
     4
100
AcDbLine
 10
-149.14000198
 20
-381.02731575
 30
0.0
 11
-136.64000198
 21
-381.02731575
 31
0.0
  0
LINE
  5
324
330
1E
100
AcDbEntity
  8
0
 62
     4
100
AcDbLine
 10
-149.14000198
 20
-383.02731575
 30
0.0
 11
-149.14000198
 21
-379.02731575
 31
0.0
  0
LINE
  5
325
330
1E
100
AcDbEntity
  8
0
 62
     4
100
AcDbLine
 10
-136.64000198
 20
-383.02731575
 30
0.0
 11
-136.64000198
 21
-379.02731575
 31
0.0
  0
TEXT
  5
326
330
1E
100
AcDbEntity
  8
TXT_DIM49
100
AcDbText
 10
-128.49490627
 20
-379.52731575
 30
0.0
 40
2.5
  1
40
  7
ARIAL
100
AcDbText
  0
LINE
  5
327
330
1E
100
AcDbEntity
  8
0
 62
     4
100
AcDbLine
 10
-135.64000198
 20
-380.02731575
 30
0.0
 11
-137.64000198
 21
-382.02731575
 31
0.0
  0
LINE
  5
328
330
1E
100
AcDbEntity
  8
0
 62
     4
100
AcDbLine
 10
-117.39000198
 20
-381.77731575
 30
0.0
 11
-115.89000198
 21
-380.27731575
 31
0.0
  0
LINE
  5
329
330
1E
100
AcDbEntity
  8
0
 62
     4
100
AcDbLine
 10
-136.64000198
 20
-381.02731575
 30
0.0
 11
-116.64000198
 21
-381.02731575
 31
0.0
  0
LINE
  5
32A
330
1E
100
AcDbEntity
  8
0
 62
     4
100
AcDbLine
 10
-136.64000198
 20
-383.02731575
 30
0.0
 11
-136.64000198
 21
-379.02731575
 31
0.0
  0
LINE
  5
32B
330
1E
100
AcDbEntity
  8
0
 62
     4
100
AcDbLine
 10
-116.64000198
 20
-383.02731575
 30
0.0
 11
-116.64000198
 21
-379.02731575
 31
0.0
  0
TEXT
  5
32C
330
1E
100
AcDbEntity
  8
TXT_DIM49
100
AcDbText
 10
-166.85282928
 20
-397.67866863
 30
0.0
 40
2.5
  1
30
 50
90.00020741
  7
ARIAL
100
AcDbText
  0
LINE
  5
32D
330
1E
100
AcDbEntity
  8
0
 62
     4
100
AcDbLine
 10
-164.35282928
 20
-389.32376434
 30
0.0
 11
-166.35282928
 21
-387.32376434
 31
0.0
  0
LINE
  5
32E
330
1E
100
AcDbEntity
  8
0
 62
     4
100
AcDbLine
 10
-166.10282928
 20
-402.57376434
 30
0.0
 11
-164.60282928
 21
-404.07376434
 31
0.0
  0
LINE
  5
32F
330
1E
100
AcDbEntity
  8
0
 62
     4
100
AcDbLine
 10
-165.35282928
 20
-388.32376434
 30
0.0
 11
-165.35282928
 21
-403.32376434
 31
0.0
  0
LINE
  5
330
330
1E
100
AcDbEntity
  8
0
 62
     4
100
AcDbLine
 10
-163.35282928
 20
-388.32376434
 30
0.0
 11
-167.35282928
 21
-388.32376434
 31
0.0
  0
LINE
  5
331
330
1E
100
AcDbEntity
  8
0
 62
     4
100
AcDbLine
 10
-163.35282928
 20
-403.32376434
 30
0.0
 11
-167.35282928
 21
-403.32376434
 31
0.0
  0
TEXT
  5
332
330
1E
100
AcDbEntity
  8
TXT_DIM49
100
AcDbText
 10
-166.85282928
 20
-422.67866863
 30
0.0
 40
2.5
  1
70
 50
90.00020741
  7
ARIAL
100
AcDbText
  0
LINE
  5
333
330
1E
100
AcDbEntity
  8
0
 62
     4
100
AcDbLine
 10
-164.35282928
 20
-404.32376434
 30
0.0
 11
-166.35282928
 21
-402.32376434
 31
0.0
  0
LINE
  5
334
330
1E
100
AcDbEntity
  8
0
 62
     4
100
AcDbLine
 10
-166.10282928
 20
-437.57376434
 30
0.0
 11
-164.60282928
 21
-439.07376434
 31
0.0
  0
LINE
  5
335
330
1E
100
AcDbEntity
  8
0
 62
     4
100
AcDbLine
 10
-165.35282928
 20
-403.32376434
 30
0.0
 11
-165.35282928
 21
-438.32376434
 31
0.0
  0
LINE
  5
336
330
1E
100
AcDbEntity
  8
0
 62
     4
100
AcDbLine
 10
-163.35282928
 20
-403.32376434
 30
0.0
 11
-167.35282928
 21
-403.32376434
 31
0.0
  0
LINE
  5
337
330
1E
100
AcDbEntity
  8
0
 62
     4
100
AcDbLine
 10
-163.35282928
 20
-438.32376434
 30
0.0
 11
-167.35282928
 21
-438.32376434
 31
0.0
  0
TEXT
  5
338
330
1E
100
AcDbEntity
  8
TXT_DIM49
100
AcDbText
 10
-111.35047077
 20
-398.92866863
 30
0.0
 40
2.5
  1
35
 50
90.00020741
  7
ARIAL
100
AcDbText
  0
LINE
  5
339
330
1E
100
AcDbEntity
  8
0
 62
     4
100
AcDbLine
 10
-108.85047077
 20
-389.32376434
 30
0.0
 11
-110.85047077
 21
-387.32376434
 31
0.0
  0
LINE
  5
33A
330
1E
100
AcDbEntity
  8
0
 62
     4
100
AcDbLine
 10
-110.60047077
 20
-405.07376434
 30
0.0
 11
-109.10047077
 21
-406.57376434
 31
0.0
  0
LINE
  5
33B
330
1E
100
AcDbEntity
  8
0
 62
     4
100
AcDbLine
 10
-109.85047077
 20
-388.32376434
 30
0.0
 11
-109.85047077
 21
-405.82376434
 31
0.0
  0
LINE
  5
33C
330
1E
100
AcDbEntity
  8
0
 62
     4
100
AcDbLine
 10
-111.85047077
 20
-388.32376434
 30
0.0
 11
-107.85047077
 21
-388.32376434
 31
0.0
  0
LINE
  5
33D
330
1E
100
AcDbEntity
  8
0
 62
     4
100
AcDbLine
 10
-111.85047077
 20
-405.82376434
 30
0.0
 11
-107.85047077
 21
-405.82376434
 31
0.0
  0
TEXT
  5
33E
330
1E
100
AcDbEntity
  8
TXT_DIM49
100
AcDbText
 10
-111.35047077
 20
-423.92866863
 30
0.0
 40
2.5
  1
65
 50
90.00020741
  7
ARIAL
100
AcDbText
  0
LINE
  5
33F
330
1E
100
AcDbEntity
  8
0
 62
     4
100
AcDbLine
 10
-108.85047077
 20
-406.82376434
 30
0.0
 11
-110.85047077
 21
-404.82376434
 31
0.0
  0
LINE
  5
340
330
1E
100
AcDbEntity
  8
0
 62
     4
100
AcDbLine
 10
-110.60047077
 20
-437.57376434
 30
0.0
 11
-109.10047077
 21
-439.07376434
 31
0.0
  0
LINE
  5
341
330
1E
100
AcDbEntity
  8
0
 62
     4
100
AcDbLine
 10
-109.85047077
 20
-405.82376434
 30
0.0
 11
-109.85047077
 21
-438.32376434
 31
0.0
  0
LINE
  5
342
330
1E
100
AcDbEntity
  8
0
 62
     4
100
AcDbLine
 10
-111.85047077
 20
-405.82376434
 30
0.0
 11
-107.85047077
 21
-405.82376434
 31
0.0
  0
LINE
  5
343
330
1E
100
AcDbEntity
  8
0
 62
     4
100
AcDbLine
 10
-111.85047077
 20
-438.32376434
 30
0.0
 11
-107.85047077
 21
-438.32376434
 31
0.0
  0
LINE
  5
344
330
1E
100
AcDbEntity
  8
0
 62
     5
100
AcDbLine
 10
-136.64000198
 20
-405.82376434
 30
0.0
 11
-133.72795704
 21
-415.12235484
 31
0.0
  0
TEXT
  5
345
330
1E
100
AcDbEntity
  8
TXT_DIM49
100
AcDbText
 10
-133.72795704
 20
-416.37235484
 30
0.0
 40
2.5
  1
Ø14
  7
ARIAL
 11
-133.72795704
 21
-415.12235484
 31
0.0
100
AcDbText
 73
     2
  0
LINE
  5
346
330
1E
100
AcDbEntity
  8
0
 62
     5
100
AcDbLine
 10
-149.14000198
 20
-403.32376434
 30
0.0
 11
-145.58606593
 21
-415.45165729
 31
0.0
  0
TEXT
  5
347
330
1E
100
AcDbEntity
  8
TXT_DIM49
100
AcDbText
 10
-145.58606593
 20
-416.70165729
 30
0.0
 40
2.5
  1
Ø10
  7
ARIAL
 11
-145.58606593
 21
-415.45165729
 31
0.0
100
AcDbText
 73
     2
  0
TEXT
  5
348
330
1E
100
AcDbEntity
  8
TXT_DIM49
100
AcDbText
 10
127.68218157
 20
-380.99001497
 30
0.0
 40
2.5
  1
15
  7
ARIAL
100
AcDbText
  0
LINE
  5
349
330
1E
100
AcDbEntity
  8
0
 62
     4
100
AcDbLine
 10
126.78708586
 20
-381.49001497
 30
0.0
 11
124.78708586
 21
-383.49001497
 31
0.0
  0
LINE
  5
34A
330
1E
100
AcDbEntity
  8
0
 62
     4
100
AcDbLine
 10
132.53708586
 20
-383.24001497
 30
0.0
 11
134.03708586
 21
-381.74001497
 31
0.0
  0
LINE
  5
34B
330
1E
100
AcDbEntity
  8
0
 62
     4
100
AcDbLine
 10
125.78708586
 20
-382.49001497
 30
0.0
 11
133.28708586
 21
-382.49001497
 31
0.0
  0
LINE
  5
34C
330
1E
100
AcDbEntity
  8
0
 62
     4
100
AcDbLine
 10
125.78708586
 20
-384.49001497
 30
0.0
 11
125.78708586
 21
-380.49001497
 31
0.0
  0
LINE
  5
34D
330
1E
100
AcDbEntity
  8
0
 62
     4
100
AcDbLine
 10
133.28708586
 20
-384.49001497
 30
0.0
 11
133.28708586
 21
-380.49001497
 31
0.0
  0
TEXT
  5
34E
330
1E
100
AcDbEntity
  8
TXT_DIM49
100
AcDbText
 10
137.68218157
 20
-380.99001497
 30
0.0
 40
2.5
  1
25
  7
ARIAL
100
AcDbText
  0
LINE
  5
34F
330
1E
100
AcDbEntity
  8
0
 62
     4
100
AcDbLine
 10
134.28708586
 20
-381.49001497
 30
0.0
 11
132.28708586
 21
-383.49001497
 31
0.0
  0
LINE
  5
350
330
1E
100
AcDbEntity
  8
0
 62
     4
100
AcDbLine
 10
145.03708586
 20
-383.24001497
 30
0.0
 11
146.53708586
 21
-381.74001497
 31
0.0
  0
LINE
  5
351
330
1E
100
AcDbEntity
  8
0
 62
     4
100
AcDbLine
 10
133.28708586
 20
-382.49001497
 30
0.0
 11
145.78708586
 21
-382.49001497
 31
0.0
  0
LINE
  5
352
330
1E
100
AcDbEntity
  8
0
 62
     4
100
AcDbLine
 10
133.28708586
 20
-384.49001497
 30
0.0
 11
133.28708586
 21
-380.49001497
 31
0.0
  0
LINE
  5
353
330
1E
100
AcDbEntity
  8
0
 62
     4
100
AcDbLine
 10
145.78708586
 20
-384.49001497
 30
0.0
 11
145.78708586
 21
-380.49001497
 31
0.0
  0
TEXT
  5
354
330
1E
100
AcDbEntity
  8
TXT_DIM49
100
AcDbText
 10
153.93218157
 20
-380.99001497
 30
0.0
 40
2.5
  1
40
  7
ARIAL
100
AcDbText
  0
LINE
  5
355
330
1E
100
AcDbEntity
  8
0
 62
     4
100
AcDbLine
 10
146.78708586
 20
-381.49001497
 30
0.0
 11
144.78708586
 21
-383.49001497
 31
0.0
  0
LINE
  5
356
330
1E
100
AcDbEntity
  8
0
 62
     4
100
AcDbLine
 10
165.03708586
 20
-383.24001497
 30
0.0
 11
166.53708586
 21
-381.74001497
 31
0.0
  0
LINE
  5
357
330
1E
100
AcDbEntity
  8
0
 62
     4
100
AcDbLine
 10
145.78708586
 20
-382.49001497
 30
0.0
 11
165.78708586
 21
-382.49001497
 31
0.0
  0
LINE
  5
358
330
1E
100
AcDbEntity
  8
0
 62
     4
100
AcDbLine
 10
145.78708586
 20
-384.49001497
 30
0.0
 11
145.78708586
 21
-380.49001497
 31
0.0
  0
LINE
  5
359
330
1E
100
AcDbEntity
  8
0
 62
     4
100
AcDbLine
 10
165.78708586
 20
-384.49001497
 30
0.0
 11
165.78708586
 21
-380.49001497
 31
0.0
  0
TEXT
  5
35A
330
1E
100
AcDbEntity
  8
TXT_DIM49
100
AcDbText
 10
117.49755466
 20
-395.17866863
 30
0.0
 40
2.5
  1
20
 50
90.00020741
  7
ARIAL
100
AcDbText
  0
LINE
  5
35B
330
1E
100
AcDbEntity
  8
0
 62
     4
100
AcDbLine
 10
119.99755466
 20
-389.32376434
 30
0.0
 11
117.99755466
 21
-387.32376434
 31
0.0
  0
LINE
  5
35C
330
1E
100
AcDbEntity
  8
0
 62
     4
100
AcDbLine
 10
118.24755466
 20
-397.57376434
 30
0.0
 11
119.74755466
 21
-399.07376434
 31
0.0
  0
LINE
  5
35D
330
1E
100
AcDbEntity
  8
0
 62
     4
100
AcDbLine
 10
118.99755466
 20
-388.32376434
 30
0.0
 11
118.99755466
 21
-398.32376434
 31
0.0
  0
LINE
  5
35E
330
1E
100
AcDbEntity
  8
0
 62
     4
100
AcDbLine
 10
120.99755466
 20
-388.32376434
 30
0.0
 11
116.99755466
 21
-388.32376434
 31
0.0
  0
LINE
  5
35F
330
1E
100
AcDbEntity
  8
0
 62
     4
100
AcDbLine
 10
120.99755466
 20
-398.32376434
 30
0.0
 11
116.99755466
 21
-398.32376434
 31
0.0
  0
TEXT
  5
360
330
1E
100
AcDbEntity
  8
TXT_DIM49
100
AcDbText
 10
117.49755466
 20
-420.17866863
 30
0.0
 40
2.5
  1
80
 50
90.00020741
  7
ARIAL
100
AcDbText
  0
LINE
  5
361
330
1E
100
AcDbEntity
  8
0
 62
     4
100
AcDbLine
 10
119.99755466
 20
-399.32376434
 30
0.0
 11
117.99755466
 21
-397.32376434
 31
0.0
  0
LINE
  5
362
330
1E
100
AcDbEntity
  8
0
 62
     4
100
AcDbLine
 10
118.24755466
 20
-437.57376434
 30
0.0
 11
119.74755466
 21
-439.07376434
 31
0.0
  0
LINE
  5
363
330
1E
100
AcDbEntity
  8
0
 62
     4
100
AcDbLine
 10
118.99755466
 20
-398.32376434
 30
0.0
 11
118.99755466
 21
-438.32376434
 31
0.0
  0
LINE
  5
364
330
1E
100
AcDbEntity
  8
0
 62
     4
100
AcDbLine
 10
120.99755466
 20
-398.32376434
 30
0.0
 11
116.99755466
 21
-398.32376434
 31
0.0
  0
LINE
  5
365
330
1E
100
AcDbEntity
  8
0
 62
     4
100
AcDbLine
 10
120.99755466
 20
-438.32376434
 30
0.0
 11
116.99755466
 21
-438.32376434
 31
0.0
  0
TEXT
  5
366
330
1E
100
AcDbEntity
  8
TXT_DIM49
100
AcDbText
 10
172.56116874
 20
-398.92866863
 30
0.0
 40
2.5
  1
35
 50
90.00020741
  7
ARIAL
100
AcDbText
  0
LINE
  5
367
330
1E
100
AcDbEntity
  8
0
 62
     4
100
AcDbLine
 10
175.06116874
 20
-389.32376434
 30
0.0
 11
173.06116874
 21
-387.32376434
 31
0.0
  0
LINE
  5
368
330
1E
100
AcDbEntity
  8
0
 62
     4
100
AcDbLine
 10
173.31116874
 20
-405.07376434
 30
0.0
 11
174.81116874
 21
-406.57376434
 31
0.0
  0
LINE
  5
369
330
1E
100
AcDbEntity
  8
0
 62
     4
100
AcDbLine
 10
174.06116874
 20
-388.32376434
 30
0.0
 11
174.06116874
 21
-405.82376434
 31
0.0
  0
LINE
  5
36A
330
1E
100
AcDbEntity
  8
0
 62
     4
100
AcDbLine
 10
172.06116874
 20
-388.32376434
 30
0.0
 11
176.06116874
 21
-388.32376434
 31
0.0
  0
LINE
  5
36B
330
1E
100
AcDbEntity
  8
0
 62
     4
100
AcDbLine
 10
172.06116874
 20
-405.82376434
 30
0.0
 11
176.06116874
 21
-405.82376434
 31
0.0
  0
TEXT
  5
36C
330
1E
100
AcDbEntity
  8
TXT_DIM49
100
AcDbText
 10
172.56116874
 20
-423.92866863
 30
0.0
 40
2.5
  1
65
 50
90.00020741
  7
ARIAL
100
AcDbText
  0
LINE
  5
36D
330
1E
100
AcDbEntity
  8
0
 62
     4
100
AcDbLine
 10
175.06116874
 20
-406.82376434
 30
0.0
 11
173.06116874
 21
-404.82376434
 31
0.0
  0
LINE
  5
36E
330
1E
100
AcDbEntity
  8
0
 62
     4
100
AcDbLine
 10
173.31116874
 20
-437.57376434
 30
0.0
 11
174.81116874
 21
-439.07376434
 31
0.0
  0
LINE
  5
36F
330
1E
100
AcDbEntity
  8
0
 62
     4
100
AcDbLine
 10
174.06116874
 20
-405.82376434
 30
0.0
 11
174.06116874
 21
-438.32376434
 31
0.0
  0
LINE
  5
370
330
1E
100
AcDbEntity
  8
0
 62
     4
100
AcDbLine
 10
172.06116874
 20
-405.82376434
 30
0.0
 11
176.06116874
 21
-405.82376434
 31
0.0
  0
LINE
  5
371
330
1E
100
AcDbEntity
  8
0
 62
     4
100
AcDbLine
 10
172.06116874
 20
-438.32376434
 30
0.0
 11
176.06116874
 21
-438.32376434
 31
0.0
  0
LINE
  5
372
330
1E
100
AcDbEntity
  8
0
 62
     4
100
AcDbLine
 10
145.78708586
 20
-405.82376434
 30
0.0
 11
142.4516705
 21
-412.43570716
 31
0.0
  0
TEXT
  5
373
330
1E
100
AcDbEntity
  8
TXT_DIM49
100
AcDbText
 10
136.1680712
 20
-413.68570716
 30
0.0
 40
2.5
  1
Ø14
  7
ARIAL
 11
136.1680712
 21
-412.43570716
 31
0.0
100
AcDbText
 73
     2
  0
LINE
  5
374
330
1E
100
AcDbEntity
  8
0
 62
     5
100
AcDbLine
 10
133.28708586
 20
-398.32376434
 30
0.0
 11
134.54583516
 21
-404.39847291
 31
0.0
  0
TEXT
  5
375
330
1E
100
AcDbEntity
  8
TXT_DIM49
100
AcDbText
 10
134.54583516
 20
-405.64847291
 30
0.0
 40
2.5
  1
Ø10
  7
ARIAL
 11
134.54583516
 21
-404.39847291
 31
0.0
100
AcDbText
 73
     2
  0
TEXT
  5
376
330
1E
100
AcDbEntity
  8
TXT_DIM49
100
AcDbText
 10
99.23810705
 20
-475.16219927
 30
0.0
 40
2.5
  1
8
 50
90.00020741
  7
ARIAL
100
AcDbText
  0
LINE
  5
377
330
1E
100
AcDbEntity
  8
0
 62
     4
100
AcDbLine
 10
101.73810705
 20
-473.23474712
 30
0.0
 11
99.73810705
 21
-471.23474712
 31
0.0
  0
LINE
  5
378
330
1E
100
AcDbEntity
  8
0
 62
     4
100
AcDbLine
 10
99.98810705
 20
-475.48474712
 30
0.0
 11
101.48810705
 21
-476.98474712
 31
0.0
  0
LINE
  5
379
330
1E
100
AcDbEntity
  8
0
 62
     4
100
AcDbLine
 10
100.73810705
 20
-472.23474712
 30
0.0
 11
100.73810705
 21
-476.23474712
 31
0.0
  0
LINE
  5
37A
330
1E
100
AcDbEntity
  8
0
 62
     4
100
AcDbLine
 10
98.73810705
 20
-472.23474712
 30
0.0
 11
102.73810705
 21
-472.23474712
 31
0.0
  0
LINE
  5
37B
330
1E
100
AcDbEntity
  8
0
 62
     4
100
AcDbLine
 10
98.73810705
 20
-476.23474712
 30
0.0
 11
102.73810705
 21
-476.23474712
 31
0.0
  0
TEXT
  5
37C
330
1E
100
AcDbEntity
  8
TXT_DIM49
100
AcDbText
 10
99.23810705
 20
-496.08965142
 30
0.0
 40
2.5
  1
72
 50
90.00020741
  7
ARIAL
100
AcDbText
  0
LINE
  5
37D
330
1E
100
AcDbEntity
  8
0
 62
     4
100
AcDbLine
 10
101.73810705
 20
-477.23474712
 30
0.0
 11
99.73810705
 21
-475.23474712
 31
0.0
  0
LINE
  5
37E
330
1E
100
AcDbEntity
  8
0
 62
     4
100
AcDbLine
 10
99.98810705
 20
-511.48474712
 30
0.0
 11
101.48810705
 21
-512.98474712
 31
0.0
  0
LINE
  5
37F
330
1E
100
AcDbEntity
  8
0
 62
     4
100
AcDbLine
 10
100.73810705
 20
-476.23474712
 30
0.0
 11
100.73810705
 21
-512.23474712
 31
0.0
  0
LINE
  5
380
330
1E
100
AcDbEntity
  8
0
 62
     4
100
AcDbLine
 10
98.73810705
 20
-476.23474712
 30
0.0
 11
102.73810705
 21
-476.23474712
 31
0.0
  0
LINE
  5
381
330
1E
100
AcDbEntity
  8
0
 62
     4
100
AcDbLine
 10
98.73810705
 20
-512.23474712
 30
0.0
 11
102.73810705
 21
-512.23474712
 31
0.0
  0
TEXT
  5
382
330
1E
100
AcDbEntity
  8
TXT_DIM49
100
AcDbText
 10
-80.75554057
 20
-494.08965142
 30
0.0
 40
2.5
  1
80
 50
90.00020741
  7
ARIAL
100
AcDbText
  0
LINE
  5
383
330
1E
100
AcDbEntity
  8
0
 62
     4
100
AcDbLine
 10
-78.25554057
 20
-473.23474712
 30
0.0
 11
-80.25554057
 21
-471.23474712
 31
0.0
  0
LINE
  5
384
330
1E
100
AcDbEntity
  8
0
 62
     4
100
AcDbLine
 10
-80.00554057
 20
-511.48474712
 30
0.0
 11
-78.50554057
 21
-512.98474712
 31
0.0
  0
LINE
  5
385
330
1E
100
AcDbEntity
  8
0
 62
     4
100
AcDbLine
 10
-79.25554057
 20
-472.23474712
 30
0.0
 11
-79.25554057
 21
-512.23474712
 31
0.0
  0
LINE
  5
386
330
1E
100
AcDbEntity
  8
0
 62
     4
100
AcDbLine
 10
-77.25554057
 20
-472.23474712
 30
0.0
 11
-81.25554057
 21
-472.23474712
 31
0.0
  0
LINE
  5
387
330
1E
100
AcDbEntity
  8
0
 62
     4
100
AcDbLine
 10
-77.25554057
 20
-512.23474712
 30
0.0
 11
-81.25554057
 21
-512.23474712
 31
0.0
  0
TEXT
  5
388
330
1E
100
AcDbEntity
  8
TXT_DIM49
100
AcDbText
 10
-58.51172784
 20
-521.92630327
 30
0.0
 40
2.5
  1
45
  7
ARIAL
100
AcDbText
  0
LINE
  5
389
330
1E
100
AcDbEntity
  8
0
 62
     4
100
AcDbLine
 10
-66.78182355
 20
-522.42630327
 30
0.0
 11
-68.78182355
 21
-524.42630327
 31
0.0
  0
LINE
  5
38A
330
1E
100
AcDbEntity
  8
0
 62
     4
100
AcDbLine
 10
-46.28182355
 20
-524.17630327
 30
0.0
 11
-44.78182355
 21
-522.67630327
 31
0.0
  0
LINE
  5
38B
330
1E
100
AcDbEntity
  8
0
 62
     4
100
AcDbLine
 10
-67.78182355
 20
-523.42630327
 30
0.0
 11
-45.53182355
 21
-523.42630327
 31
0.0
  0
LINE
  5
38C
330
1E
100
AcDbEntity
  8
0
 62
     4
100
AcDbLine
 10
-67.78182355
 20
-521.42630327
 30
0.0
 11
-67.78182355
 21
-525.42630327
 31
0.0
  0
LINE
  5
38D
330
1E
100
AcDbEntity
  8
0
 62
     4
100
AcDbLine
 10
-45.53182355
 20
-521.42630327
 30
0.0
 11
-45.53182355
 21
-525.42630327
 31
0.0
  0
TEXT
  5
38E
330
1E
100
AcDbEntity
  8
TXT_DIM49
100
AcDbText
 10
-28.76172784
 20
-521.92630327
 30
0.0
 40
2.5
  1
75
  7
ARIAL
100
AcDbText
  0
LINE
  5
38F
330
1E
100
AcDbEntity
  8
0
 62
     4
100
AcDbLine
 10
-44.53182355
 20
-522.42630327
 30
0.0
 11
-46.53182355
 21
-524.42630327
 31
0.0
  0
LINE
  5
390
330
1E
100
AcDbEntity
  8
0
 62
     4
100
AcDbLine
 10
-9.03182355
 20
-524.17630327
 30
0.0
 11
-7.53182355
 21
-522.67630327
 31
0.0
  0
LINE
  5
391
330
1E
100
AcDbEntity
  8
0
 62
     4
100
AcDbLine
 10
-45.53182355
 20
-523.42630327
 30
0.0
 11
-8.28182355
 21
-523.42630327
 31
0.0
  0
LINE
  5
392
330
1E
100
AcDbEntity
  8
0
 62
     4
100
AcDbLine
 10
-45.53182355
 20
-521.42630327
 30
0.0
 11
-45.53182355
 21
-525.42630327
 31
0.0
  0
LINE
  5
393
330
1E
100
AcDbEntity
  8
0
 62
     4
100
AcDbLine
 10
-8.28182355
 20
-521.42630327
 30
0.0
 11
-8.28182355
 21
-525.42630327
 31
0.0
  0
TEXT
  5
394
330
1E
100
AcDbEntity
  8
TXT_DIM49
100
AcDbText
 10
26.43581995
 20
-521.92630327
 30
0.0
 40
2.5
  1
150
  7
ARIAL
100
AcDbText
  0
LINE
  5
395
330
1E
100
AcDbEntity
  8
0
 62
     4
100
AcDbLine
 10
-7.28182355
 20
-522.42630327
 30
0.0
 11
-9.28182355
 21
-524.42630327
 31
0.0
  0
LINE
  5
396
330
1E
100
AcDbEntity
  8
0
 62
     4
100
AcDbLine
 10
65.96817645
 20
-524.17630327
 30
0.0
 11
67.46817645
 21
-522.67630327
 31
0.0
  0
LINE
  5
397
330
1E
100
AcDbEntity
  8
0
 62
     4
100
AcDbLine
 10
-8.28182355
 20
-523.42630327
 30
0.0
 11
66.71817645
 21
-523.42630327
 31
0.0
  0
LINE
  5
398
330
1E
100
AcDbEntity
  8
0
 62
     4
100
AcDbLine
 10
-8.28182355
 20
-521.42630327
 30
0.0
 11
-8.28182355
 21
-525.42630327
 31
0.0
  0
LINE
  5
399
330
1E
100
AcDbEntity
  8
0
 62
     4
100
AcDbLine
 10
66.71817645
 20
-521.42630327
 30
0.0
 11
66.71817645
 21
-525.42630327
 31
0.0
  0
TEXT
  5
39A
330
1E
100
AcDbEntity
  8
TXT_DIM49
100
AcDbText
 10
76.36327216
 20
-521.92630327
 30
0.0
 40
2.5
  1
46
  7
ARIAL
100
AcDbText
  0
LINE
  5
39B
330
1E
100
AcDbEntity
  8
0
 62
     4
100
AcDbLine
 10
67.71817645
 20
-522.42630327
 30
0.0
 11
65.71817645
 21
-524.42630327
 31
0.0
  0
LINE
  5
39C
330
1E
100
AcDbEntity
  8
0
 62
     4
100
AcDbLine
 10
88.96817645
 20
-524.17630327
 30
0.0
 11
90.46817645
 21
-522.67630327
 31
0.0
  0
LINE
  5
39D
330
1E
100
AcDbEntity
  8
0
 62
     4
100
AcDbLine
 10
66.71817645
 20
-523.42630327
 30
0.0
 11
89.71817645
 21
-523.42630327
 31
0.0
  0
LINE
  5
39E
330
1E
100
AcDbEntity
  8
0
 62
     4
100
AcDbLine
 10
66.71817645
 20
-521.42630327
 30
0.0
 11
66.71817645
 21
-525.42630327
 31
0.0
  0
LINE
  5
39F
330
1E
100
AcDbEntity
  8
0
 62
     4
100
AcDbLine
 10
89.71817645
 20
-521.42630327
 30
0.0
 11
89.71817645
 21
-525.42630327
 31
0.0
  0
LINE
  5
3A0
330
1E
100
AcDbEntity
  8
0
 62
     4
100
AcDbLine
 10
-8.28182355
 20
-492.23474712
 30
0.0
 11
-4.08979832
 21
-501.27288074
 31
0.0
  0
TEXT
  5
3A1
330
1E
100
AcDbEntity
  8
TXT_DIM49
100
AcDbText
 10
-4.08979832
 20
-502.52288074
 30
0.0
 40
2.5
  1
Slobgat 14 x 40
  7
ARIAL
 11
-4.08979832
 21
-501.27288074
 31
0.0
100
AcDbText
 73
     2
  0
LINE
  5
3A2
330
1E
100
AcDbEntity
  8
0
 62
     5
100
AcDbLine
 10
-45.53182355
 20
-492.23474712
 30
0.0
 11
-42.27861738
 21
-500.03699011
 31
0.0
  0
TEXT
  5
3A3
330
1E
100
AcDbEntity
  8
TXT_DIM49
100
AcDbText
 10
-42.27861738
 20
-501.28699011
 30
0.0
 40
2.5
  1
Ø14
  7
ARIAL
 11
-42.27861738
 21
-500.03699011
 31
0.0
100
AcDbText
 73
     2
  0
LINE
  5
3A4
330
1E
100
AcDbEntity
  8
0
 62
     4
100
AcDbLine
 10
66.71817645
 20
-492.23474712
 30
0.0
 11
70.12503121
 21
-500.24330736
 31
0.0
  0
TEXT
  5
3A5
330
1E
100
AcDbEntity
  8
TXT_DIM49
100
AcDbText
 10
70.12503121
 20
-501.49330736
 30
0.0
 40
2.5
  1
Ø14
  7
ARIAL
 11
70.12503121
 21
-500.24330736
 31
0.0
100
AcDbText
 73
     2
  0
POINT
  5
3A6
330
1E
100
AcDbEntity
  8
0
100
AcDbPoint
 10
10.21817645
 20
-466.92773878
 30
0.0
  0
POINT
  5
3A7
330
1E
100
AcDbEntity
  8
0
 62
     3
100
AcDbPoint
 10
148.88754376
 20
-637.26505672
 30
0.0
  0
POINT
  5
3A8
330
1E
100
AcDbEntity
  8
0
 62
     3
100
AcDbPoint
 10
214.75195746
 20
-619.34606181
 30
0.0
  0
POINT
  5
3A9
330
1E
100
AcDbEntity
  8
0
 62
     3
100
AcDbPoint
 10
148.88754376
 20
-619.34606181
 30
0.0
  0
POINT
  5
3AA
330
1E
100
AcDbEntity
  8
0
 62
     3
100
AcDbPoint
 10
214.75195746
 20
-637.26505672
 30
0.0
  0
POINT
  5
3AB
330
1E
100
AcDbEntity
  8
0
 62
     3
100
AcDbPoint
 10
197.06060253
 20
-642.94773878
 30
0.0
  0
POINT
  5
3AC
330
1E
100
AcDbEntity
  8
0
 62
     3
100
AcDbPoint
 10
214.75263449
 20
-638.13446537
 30
0.0
  0
POINT
  5
3AD
330
1E
100
AcDbEntity
  8
0
 62
     3
100
AcDbPoint
 10
197.06060253
 20
-638.13446537
 30
0.0
  0
POINT
  5
3AE
330
1E
100
AcDbEntity
  8
0
 62
     3
100
AcDbPoint
 10
214.75263449
 20
-642.94773878
 30
0.0
  0
ENDSEC
  0
SECTION
  2
OBJECTS
  0
DICTIONARY
  5
C
330
0
100
AcDbDictionary
281
     1
  3
ACAD_DETAILVIEWSTYLE
350
453
  3
ACAD_GROUP
350
D
  3
ACAD_LAYOUT
350
19
  3
ACAD_MATERIAL
350
406
  3
ACAD_MLEADERSTYLE
350
40C
  3
ACAD_MLINESTYLE
350
16
  3
ACAD_PLOTSETTINGS
350
3D8
  3
ACAD_PLOTSTYLENAME
350
3D9
  3
ACAD_SCALELIST
350
3DB
  3
ACAD_SECTIONVIEWSTYLE
350
454
  3
ACAD_TABLESTYLE
350
40A
  3
ACAD_VISUALSTYLE
350
3ED
  3
ACDB_RECOMPOSE_DATA
350
44F
  3
AcDbVariableDictionary
350
410
  0
DICTIONARY
  5
40E
330
1
100
AcDbDictionary
280
     1
281
     1
  3
ACAD_XREC_ROUNDTRIP
360
40F
  0
DICTIONARY
  5
453
102
{ACAD_REACTORS
330
C
102
}
330
C
100
AcDbDictionary
281
     1
  0
DICTIONARY
  5
D
330
C
100
AcDbDictionary
281
     1
  0
DICTIONARY
  5
19
330
C
100
AcDbDictionary
281
     1
  3
Layout1
350
1D
  3
Model
350
21
  0
DICTIONARY
  5
406
102
{ACAD_REACTORS
330
C
102
}
330
C
100
AcDbDictionary
281
     1
  3
ByBlock
350
408
  3
ByLayer
350
407
  3
Global
350
409
  0
DICTIONARY
  5
40C
102
{ACAD_REACTORS
330
C
102
}
330
C
100
AcDbDictionary
281
     1
  3
Standard
350
40D
  0
DICTIONARY
  5
16
330
C
100
AcDbDictionary
281
     1
  3
Standard
350
17
  0
DICTIONARY
  5
3D8
102
{ACAD_REACTORS
330
C
102
}
330
C
100
AcDbDictionary
281
     1
  0
ACDBDICTIONARYWDFLT
  5
3D9
102
{ACAD_REACTORS
330
C
102
}
330
C
100
AcDbDictionary
281
     1
  3
Normal
350
3DA
100
AcDbDictionaryWithDefault
340
3DA
  0
DICTIONARY
  5
3DB
102
{ACAD_REACTORS
330
C
102
}
330
C
100
AcDbDictionary
281
     1
  3
A0
350
3DC
  3
A1
350
3DD
  3
A2
350
3DE
  3
A3
350
3DF
  3
A4
350
3E0
  3
A5
350
3E1
  3
A6
350
3E2
  3
A7
350
3E3
  3
A8
350
3E4
  3
A9
350
3E5
  3
B0
350
3E6
  3
B1
350
3E7
  3
B2
350
3E8
  3
B3
350
3E9
  3
B4
350
3EA
  3
B5
350
3EB
  3
B6
350
3EC
  0
DICTIONARY
  5
454
102
{ACAD_REACTORS
330
C
102
}
330
C
100
AcDbDictionary
281
     1
  0
DICTIONARY
  5
40A
102
{ACAD_REACTORS
330
C
102
}
330
C
100
AcDbDictionary
281
     1
  3
Standard
350
40B
  0
DICTIONARY
  5
3ED
102
{ACAD_REACTORS
330
C
102
}
330
C
100
AcDbDictionary
281
     1
  3
2dWireframe
350
3F2
  3
Basic
350
3F5
  3
Brighten
350
3F9
  3
ColorChange
350
3FD
  3
Conceptual
350
3F7
  3
Dim
350
3F8
  3
EdgeColorOff
350
400
  3
Facepattern
350
3FC
  3
Flat
350
3EE
  3
FlatWithEdges
350
3EF
  3
Gouraud
350
3F0
  3
GouraudWithEdges
350
3F1
  3
Hidden
350
3F4
  3
JitterOff
350
3FE
  3
Linepattern
350
3FB
  3
OverhangOff
350
3FF
  3
Realistic
350
3F6
  3
Shaded
350
405
  3
Shaded with edges
350
404
  3
Shades of Gray
350
401
  3
Sketchy
350
402
  3
Thicken
350
3FA
  3
Wireframe
350
3F3
  3
X-Ray
350
403
  0
XRECORD
  5
44F
102
{ACAD_REACTORS
330
C
102
}
330
C
100
AcDbXrecord
280
     1
 90
        1
330
40B
  0
DICTIONARY
  5
410
102
{ACAD_REACTORS
330
C
102
}
330
C
100
AcDbDictionary
281
     1
  3
CANNOSCALE
350
411
  3
CMLEADERSTYLE
350
451
  3
CTABLESTYLE
350
450
  3
MSLTSCALE
350
452
  3
XCLIPFRAME
350
412
  0
XRECORD
  5
40F
102
{ACAD_REACTORS
330
40E
102
}
330
40E
100
AcDbXrecord
280
     1
102
VTR_0.000_0.000_1.000_1.000_VISUALSTYLE
340
3F2
102
VTR_0.000_0.000_1.000_1.000_GRIDDISPLAY
 70
     3
102
VTR_0.000_0.000_1.000_1.000_GRIDMAJOR
 70
     5
102
VTR_0.000_0.000_1.000_1.000_DEFAULTLIGHTING
280
     1
102
VTR_0.000_0.000_1.000_1.000_DEFAULTLIGHTINGTYPE
 70
     1
102
VTR_0.000_0.000_1.000_1.000_BRIGHTNESS
141
0.0
102
VTR_0.000_0.000_1.000_1.000_CONTRAST
142
0.0
  0
LAYOUT
  5
1D
330
19
100
AcDbPlotSettings
  1

  2
C:\Programme\MDT\plotters\DWF Classic.pc3
  4

  6

 40
0.0
 41
0.0
 42
0.0
 43
0.0
 44
0.0
 45
0.0
 46
0.0
 47
0.0
 48
0.0
 49
0.0
140
0.0
141
0.0
142
1.0
143
1.0
 70
   688
 72
     0
 73
     0
 74
     5
  7

 75
    16
 76
     0
 77
     2
 78
   300
147
1.0
148
0.0
149
0.0
100
AcDbLayout
  1
Layout1
 70
     1
 71
     1
 10
0.0
 20
0.0
 11
12.0
 21
9.0
 12
0.0
 22
0.0
 32
0.0
 14
1.000000000000000E+20
 24
1.000000000000000E+20
 34
1.000000000000000E+20
 15
-1.000000000000000E+20
 25
-1.000000000000000E+20
 35
-1.000000000000000E+20
146
0.0
 13
0.0
 23
0.0
 33
0.0
 16
1.0
 26
0.0
 36
0.0
 17
0.0
 27
1.0
 37
0.0
 76
     0
330
1A
  0
LAYOUT
  5
21
330
19
100
AcDbPlotSettings
  1

  2
C:\Programme\MDT\plotters\DWF Classic.pc3
  4

  6

 40
0.0
 41
0.0
 42
0.0
 43
0.0
 44
0.0
 45
0.0
 46
0.0
 47
0.0
 48
0.0
 49
0.0
140
0.0
141
0.0
142
1.0
143
1.0
 70
  1712
 72
     0
 73
     0
 74
     0
  7

 75
     0
 76
     0
 77
     2
 78
   300
147
1.0
148
0.0
149
0.0
100
AcDbLayout
  1
Model
 70
     1
 71
     0
 10
0.0
 20
0.0
 11
12.0
 21
9.0
 12
0.0
 22
0.0
 32
0.0
 14
0.0
 24
0.0
 34
0.0
 15
0.0
 25
0.0
 35
0.0
146
0.0
 13
0.0
 23
0.0
 33
0.0
 16
1.0
 26
0.0
 36
0.0
 17
0.0
 27
1.0
 37
0.0
 76
     0
330
1E
331
2
  0
MATERIAL
  5
408
102
{ACAD_REACTORS
330
406
102
}
102
{ACAD_XDICTIONARY
360
445
102
}
330
406
100
AcDbMaterial
  1
ByBlock
  0
MATERIAL
  5
407
102
{ACAD_REACTORS
330
406
102
}
102
{ACAD_XDICTIONARY
360
443
102
}
330
406
100
AcDbMaterial
  1
ByLayer
  0
MATERIAL
  5
409
102
{ACAD_REACTORS
330
406
102
}
102
{ACAD_XDICTIONARY
360
447
102
}
330
406
100
AcDbMaterial
  1
Global
  0
MLEADERSTYLE
  5
40D
102
{ACAD_REACTORS
330
40C
102
}
102
{ACAD_XDICTIONARY
360
44D
102
}
330
40C
100
AcDbMLeaderStyle
170
     2
171
     1
172
     0
 90
        2
 40
0.0
 41
0.0
173
     1
 91
-1056964608
340
4
 92
       -2
290
     1
 42
2.0
291
     1
 43
8.0
  3
Standard
341
0
 44
4.0
300

342
15E
174
     1
178
     6
175
     1
176
     0
 93
-1056964608
 45
4.0
292
     0
297
     0
 46
4.0
343
0
 94
-1056964608
 47
1.0
 49
1.0
140
1.0
293
     1
141
0.0
294
     1
177
     0
142
1.0
295
     0
296
     0
143
3.75
1001
ACAD_MLEADERVER
1070
     2
  0
MLINESTYLE
  5
17
330
16
100
AcDbMlineStyle
  2
STANDARD
 70
     0
  3

 62
   256
 51
90.0
 52
90.0
 71
     2
 49
0.5
 62
   256
  6
BYLAYER
 49
-0.5
 62
   256
  6
BYLAYER
  0
ACDBPLACEHOLDER
  5
3DA
102
{ACAD_REACTORS
330
3D9
102
}
330
3D9
  0
SCALE
  5
3DC
102
{ACAD_REACTORS
330
3DB
102
}
330
3DB
100
AcDbScale
 70
     0
300
1:1
140
1.0
141
1.0
290
     1
  0
SCALE
  5
3DD
102
{ACAD_REACTORS
330
3DB
102
}
330
3DB
100
AcDbScale
 70
     0
300
1:2
140
1.0
141
2.0
290
     0
  0
SCALE
  5
3DE
102
{ACAD_REACTORS
330
3DB
102
}
330
3DB
100
AcDbScale
 70
     0
300
1:4
140
1.0
141
4.0
290
     0
  0
SCALE
  5
3DF
102
{ACAD_REACTORS
330
3DB
102
}
330
3DB
100
AcDbScale
 70
     0
300
1:5
140
1.0
141
5.0
290
     0
  0
SCALE
  5
3E0
102
{ACAD_REACTORS
330
3DB
102
}
330
3DB
100
AcDbScale
 70
     0
300
1:8
140
1.0
141
8.0
290
     0
  0
SCALE
  5
3E1
102
{ACAD_REACTORS
330
3DB
102
}
330
3DB
100
AcDbScale
 70
     0
300
1:10
140
1.0
141
10.0
290
     0
  0
SCALE
  5
3E2
102
{ACAD_REACTORS
330
3DB
102
}
330
3DB
100
AcDbScale
 70
     0
300
1:16
140
1.0
141
16.0
290
     0
  0
SCALE
  5
3E3
102
{ACAD_REACTORS
330
3DB
102
}
330
3DB
100
AcDbScale
 70
     0
300
1:20
140
1.0
141
20.0
290
     0
  0
SCALE
  5
3E4
102
{ACAD_REACTORS
330
3DB
102
}
330
3DB
100
AcDbScale
 70
     0
300
1:30
140
1.0
141
30.0
290
     0
  0
SCALE
  5
3E5
102
{ACAD_REACTORS
330
3DB
102
}
330
3DB
100
AcDbScale
 70
     0
300
1:40
140
1.0
141
40.0
290
     0
  0
SCALE
  5
3E6
102
{ACAD_REACTORS
330
3DB
102
}
330
3DB
100
AcDbScale
 70
     0
300
1:50
140
1.0
141
50.0
290
     0
  0
SCALE
  5
3E7
102
{ACAD_REACTORS
330
3DB
102
}
330
3DB
100
AcDbScale
 70
     0
300
1:100
140
1.0
141
100.0
290
     0
  0
SCALE
  5
3E8
102
{ACAD_REACTORS
330
3DB
102
}
330
3DB
100
AcDbScale
 70
     0
300
2:1
140
2.0
141
1.0
290
     0
  0
SCALE
  5
3E9
102
{ACAD_REACTORS
330
3DB
102
}
330
3DB
100
AcDbScale
 70
     0
300
4:1
140
4.0
141
1.0
290
     0
  0
SCALE
  5
3EA
102
{ACAD_REACTORS
330
3DB
102
}
330
3DB
100
AcDbScale
 70
     0
300
8:1
140
8.0
141
1.0
290
     0
  0
SCALE
  5
3EB
102
{ACAD_REACTORS
330
3DB
102
}
330
3DB
100
AcDbScale
 70
     0
300
10:1
140
10.0
141
1.0
290
     0
  0
SCALE
  5
3EC
102
{ACAD_REACTORS
330
3DB
102
}
330
3DB
100
AcDbScale
 70
     0
300
100:1
140
100.0
141
1.0
290
     0
  0
TABLESTYLE
  5
40B
102
{ACAD_REACTORS
330
40A
102
}
102
{ACAD_XDICTIONARY
360
449
102
}
330
40A
100
AcDbTableStyle
  3
Standard
 70
     0
 71
     0
 40
0.06
 41
0.06
280
     0
281
     0
  7
MONOTXT
140
4.5
170
     2
 62
     0
 63
   257
283
     0
274
    -2
284
     1
 64
     0
275
    -2
285
     1
 65
     0
276
    -2
286
     1
 66
     0
277
    -2
287
     1
 67
     0
278
    -2
288
     1
 68
     0
279
    -2
289
     1
 69
     0
  7
MONOTXT
140
6.0
170
     5
 62
     0
 63
   257
283
     0
274
    -2
284
     1
 64
     0
275
    -2
285
     1
 65
     0
276
    -2
286
     1
 66
     0
277
    -2
287
     1
 67
     0
278
    -2
288
     1
 68
     0
279
    -2
289
     1
 69
     0
  7
MONOTXT
140
4.5
170
     5
 62
     0
 63
   257
283
     0
274
    -2
284
     1
 64
     0
275
    -2
285
     1
 65
     0
276
    -2
286
     1
 66
     0
277
    -2
287
     1
 67
     0
278
    -2
288
     1
 68
     0
279
    -2
289
     1
 69
     0
  0
VISUALSTYLE
  5
3F2
102
{ACAD_REACTORS
330
3ED
102
}
102
{ACAD_XDICTIONARY
360
41B
102
}
330
3ED
100
AcDbVisualStyle
  2
2dWireframe
 70
     4
 71
     0
 72
     2
 73
     0
 90
        0
 40
0.6
 41
30.0
 62
     5
 63
     7
421
 16777215
 74
     1
 91
        4
 64
     7
 65
   257
 75
     1
175
     1
 42
1.0
 92
        0
 66
   257
 43
1.0
 76
     1
 77
     6
 78
     2
 67
     7
 79
     5
170
     0
171
     0
290
     0
174
     0
 93
        1
 44
0.0
173
     0
291
     0
 45
0.0
1001
ACAD
1000
AcDbSavedByObjectVersion
1070
     0
  0
VISUALSTYLE
  5
3F5
102
{ACAD_REACTORS
330
3ED
102
}
102
{ACAD_XDICTIONARY
360
421
102
}
330
3ED
100
AcDbVisualStyle
  2
Basic
 70
     7
 71
     1
 72
     0
 73
     1
 90
        0
 40
0.6
 41
30.0
 62
     5
 63
     7
421
 16777215
 74
     0
 91
        4
 64
     7
 65
   257
 75
     1
175
     1
 42
1.0
 92
        8
 66
     7
 43
1.0
 76
     1
 77
     6
 78
     2
 67
     7
 79
     5
170
     0
171
     0
290
     0
174
     0
 93
        1
 44
0.0
173
     0
291
     1
 45
0.0
1001
ACAD
1000
AcDbSavedByObjectVersion
1070
     0
  0
VISUALSTYLE
  5
3F9
102
{ACAD_REACTORS
330
3ED
102
}
102
{ACAD_XDICTIONARY
360
429
102
}
330
3ED
100
AcDbVisualStyle
  2
Brighten
 70
    12
 71
     2
 72
     2
 73
     0
 90
        0
 40
0.6
 41
30.0
 62
     5
 63
     7
421
 16777215
 74
     1
 91
        4
 64
     7
 65
   257
 75
     1
175
     1
 42
1.0
 92
        8
 66
     7
 43
1.0
 76
     1
 77
     6
 78
     2
 67
     7
 79
     5
170
     0
171
     0
290
     0
174
     0
 93
        1
 44
50.0
173
     0
291
     1
 45
0.0
1001
ACAD
1000
AcDbSavedByObjectVersion
1070
     0
  0
VISUALSTYLE
  5
3FD
102
{ACAD_REACTORS
330
3ED
102
}
102
{ACAD_XDICTIONARY
360
431
102
}
330
3ED
100
AcDbVisualStyle
  2
ColorChange
 70
    16
 71
     2
 72
     2
 73
     3
 90
        0
 40
0.6
 41
30.0
 62
     5
 63
     8
421
  8421504
 74
     1
 91
        4
 64
     7
 65
   257
 75
     1
175
     1
 42
1.0
 92
        8
 66
     8
424
  8421504
 43
1.0
 76
     1
 77
     6
 78
     2
 67
     7
 79
     5
170
     0
171
     0
290
     0
174
     0
 93
        1
 44
0.0
173
     0
291
     1
 45
0.0
1001
ACAD
1000
AcDbSavedByObjectVersion
1070
     0
  0
VISUALSTYLE
  5
3F7
102
{ACAD_REACTORS
330
3ED
102
}
102
{ACAD_XDICTIONARY
360
425
102
}
330
3ED
100
AcDbVisualStyle
  2
Conceptual
 70
     9
 71
     3
 72
     2
 73
     0
 90
        0
 40
0.6
 41
30.0
 62
     5
 63
     7
421
 16777215
 74
     2
 91
        2
 64
     7
 65
   257
 75
     1
175
     1
 42
179.0
 92
        8
 66
     7
 43
1.0
 76
     1
 77
     6
 78
     2
 67
     7
 79
     3
170
     0
171
     0
290
     0
174
     0
 93
        1
 44
0.0
173
     0
291
     0
 45
0.0
1001
ACAD
1000
AcDbSavedByObjectVersion
1070
     0
  0
VISUALSTYLE
  5
3F8
102
{ACAD_REACTORS
330
3ED
102
}
102
{ACAD_XDICTIONARY
360
427
102
}
330
3ED
100
AcDbVisualStyle
  2
Dim
 70
    11
 71
     2
 72
     2
 73
     0
 90
        0
 40
0.6
 41
30.0
 62
     5
 63
     7
421
 16777215
 74
     1
 91
        4
 64
     7
 65
   257
 75
     1
175
     1
 42
1.0
 92
        8
 66
     7
 43
1.0
 76
     1
 77
     6
 78
     2
 67
     7
 79
     5
170
     0
171
     0
290
     0
174
     0
 93
        1
 44
-50.0
173
     0
291
     1
 45
0.0
1001
ACAD
1000
AcDbSavedByObjectVersion
1070
     0
  0
VISUALSTYLE
  5
400
102
{ACAD_REACTORS
330
3ED
102
}
102
{ACAD_XDICTIONARY
360
437
102
}
330
3ED
100
AcDbVisualStyle
  2
EdgeColorOff
 70
    22
 71
     2
 72
     2
 73
     0
 90
        0
 40
0.6
 41
30.0
 62
     5
 63
     7
421
 16777215
 74
     1
 91
        4
 64
     7
 65
   257
 75
     1
175
     1
 42
1.0
 92
        8
 66
     7
 43
1.0
 76
     1
 77
     6
 78
     2
 67
     7
 79
     5
170
     0
171
     0
290
     0
174
     0
 93
        1
 44
0.0
173
     0
291
     1
 45
0.0
1001
ACAD
1000
AcDbSavedByObjectVersion
1070
     0
  0
VISUALSTYLE
  5
3FC
102
{ACAD_REACTORS
330
3ED
102
}
102
{ACAD_XDICTIONARY
360
42F
102
}
330
3ED
100
AcDbVisualStyle
  2
Facepattern
 70
    15
 71
     2
 72
     2
 73
     0
 90
        0
 40
0.6
 41
30.0
 62
     5
 63
     7
421
 16777215
 74
     1
 91
        4
 64
     7
 65
   257
 75
     1
175
     1
 42
1.0
 92
        8
 66
     7
 43
1.0
 76
     1
 77
     6
 78
     2
 67
     7
 79
     5
170
     0
171
     0
290
     0
174
     0
 93
        1
 44
0.0
173
     0
291
     1
 45
0.0
1001
ACAD
1000
AcDbSavedByObjectVersion
1070
     0
  0
VISUALSTYLE
  5
3EE
102
{ACAD_REACTORS
330
3ED
102
}
102
{ACAD_XDICTIONARY
360
413
102
}
330
3ED
100
AcDbVisualStyle
  2
Flat
 70
     0
 71
     2
 72
     1
 73
     1
 90
        2
 40
0.6
 41
30.0
 62
     5
 63
     7
421
 16777215
 74
     0
 91
        0
 64
     7
 65
   257
 75
     1
175
     1
 42
1.0
 92
        8
 66
     7
 43
1.0
 76
     1
 77
     6
 78
     2
 67
     7
 79
     5
170
     0
171
     0
290
     0
174
     0
 93
       13
 44
0.0
173
     0
291
     1
 45
0.0
1001
ACAD
1000
AcDbSavedByObjectVersion
1070
     0
  0
VISUALSTYLE
  5
3EF
102
{ACAD_REACTORS
330
3ED
102
}
102
{ACAD_XDICTIONARY
360
415
102
}
330
3ED
100
AcDbVisualStyle
  2
FlatWithEdges
 70
     1
 71
     2
 72
     1
 73
     1
 90
        2
 40
0.6
 41
30.0
 62
     5
 63
     7
421
 16777215
 74
     1
 91
        0
 64
     7
 65
   257
 75
     1
175
     1
 42
1.0
 92
        0
 66
   257
 43
1.0
 76
     1
 77
     6
 78
     2
 67
     7
 79
     5
170
     0
171
     0
290
     0
174
     0
 93
       13
 44
0.0
173
     0
291
     1
 45
0.0
1001
ACAD
1000
AcDbSavedByObjectVersion
1070
     0
  0
VISUALSTYLE
  5
3F0
102
{ACAD_REACTORS
330
3ED
102
}
102
{ACAD_XDICTIONARY
360
417
102
}
330
3ED
100
AcDbVisualStyle
  2
Gouraud
 70
     2
 71
     2
 72
     2
 73
     1
 90
        2
 40
0.6
 41
30.0
 62
     5
 63
     7
421
 16777215
 74
     0
 91
        0
 64
     7
 65
   257
 75
     1
175
     1
 42
1.0
 92
        0
 66
     7
 43
1.0
 76
     1
 77
     6
 78
     2
 67
     7
 79
     5
170
     0
171
     0
290
     0
174
     0
 93
       13
 44
0.0
173
     0
291
     1
 45
0.0
1001
ACAD
1000
AcDbSavedByObjectVersion
1070
     0
  0
VISUALSTYLE
  5
3F1
102
{ACAD_REACTORS
330
3ED
102
}
102
{ACAD_XDICTIONARY
360
419
102
}
330
3ED
100
AcDbVisualStyle
  2
GouraudWithEdges
 70
     3
 71
     2
 72
     2
 73
     1
 90
        2
 40
0.6
 41
30.0
 62
     5
 63
     7
421
 16777215
 74
     1
 91
        0
 64
     7
 65
   257
 75
     1
175
     1
 42
1.0
 92
        0
 66
   257
 43
1.0
 76
     1
 77
     6
 78
     2
 67
     7
 79
     5
170
     0
171
     0
290
     0
174
     0
 93
       13
 44
0.0
173
     0
291
     1
 45
0.0
1001
ACAD
1000
AcDbSavedByObjectVersion
1070
     0
  0
VISUALSTYLE
  5
3F4
102
{ACAD_REACTORS
330
3ED
102
}
102
{ACAD_XDICTIONARY
360
41F
102
}
330
3ED
100
AcDbVisualStyle
  2
Hidden
 70
     6
 71
     1
 72
     2
 73
     2
 90
        0
 40
0.6
 41
30.0
 62
     5
 63
     7
421
 16777215
 74
     2
 91
        2
 64
     7
 65
   257
 75
     2
175
     1
 42
40.0
 92
        0
 66
   257
 43
1.0
 76
     1
 77
     6
 78
     2
 67
     7
 79
     3
170
     0
171
     0
290
     0
174
     0
 93
        1
 44
0.0
173
     0
291
     0
 45
0.0
1001
ACAD
1000
AcDbSavedByObjectVersion
1070
     0
  0
VISUALSTYLE
  5
3FE
102
{ACAD_REACTORS
330
3ED
102
}
102
{ACAD_XDICTIONARY
360
433
102
}
330
3ED
100
AcDbVisualStyle
  2
JitterOff
 70
    20
 71
     2
 72
     2
 73
     0
 90
        0
 40
0.6
 41
30.0
 62
     5
 63
     7
421
 16777215
 74
     1
 91
        4
 64
     7
 65
   257
 75
     1
175
     1
 42
1.0
 92
       10
 66
     7
 43
1.0
 76
     1
 77
     6
 78
     2
 67
     7
 79
     5
170
     0
171
     0
290
     0
174
     0
 93
        1
 44
0.0
173
     0
291
     1
 45
0.0
1001
ACAD
1000
AcDbSavedByObjectVersion
1070
     0
  0
VISUALSTYLE
  5
3FB
102
{ACAD_REACTORS
330
3ED
102
}
102
{ACAD_XDICTIONARY
360
42D
102
}
330
3ED
100
AcDbVisualStyle
  2
Linepattern
 70
    14
 71
     2
 72
     2
 73
     0
 90
        0
 40
0.6
 41
30.0
 62
     5
 63
     7
421
 16777215
 74
     1
 91
        4
 64
     7
 65
   257
 75
     7
175
     7
 42
1.0
 92
        8
 66
     7
 43
1.0
 76
     1
 77
     6
 78
     2
 67
     7
 79
     5
170
     0
171
     0
290
     0
174
     0
 93
        1
 44
0.0
173
     0
291
     1
 45
0.0
1001
ACAD
1000
AcDbSavedByObjectVersion
1070
     0
  0
VISUALSTYLE
  5
3FF
102
{ACAD_REACTORS
330
3ED
102
}
102
{ACAD_XDICTIONARY
360
435
102
}
330
3ED
100
AcDbVisualStyle
  2
OverhangOff
 70
    21
 71
     2
 72
     2
 73
     0
 90
        0
 40
0.6
 41
30.0
 62
     5
 63
     7
421
 16777215
 74
     1
 91
        4
 64
     7
 65
   257
 75
     1
175
     1
 42
1.0
 92
        9
 66
     7
 43
1.0
 76
     1
 77
     6
 78
     2
 67
     7
 79
     5
170
     0
171
     0
290
     0
174
     0
 93
        1
 44
0.0
173
     0
291
     1
 45
0.0
1001
ACAD
1000
AcDbSavedByObjectVersion
1070
     0
  0
VISUALSTYLE
  5
3F6
102
{ACAD_REACTORS
330
3ED
102
}
102
{ACAD_XDICTIONARY
360
423
102
}
330
3ED
100
AcDbVisualStyle
  2
Realistic
 70
     8
 71
     2
 72
     3
 73
     0
 90
        2
 40
0.6
 41
30.0
 62
     5
 63
     7
421
 16777215
 74
     0
 91
        0
 64
     7
 65
   257
 75
     1
175
     1
 42
1.0
 92
        8
 66
   257
 43
1.0
 76
     1
 77
     6
 78
     2
 67
     7
 79
     3
170
     0
171
     0
290
     0
174
     0
 93
       13
 44
0.0
173
     0
291
     0
 45
0.0
1001
ACAD
1000
AcDbSavedByObjectVersion
1070
     0
  0
VISUALSTYLE
  5
405
102
{ACAD_REACTORS
330
3ED
102
}
102
{ACAD_XDICTIONARY
360
441
102
}
330
3ED
100
AcDbVisualStyle
  2
Shaded
 70
    27
 71
     2
 72
     2
 73
     1
 90
        2
 40
0.6
 41
30.0
 62
     5
 63
     7
421
 16777215
 74
     0
 91
        4
 64
     7
 65
   257
 75
     1
175
     1
 42
1.0
 92
        8
 66
   257
 43
1.0
 76
     1
 77
     6
 78
     2
 67
     8
425
  7895160
 79
     3
170
     0
171
     0
290
     0
174
     0
 93
        5
 44
0.0
173
     0
291
     0
 45
0.0
1001
ACAD
1000
AcDbSavedByObjectVersion
1070
     0
  0
VISUALSTYLE
  5
404
102
{ACAD_REACTORS
330
3ED
102
}
102
{ACAD_XDICTIONARY
360
43F
102
}
330
3ED
100
AcDbVisualStyle
  2
Shaded with edges
 70
    26
 71
     2
 72
     2
 73
     1
 90
        2
 40
0.6
 41
30.0
 62
     5
 63
     7
421
 16777215
 74
     1
 91
       10
 64
     7
 65
   257
 75
     2
175
     1
 42
1.0
 92
        8
 66
   257
 43
1.0
 76
     1
 77
     6
 78
     2
 67
     7
 79
     3
170
     0
171
     0
290
     0
174
     0
 93
        5
 44
0.0
173
     0
291
     0
 45
0.0
1001
ACAD
1000
AcDbSavedByObjectVersion
1070
     0
  0
VISUALSTYLE
  5
401
102
{ACAD_REACTORS
330
3ED
102
}
102
{ACAD_XDICTIONARY
360
439
102
}
330
3ED
100
AcDbVisualStyle
  2
Shades of Gray
 70
    23
 71
     2
 72
     2
 73
     3
 90
        0
 40
0.6
 41
30.0
 62
     5
 63
     7
421
 16777215
 74
     2
 91
        2
 64
     7
 65
     7
 75
     1
175
     1
 42
40.0
 92
        8
 66
     7
 43
1.0
 76
     1
 77
     6
 78
     2
 67
     7
 79
     3
170
     0
171
     0
290
     0
174
     0
 93
        1
 44
0.0
173
     0
291
     0
 45
0.0
1001
ACAD
1000
AcDbSavedByObjectVersion
1070
     0
  0
VISUALSTYLE
  5
402
102
{ACAD_REACTORS
330
3ED
102
}
102
{ACAD_XDICTIONARY
360
43B
102
}
330
3ED
100
AcDbVisualStyle
  2
Sketchy
 70
    24
 71
     1
 72
     2
 73
     2
 90
        0
 40
0.6
 41
30.0
 62
     5
 63
     7
421
 16777215
 74
     2
 91
        2
 64
     7
 65
     7
 75
     1
175
     1
 42
40.0
 92
       11
 66
     7
 43
1.0
 76
     1
 77
     6
 78
     2
 67
     7
 79
     6
170
     0
171
     0
290
     0
174
     0
 93
        1
 44
0.0
173
     0
291
     0
 45
0.0
1001
ACAD
1000
AcDbSavedByObjectVersion
1070
     0
  0
VISUALSTYLE
  5
3FA
102
{ACAD_REACTORS
330
3ED
102
}
102
{ACAD_XDICTIONARY
360
42B
102
}
330
3ED
100
AcDbVisualStyle
  2
Thicken
 70
    13
 71
     2
 72
     2
 73
     0
 90
        0
 40
0.6
 41
30.0
 62
     5
 63
     7
421
 16777215
 74
     1
 91
        4
 64
     7
 65
   257
 75
     1
175
     1
 42
1.0
 92
       12
 66
     7
 43
1.0
 76
     1
 77
     6
 78
     2
 67
     7
 79
     5
170
     0
171
     0
290
     0
174
     0
 93
        1
 44
0.0
173
     0
291
     1
 45
0.0
1001
ACAD
1000
AcDbSavedByObjectVersion
1070
     0
  0
VISUALSTYLE
  5
3F3
102
{ACAD_REACTORS
330
3ED
102
}
102
{ACAD_XDICTIONARY
360
41D
102
}
330
3ED
100
AcDbVisualStyle
  2
Wireframe
 70
     5
 71
     0
 72
     2
 73
     0
 90
        0
 40
0.6
 41
30.0
 62
     5
 63
     7
421
 16777215
 74
     1
 91
        4
 64
     7
 65
   257
 75
     1
175
     1
 42
1.0
 92
        0
 66
   257
 43
1.0
 76
     1
 77
     6
 78
     2
 67
     7
 79
     3
170
     0
171
     0
290
     0
174
     0
 93
        1
 44
0.0
173
     0
291
     0
 45
0.0
1001
ACAD
1000
AcDbSavedByObjectVersion
1070
     0
  0
VISUALSTYLE
  5
403
102
{ACAD_REACTORS
330
3ED
102
}
102
{ACAD_XDICTIONARY
360
43D
102
}
330
3ED
100
AcDbVisualStyle
  2
X-Ray
 70
    25
 71
     2
 72
     2
 73
     1
 90
        1
 40
0.5
 41
30.0
 62
     5
 63
     7
421
 16777215
 74
     1
 91
        0
 64
     7
 65
   257
 75
     1
175
     1
 42
1.0
 92
        8
 66
     7
 43
1.0
 76
     1
 77
     6
 78
     2
 67
     7
 79
     3
170
     0
171
     0
290
     0
174
     0
 93
       13
 44
0.0
173
     0
291
     0
 45
0.0
1001
ACAD
1000
AcDbSavedByObjectVersion
1070
     0
  0
DICTIONARYVAR
  5
411
102
{ACAD_REACTORS
330
410
102
}
330
410
100
DictionaryVariables
280
     0
  1
1:1
  0
DICTIONARYVAR
  5
451
102
{ACAD_REACTORS
330
410
102
}
330
410
100
DictionaryVariables
280
     0
  1
Standard
  0
DICTIONARYVAR
  5
450
102
{ACAD_REACTORS
330
410
102
}
330
410
100
DictionaryVariables
280
     0
  1
Standard
  0
DICTIONARYVAR
  5
452
102
{ACAD_REACTORS
330
410
102
}
330
410
100
DictionaryVariables
280
     0
  1
0
  0
DICTIONARYVAR
  5
412
102
{ACAD_REACTORS
330
410
102
}
330
410
100
DictionaryVariables
280
     0
  1
2
  0
DICTIONARY
  5
445
330
408
100
AcDbDictionary
280
     1
281
     1
  3
ACAD_XREC_ROUNDTRIP
360
446
  0
DICTIONARY
  5
443
330
407
100
AcDbDictionary
280
     1
281
     1
  3
ACAD_XREC_ROUNDTRIP
360
444
  0
DICTIONARY
  5
447
330
409
100
AcDbDictionary
280
     1
281
     1
  3
ACAD_XREC_ROUNDTRIP
360
448
  0
DICTIONARY
  5
44D
330
40D
100
AcDbDictionary
280
     1
281
     1
  3
ACAD_XREC_ROUNDTRIP
360
44E
  0
DICTIONARY
  5
449
330
40B
100
AcDbDictionary
280
     1
281
     1
  3
ACAD_ROUNDTRIP_2008_TABLESTYLE_CELLSTYLEMAP
360
44B
  3
ACAD_XREC_ROUNDTRIP
360
44A
  0
DICTIONARY
  5
41B
330
3F2
100
AcDbDictionary
280
     1
281
     1
  3
ACAD_XREC_ROUNDTRIP
360
41C
  0
DICTIONARY
  5
421
330
3F5
100
AcDbDictionary
280
     1
281
     1
  3
ACAD_XREC_ROUNDTRIP
360
422
  0
DICTIONARY
  5
429
330
3F9
100
AcDbDictionary
280
     1
281
     1
  3
ACAD_XREC_ROUNDTRIP
360
42A
  0
DICTIONARY
  5
431
330
3FD
100
AcDbDictionary
280
     1
281
     1
  3
ACAD_XREC_ROUNDTRIP
360
432
  0
DICTIONARY
  5
425
330
3F7
100
AcDbDictionary
280
     1
281
     1
  3
ACAD_XREC_ROUNDTRIP
360
426
  0
DICTIONARY
  5
427
330
3F8
100
AcDbDictionary
280
     1
281
     1
  3
ACAD_XREC_ROUNDTRIP
360
428
  0
DICTIONARY
  5
437
330
400
100
AcDbDictionary
280
     1
281
     1
  3
ACAD_XREC_ROUNDTRIP
360
438
  0
DICTIONARY
  5
42F
330
3FC
100
AcDbDictionary
280
     1
281
     1
  3
ACAD_XREC_ROUNDTRIP
360
430
  0
DICTIONARY
  5
413
330
3EE
100
AcDbDictionary
280
     1
281
     1
  3
ACAD_XREC_ROUNDTRIP
360
414
  0
DICTIONARY
  5
415
330
3EF
100
AcDbDictionary
280
     1
281
     1
  3
ACAD_XREC_ROUNDTRIP
360
416
  0
DICTIONARY
  5
417
330
3F0
100
AcDbDictionary
280
     1
281
     1
  3
ACAD_XREC_ROUNDTRIP
360
418
  0
DICTIONARY
  5
419
330
3F1
100
AcDbDictionary
280
     1
281
     1
  3
ACAD_XREC_ROUNDTRIP
360
41A
  0
DICTIONARY
  5
41F
330
3F4
100
AcDbDictionary
280
     1
281
     1
  3
ACAD_XREC_ROUNDTRIP
360
420
  0
DICTIONARY
  5
433
330
3FE
100
AcDbDictionary
280
     1
281
     1
  3
ACAD_XREC_ROUNDTRIP
360
434
  0
DICTIONARY
  5
42D
330
3FB
100
AcDbDictionary
280
     1
281
     1
  3
ACAD_XREC_ROUNDTRIP
360
42E
  0
DICTIONARY
  5
435
330
3FF
100
AcDbDictionary
280
     1
281
     1
  3
ACAD_XREC_ROUNDTRIP
360
436
  0
DICTIONARY
  5
423
330
3F6
100
AcDbDictionary
280
     1
281
     1
  3
ACAD_XREC_ROUNDTRIP
360
424
  0
DICTIONARY
  5
441
330
405
100
AcDbDictionary
280
     1
281
     1
  3
ACAD_XREC_ROUNDTRIP
360
442
  0
DICTIONARY
  5
43F
330
404
100
AcDbDictionary
280
     1
281
     1
  3
ACAD_XREC_ROUNDTRIP
360
440
  0
DICTIONARY
  5
439
330
401
100
AcDbDictionary
280
     1
281
     1
  3
ACAD_XREC_ROUNDTRIP
360
43A
  0
DICTIONARY
  5
43B
330
402
100
AcDbDictionary
280
     1
281
     1
  3
ACAD_XREC_ROUNDTRIP
360
43C
  0
DICTIONARY
  5
42B
330
3FA
100
AcDbDictionary
280
     1
281
     1
  3
ACAD_XREC_ROUNDTRIP
360
42C
  0
DICTIONARY
  5
41D
330
3F3
100
AcDbDictionary
280
     1
281
     1
  3
ACAD_XREC_ROUNDTRIP
360
41E
  0
DICTIONARY
  5
43D
330
403
100
AcDbDictionary
280
     1
281
     1
  3
ACAD_XREC_ROUNDTRIP
360
43E
  0
XRECORD
  5
446
102
{ACAD_REACTORS
330
445
102
}
330
445
100
AcDbXrecord
280
     1
102
MATERIAL
148
0.0
149
0.0
149
0.0
 93
        0
 94
      127
282
     0
 72
     1
 77
     1
171
     1
175
     1
179
     1
273
     0
  0
XRECORD
  5
444
102
{ACAD_REACTORS
330
443
102
}
330
443
100
AcDbXrecord
280
     1
102
MATERIAL
148
0.0
149
0.0
149
0.0
 93
        0
 94
      127
282
     0
 72
     1
 77
     1
171
     1
175
     1
179
     1
273
     0
  0
XRECORD
  5
448
102
{ACAD_REACTORS
330
447
102
}
330
447
100
AcDbXrecord
280
     1
102
MATERIAL
148
0.0
149
0.0
149
0.0
 93
        0
 94
      127
282
     0
 72
     1
 77
     1
171
     1
175
     1
179
     1
273
     0
  0
XRECORD
  5
44E
102
{ACAD_REACTORS
330
44D
102
}
330
44D
100
AcDbXrecord
280
     1
102
ACAD_ROUNDTRIP_2010_MLEADER_STYLE
  0
CELLSTYLEMAP
  5
44B
102
{ACAD_REACTORS
330
449
102
}
330
449
100
AcDbCellStyleMap
 90
        3
300
CELLSTYLE
  1
TABLEFORMAT_BEGIN
 90
        5
170
     1
 91
        0
 92
    32768
 62
   257
 93
        1
300
CONTENTFORMAT
  1
CONTENTFORMAT_BEGIN
 90
        0
 91
        0
 92
        4
 93
        0
300

 40
0.0
140
1.0
 94
        5
 62
     0
340
15E
144
6.0
309
CONTENTFORMAT_END
171
     1
301
MARGIN
  1
CELLMARGIN_BEGIN
 40
1.5
 40
1.5
 40
1.5
 40
1.5
 40
1.5
 40
1.5
309
CELLMARGIN_END
 94
        6
 95
        1
302
GRIDFORMAT
  1
GRIDFORMAT_BEGIN
 90
        0
 91
        1
 62
     0
 92
       -2
340
4
 93
        0
 40
0.045
309
GRIDFORMAT_END
 95
        2
302
GRIDFORMAT
  1
GRIDFORMAT_BEGIN
 90
        0
 91
        1
 62
     0
 92
       -2
340
4
 93
        0
 40
0.045
309
GRIDFORMAT_END
 95
        4
302
GRIDFORMAT
  1
GRIDFORMAT_BEGIN
 90
        0
 91
        1
 62
     0
 92
       -2
340
4
 93
        0
 40
0.045
309
GRIDFORMAT_END
 95
        8
302
GRIDFORMAT
  1
GRIDFORMAT_BEGIN
 90
        0
 91
        1
 62
     0
 92
       -2
340
4
 93
        0
 40
0.045
309
GRIDFORMAT_END
 95
       16
302
GRIDFORMAT
  1
GRIDFORMAT_BEGIN
 90
        0
 91
        1
 62
     0
 92
       -2
340
4
 93
        0
 40
0.045
309
GRIDFORMAT_END
 95
       32
302
GRIDFORMAT
  1
GRIDFORMAT_BEGIN
 90
        0
 91
        1
 62
     0
 92
       -2
340
4
 93
        0
 40
0.045
309
GRIDFORMAT_END
309
TABLEFORMAT_END
  1
CELLSTYLE_BEGIN
 90
        1
 91
        1
300
_TITLE
309
CELLSTYLE_END
300
CELLSTYLE
  1
TABLEFORMAT_BEGIN
 90
        5
170
     1
 91
        0
 92
        0
 62
   257
 93
        1
300
CONTENTFORMAT
  1
CONTENTFORMAT_BEGIN
 90
        0
 91
        0
 92
        4
 93
        0
300

 40
0.0
140
1.0
 94
        5
 62
     0
340
15E
144
4.5
309
CONTENTFORMAT_END
171
     1
301
MARGIN
  1
CELLMARGIN_BEGIN
 40
1.5
 40
1.5
 40
1.5
 40
1.5
 40
1.5
 40
1.5
309
CELLMARGIN_END
 94
        6
 95
        1
302
GRIDFORMAT
  1
GRIDFORMAT_BEGIN
 90
        0
 91
        1
 62
     0
 92
       -2
340
4
 93
        0
 40
0.045
309
GRIDFORMAT_END
 95
        2
302
GRIDFORMAT
  1
GRIDFORMAT_BEGIN
 90
        0
 91
        1
 62
     0
 92
       -2
340
4
 93
        0
 40
0.045
309
GRIDFORMAT_END
 95
        4
302
GRIDFORMAT
  1
GRIDFORMAT_BEGIN
 90
        0
 91
        1
 62
     0
 92
       -2
340
4
 93
        0
 40
0.045
309
GRIDFORMAT_END
 95
        8
302
GRIDFORMAT
  1
GRIDFORMAT_BEGIN
 90
        0
 91
        1
 62
     0
 92
       -2
340
4
 93
        0
 40
0.045
309
GRIDFORMAT_END
 95
       16
302
GRIDFORMAT
  1
GRIDFORMAT_BEGIN
 90
        0
 91
        1
 62
     0
 92
       -2
340
4
 93
        0
 40
0.045
309
GRIDFORMAT_END
 95
       32
302
GRIDFORMAT
  1
GRIDFORMAT_BEGIN
 90
        0
 91
        1
 62
     0
 92
       -2
340
4
 93
        0
 40
0.045
309
GRIDFORMAT_END
309
TABLEFORMAT_END
  1
CELLSTYLE_BEGIN
 90
        2
 91
        1
300
_HEADER
309
CELLSTYLE_END
300
CELLSTYLE
  1
TABLEFORMAT_BEGIN
 90
        5
170
     1
 91
        0
 92
        0
 62
   257
 93
        1
300
CONTENTFORMAT
  1
CONTENTFORMAT_BEGIN
 90
        0
 91
        0
 92
        4
 93
        0
300

 40
0.0
140
1.0
 94
        2
 62
     0
340
15E
144
4.5
309
CONTENTFORMAT_END
171
     1
301
MARGIN
  1
CELLMARGIN_BEGIN
 40
1.5
 40
1.5
 40
1.5
 40
1.5
 40
1.5
 40
1.5
309
CELLMARGIN_END
 94
        6
 95
        1
302
GRIDFORMAT
  1
GRIDFORMAT_BEGIN
 90
        0
 91
        1
 62
     0
 92
       -2
340
4
 93
        0
 40
0.045
309
GRIDFORMAT_END
 95
        2
302
GRIDFORMAT
  1
GRIDFORMAT_BEGIN
 90
        0
 91
        1
 62
     0
 92
       -2
340
4
 93
        0
 40
0.045
309
GRIDFORMAT_END
 95
        4
302
GRIDFORMAT
  1
GRIDFORMAT_BEGIN
 90
        0
 91
        1
 62
     0
 92
       -2
340
4
 93
        0
 40
0.045
309
GRIDFORMAT_END
 95
        8
302
GRIDFORMAT
  1
GRIDFORMAT_BEGIN
 90
        0
 91
        1
 62
     0
 92
       -2
340
4
 93
        0
 40
0.045
309
GRIDFORMAT_END
 95
       16
302
GRIDFORMAT
  1
GRIDFORMAT_BEGIN
 90
        0
 91
        1
 62
     0
 92
       -2
340
4
 93
        0
 40
0.045
309
GRIDFORMAT_END
 95
       32
302
GRIDFORMAT
  1
GRIDFORMAT_BEGIN
 90
        0
 91
        1
 62
     0
 92
       -2
340
4
 93
        0
 40
0.045
309
GRIDFORMAT_END
309
TABLEFORMAT_END
  1
CELLSTYLE_BEGIN
 90
        3
 91
        2
300
_DATA
309
CELLSTYLE_END
  0
XRECORD
  5
44A
102
{ACAD_REACTORS
330
449
102
}
330
449
100
AcDbXrecord
280
     1
102
ACAD_ROUNDTRIP_PRE2007_TABLESTYLE
 90
        4
 91
        0
  1

 92
        4
 93
        0
  2

 94
        4
 95
        0
  3

  0
XRECORD
  5
41C
102
{ACAD_REACTORS
330
41B
102
}
330
41B
100
AcDbXrecord
280
     1
102
RTVSPropertyOp0
 70
     1
102
RTVSPropertyOp1
 70
     1
102
RTVSPropertyOp2
 70
     1
102
RTVSPropertyOp3
 70
     1
102
RTVSPropertyOp4
 70
     1
102
RTVSPropertyOp5
 70
     1
102
RTVSPropertyOp6
 70
     1
102
RTVSPropertyOp7
 70
     1
102
RTVSPropertyOp8
 70
     1
102
RTVSPropertyOp9
 70
     1
102
RTVSPropertyOp10
 70
     1
102
RTVSPropertyOp11
 70
     1
102
RTVSPropertyOp12
 70
     1
102
RTVSPropertyOp13
 70
     1
102
RTVSPropertyOp14
 70
     1
102
RTVSPropertyOp15
 70
     1
102
RTVSPropertyOp16
 70
     1
102
RTVSPropertyOp17
 70
     1
102
RTVSPropertyOp18
 70
     1
102
RTVSPropertyOp19
 70
     1
102
RTVSPropertyOp20
 70
     1
102
RTVSPropertyOp21
 70
     1
102
RTVSPropertyOp22
 70
     1
102
RTVSPropertyOp23
 70
     1
102
RTVSPropertyOp24
 70
     1
102
RTVSPropertyOp25
 70
     1
102
RTVSPropertyOp26
 70
     1
102
RTVSPropertyOp27
 70
     1
102
RTVSPropertyOp28
 70
     1
102
RTVSPropertyOp29
 70
     1
102
RTVSPropertyOp30
 70
     1
102
RTVSPropertyOp31
 70
     1
102
RTVSPropertyOp32
 70
     1
102
RTVSPropertyOp33
 70
     1
102
RTVSPropertyOp34
 70
     1
102
RTVSPropertyOp35
 70
     1
102
RTVSPropertyOp36
 70
     1
102
RTVSPropertyOp37
 70
     1
102
RTVSPropertyOp38
 70
     1
102
RTVSPropertyOp39
 70
     1
102
RTVSPropertyOp40
 70
     1
102
RTVSPropertyOp41
 70
     1
102
RTVSPropertyOp42
 70
     1
102
RTVSPropertyOp43
 70
     1
102
RTVSPropertyOp44
 70
     1
102
RTVSPropertyOp45
 70
     1
102
RTVSPropertyOp46
 70
     1
102
RTVSPropertyOp47
 70
     1
102
RTVSPropertyOp48
 70
     1
102
RTVSPropertyOp49
 70
     1
102
RTVSPropertyOp50
 70
     1
102
RTVSPropertyOp51
 70
     0
102
RTVSPropertyOp52
 70
     0
102
RTVSPropertyOp53
 70
     1
102
RTVSPropertyOp54
 70
     1
102
RTVSPropertyOp55
 70
     1
102
RTVSPropertyOp56
 70
     1
102
RTVSPropertyOp57
 70
     1
102
RTVSPost2010Prop28
280
     1
102
RTVSPost2010PropOp28
 70
     1
102
RTVSPost2010Prop29
280
     1
102
RTVSPost2010PropOp29
 70
     1
102
RTVSPost2010Prop30
280
     0
102
RTVSPost2010PropOp30
 70
     1
102
RTVSPost2010Prop31
280
     0
102
RTVSPost2010PropOp31
 70
     1
102
RTVSPost2010Prop32
280
     0
102
RTVSPost2010PropOp32
 70
     1
102
RTVSPost2010Prop33
280
     0
102
RTVSPost2010PropOp33
 70
     1
102
RTVSPost2010Prop34
280
     0
102
RTVSPost2010PropOp34
 70
     1
102
RTVSPost2010Prop35
280
     0
102
RTVSPost2010PropOp35
 70
     1
102
RTVSPost2010Prop36
280
     0
102
RTVSPost2010PropOp36
 70
     1
102
RTVSPost2010Prop37
 90
       50
102
RTVSPost2010PropOp37
 70
     1
102
RTVSPost2010Prop38
140
0.0
102
RTVSPost2010PropOp38
 70
     1
102
RTVSPost2010Prop39
140
1.0
102
RTVSPost2010PropOp39
 70
     1
102
RTVSPost2010Prop40
 90
        0
102
RTVSPost2010PropOp40
 70
     1
102
RTVSPost2010Prop41ColorIndex
 90
       18
102
RTVSPost2010Prop41ColorRGB
 90
        0
102
RTVSPost2010PropOp41
 70
     1
102
RTVSPost2010Prop42
 90
       50
102
RTVSPost2010PropOp42
 70
     1
102
RTVSPost2010Prop43
 90
        3
102
RTVSPost2010PropOp43
 70
     1
102
RTVSPost2010Prop44ColorIndex
 90
        5
102
RTVSPost2010Prop44ColorRGB
 90
      255
102
RTVSPost2010PropOp44
 70
     1
102
RTVSPost2010Prop45
280
     0
102
RTVSPost2010PropOp45
 70
     1
102
RTVSPost2010Prop46
 90
       50
102
RTVSPost2010PropOp46
 70
     1
102
RTVSPost2010Prop47
 90
       50
102
RTVSPost2010PropOp47
 70
     1
102
RTVSPost2010Prop48
 90
       50
102
RTVSPost2010PropOp48
 70
     1
102
RTVSPost2010Prop49
280
     0
102
RTVSPost2010PropOp49
 70
     1
102
RTVSPost2010Prop50
 90
       50
102
RTVSPost2010PropOp50
 70
     1
102
RTVSPost2010Prop51ColorIndex
 90
      256
102
RTVSPost2010Prop51ColorRGB
 90
-16777216
102
RTVSPost2010PropOp51
 70
     0
102
RTVSPost2010Prop52
140
1.0
102
RTVSPost2010PropOp52
 70
     0
102
RTVSPost2010Prop53
 90
        2
102
RTVSPost2010PropOp53
 70
     1
102
RTVSPost2010Prop54
  1
strokes_ogs.tif
102
RTVSPost2010PropOp54
 70
     1
102
RTVSPost2010Prop55
280
     0
102
RTVSPost2010PropOp55
 70
     1
102
RTVSPost2010Prop56
140
1.0
102
RTVSPost2010PropOp56
 70
     1
102
RTVSPost2010Prop57
140
1.0
102
RTVSPost2010PropOp57
 70
     1
  0
XRECORD
  5
422
102
{ACAD_REACTORS
330
421
102
}
330
421
100
AcDbXrecord
280
     1
102
RTVSPropertyOp0
 70
     1
102
RTVSPropertyOp1
 70
     1
102
RTVSPropertyOp2
 70
     1
102
RTVSPropertyOp3
 70
     1
102
RTVSPropertyOp4
 70
     1
102
RTVSPropertyOp5
 70
     1
102
RTVSPropertyOp6
 70
     1
102
RTVSPropertyOp7
 70
     1
102
RTVSPropertyOp8
 70
     1
102
RTVSPropertyOp9
 70
     1
102
RTVSPropertyOp10
 70
     1
102
RTVSPropertyOp11
 70
     1
102
RTVSPropertyOp12
 70
     1
102
RTVSPropertyOp13
 70
     1
102
RTVSPropertyOp14
 70
     1
102
RTVSPropertyOp15
 70
     1
102
RTVSPropertyOp16
 70
     1
102
RTVSPropertyOp17
 70
     1
102
RTVSPropertyOp18
 70
     1
102
RTVSPropertyOp19
 70
     1
102
RTVSPropertyOp20
 70
     1
102
RTVSPropertyOp21
 70
     1
102
RTVSPropertyOp22
 70
     1
102
RTVSPropertyOp23
 70
     1
102
RTVSPropertyOp24
 70
     1
102
RTVSPropertyOp25
 70
     1
102
RTVSPropertyOp26
 70
     1
102
RTVSPropertyOp27
 70
     1
102
RTVSPropertyOp28
 70
     1
102
RTVSPropertyOp29
 70
     1
102
RTVSPropertyOp30
 70
     1
102
RTVSPropertyOp31
 70
     1
102
RTVSPropertyOp32
 70
     1
102
RTVSPropertyOp33
 70
     1
102
RTVSPropertyOp34
 70
     1
102
RTVSPropertyOp35
 70
     1
102
RTVSPropertyOp36
 70
     1
102
RTVSPropertyOp37
 70
     1
102
RTVSPropertyOp38
 70
     1
102
RTVSPropertyOp39
 70
     1
102
RTVSPropertyOp40
 70
     1
102
RTVSPropertyOp41
 70
     1
102
RTVSPropertyOp42
 70
     1
102
RTVSPropertyOp43
 70
     1
102
RTVSPropertyOp44
 70
     1
102
RTVSPropertyOp45
 70
     1
102
RTVSPropertyOp46
 70
     1
102
RTVSPropertyOp47
 70
     1
102
RTVSPropertyOp48
 70
     1
102
RTVSPropertyOp49
 70
     1
102
RTVSPropertyOp50
 70
     1
102
RTVSPropertyOp51
 70
     0
102
RTVSPropertyOp52
 70
     0
102
RTVSPropertyOp53
 70
     1
102
RTVSPropertyOp54
 70
     1
102
RTVSPropertyOp55
 70
     1
102
RTVSPropertyOp56
 70
     1
102
RTVSPropertyOp57
 70
     1
102
RTVSPost2010Prop28
280
     0
102
RTVSPost2010PropOp28
 70
     1
102
RTVSPost2010Prop29
280
     1
102
RTVSPost2010PropOp29
 70
     1
102
RTVSPost2010Prop30
280
     1
102
RTVSPost2010PropOp30
 70
     1
102
RTVSPost2010Prop31
280
     0
102
RTVSPost2010PropOp31
 70
     1
102
RTVSPost2010Prop32
280
     0
102
RTVSPost2010PropOp32
 70
     1
102
RTVSPost2010Prop33
280
     0
102
RTVSPost2010PropOp33
 70
     1
102
RTVSPost2010Prop34
280
     0
102
RTVSPost2010PropOp34
 70
     1
102
RTVSPost2010Prop35
280
     0
102
RTVSPost2010PropOp35
 70
     1
102
RTVSPost2010Prop36
280
     0
102
RTVSPost2010PropOp36
 70
     1
102
RTVSPost2010Prop37
 90
       50
102
RTVSPost2010PropOp37
 70
     1
102
RTVSPost2010Prop38
140
0.0
102
RTVSPost2010PropOp38
 70
     1
102
RTVSPost2010Prop39
140
1.0
102
RTVSPost2010PropOp39
 70
     1
102
RTVSPost2010Prop40
 90
        0
102
RTVSPost2010PropOp40
 70
     1
102
RTVSPost2010Prop41ColorIndex
 90
       18
102
RTVSPost2010Prop41ColorRGB
 90
        0
102
RTVSPost2010PropOp41
 70
     1
102
RTVSPost2010Prop42
 90
       50
102
RTVSPost2010PropOp42
 70
     1
102
RTVSPost2010Prop43
 90
        3
102
RTVSPost2010PropOp43
 70
     1
102
RTVSPost2010Prop44ColorIndex
 90
        5
102
RTVSPost2010Prop44ColorRGB
 90
      255
102
RTVSPost2010PropOp44
 70
     1
102
RTVSPost2010Prop45
280
     0
102
RTVSPost2010PropOp45
 70
     1
102
RTVSPost2010Prop46
 90
       50
102
RTVSPost2010PropOp46
 70
     1
102
RTVSPost2010Prop47
 90
       50
102
RTVSPost2010PropOp47
 70
     1
102
RTVSPost2010Prop48
 90
       50
102
RTVSPost2010PropOp48
 70
     1
102
RTVSPost2010Prop49
280
     0
102
RTVSPost2010PropOp49
 70
     1
102
RTVSPost2010Prop50
 90
       50
102
RTVSPost2010PropOp50
 70
     1
102
RTVSPost2010Prop51ColorIndex
 90
      256
102
RTVSPost2010Prop51ColorRGB
 90
-16777216
102
RTVSPost2010PropOp51
 70
     0
102
RTVSPost2010Prop52
140
1.0
102
RTVSPost2010PropOp52
 70
     0
102
RTVSPost2010Prop53
 90
        2
102
RTVSPost2010PropOp53
 70
     1
102
RTVSPost2010Prop54
  1
strokes_ogs.tif
102
RTVSPost2010PropOp54
 70
     1
102
RTVSPost2010Prop55
280
     0
102
RTVSPost2010PropOp55
 70
     1
102
RTVSPost2010Prop56
140
1.0
102
RTVSPost2010PropOp56
 70
     1
102
RTVSPost2010Prop57
140
1.0
102
RTVSPost2010PropOp57
 70
     1
  0
XRECORD
  5
42A
102
{ACAD_REACTORS
330
429
102
}
330
429
100
AcDbXrecord
280
     1
102
RTVSPropertyOp0
 70
     1
102
RTVSPropertyOp1
 70
     1
102
RTVSPropertyOp2
 70
     1
102
RTVSPropertyOp3
 70
     1
102
RTVSPropertyOp4
 70
     1
102
RTVSPropertyOp5
 70
     1
102
RTVSPropertyOp6
 70
     1
102
RTVSPropertyOp7
 70
     1
102
RTVSPropertyOp8
 70
     1
102
RTVSPropertyOp9
 70
     1
102
RTVSPropertyOp10
 70
     1
102
RTVSPropertyOp11
 70
     1
102
RTVSPropertyOp12
 70
     1
102
RTVSPropertyOp13
 70
     1
102
RTVSPropertyOp14
 70
     1
102
RTVSPropertyOp15
 70
     1
102
RTVSPropertyOp16
 70
     1
102
RTVSPropertyOp17
 70
     1
102
RTVSPropertyOp18
 70
     1
102
RTVSPropertyOp19
 70
     1
102
RTVSPropertyOp20
 70
     1
102
RTVSPropertyOp21
 70
     1
102
RTVSPropertyOp22
 70
     1
102
RTVSPropertyOp23
 70
     1
102
RTVSPropertyOp24
 70
     1
102
RTVSPropertyOp25
 70
     1
102
RTVSPropertyOp26
 70
     1
102
RTVSPropertyOp27
 70
     1
102
RTVSPropertyOp28
 70
     1
102
RTVSPropertyOp29
 70
     1
102
RTVSPropertyOp30
 70
     1
102
RTVSPropertyOp31
 70
     1
102
RTVSPropertyOp32
 70
     1
102
RTVSPropertyOp33
 70
     1
102
RTVSPropertyOp34
 70
     1
102
RTVSPropertyOp35
 70
     1
102
RTVSPropertyOp36
 70
     1
102
RTVSPropertyOp37
 70
     1
102
RTVSPropertyOp38
 70
     1
102
RTVSPropertyOp39
 70
     1
102
RTVSPropertyOp40
 70
     1
102
RTVSPropertyOp41
 70
     1
102
RTVSPropertyOp42
 70
     1
102
RTVSPropertyOp43
 70
     1
102
RTVSPropertyOp44
 70
     1
102
RTVSPropertyOp45
 70
     1
102
RTVSPropertyOp46
 70
     1
102
RTVSPropertyOp47
 70
     1
102
RTVSPropertyOp48
 70
     1
102
RTVSPropertyOp49
 70
     1
102
RTVSPropertyOp50
 70
     1
102
RTVSPropertyOp51
 70
     0
102
RTVSPropertyOp52
 70
     0
102
RTVSPropertyOp53
 70
     1
102
RTVSPropertyOp54
 70
     1
102
RTVSPropertyOp55
 70
     1
102
RTVSPropertyOp56
 70
     1
102
RTVSPropertyOp57
 70
     1
102
RTVSPost2010Prop28
280
     0
102
RTVSPost2010PropOp28
 70
     1
102
RTVSPost2010Prop29
280
     1
102
RTVSPost2010PropOp29
 70
     1
102
RTVSPost2010Prop30
280
     1
102
RTVSPost2010PropOp30
 70
     1
102
RTVSPost2010Prop31
280
     0
102
RTVSPost2010PropOp31
 70
     1
102
RTVSPost2010Prop32
280
     0
102
RTVSPost2010PropOp32
 70
     1
102
RTVSPost2010Prop33
280
     0
102
RTVSPost2010PropOp33
 70
     1
102
RTVSPost2010Prop34
280
     0
102
RTVSPost2010PropOp34
 70
     1
102
RTVSPost2010Prop35
280
     0
102
RTVSPost2010PropOp35
 70
     1
102
RTVSPost2010Prop36
280
     0
102
RTVSPost2010PropOp36
 70
     1
102
RTVSPost2010Prop37
 90
       50
102
RTVSPost2010PropOp37
 70
     1
102
RTVSPost2010Prop38
140
0.0
102
RTVSPost2010PropOp38
 70
     1
102
RTVSPost2010Prop39
140
1.0
102
RTVSPost2010PropOp39
 70
     1
102
RTVSPost2010Prop40
 90
        0
102
RTVSPost2010PropOp40
 70
     1
102
RTVSPost2010Prop41ColorIndex
 90
       18
102
RTVSPost2010Prop41ColorRGB
 90
        0
102
RTVSPost2010PropOp41
 70
     1
102
RTVSPost2010Prop42
 90
       50
102
RTVSPost2010PropOp42
 70
     1
102
RTVSPost2010Prop43
 90
        3
102
RTVSPost2010PropOp43
 70
     1
102
RTVSPost2010Prop44ColorIndex
 90
        5
102
RTVSPost2010Prop44ColorRGB
 90
      255
102
RTVSPost2010PropOp44
 70
     1
102
RTVSPost2010Prop45
280
     0
102
RTVSPost2010PropOp45
 70
     1
102
RTVSPost2010Prop46
 90
       50
102
RTVSPost2010PropOp46
 70
     1
102
RTVSPost2010Prop47
 90
       50
102
RTVSPost2010PropOp47
 70
     1
102
RTVSPost2010Prop48
 90
       50
102
RTVSPost2010PropOp48
 70
     1
102
RTVSPost2010Prop49
280
     0
102
RTVSPost2010PropOp49
 70
     1
102
RTVSPost2010Prop50
 90
       50
102
RTVSPost2010PropOp50
 70
     1
102
RTVSPost2010Prop51ColorIndex
 90
      256
102
RTVSPost2010Prop51ColorRGB
 90
-16777216
102
RTVSPost2010PropOp51
 70
     0
102
RTVSPost2010Prop52
140
1.0
102
RTVSPost2010PropOp52
 70
     0
102
RTVSPost2010Prop53
 90
        2
102
RTVSPost2010PropOp53
 70
     1
102
RTVSPost2010Prop54
  1
strokes_ogs.tif
102
RTVSPost2010PropOp54
 70
     1
102
RTVSPost2010Prop55
280
     0
102
RTVSPost2010PropOp55
 70
     1
102
RTVSPost2010Prop56
140
1.0
102
RTVSPost2010PropOp56
 70
     1
102
RTVSPost2010Prop57
140
1.0
102
RTVSPost2010PropOp57
 70
     1
  0
XRECORD
  5
432
102
{ACAD_REACTORS
330
431
102
}
330
431
100
AcDbXrecord
280
     1
102
RTVSPropertyOp0
 70
     1
102
RTVSPropertyOp1
 70
     1
102
RTVSPropertyOp2
 70
     1
102
RTVSPropertyOp3
 70
     1
102
RTVSPropertyOp4
 70
     1
102
RTVSPropertyOp5
 70
     1
102
RTVSPropertyOp6
 70
     1
102
RTVSPropertyOp7
 70
     1
102
RTVSPropertyOp8
 70
     1
102
RTVSPropertyOp9
 70
     1
102
RTVSPropertyOp10
 70
     1
102
RTVSPropertyOp11
 70
     1
102
RTVSPropertyOp12
 70
     1
102
RTVSPropertyOp13
 70
     1
102
RTVSPropertyOp14
 70
     1
102
RTVSPropertyOp15
 70
     1
102
RTVSPropertyOp16
 70
     1
102
RTVSPropertyOp17
 70
     1
102
RTVSPropertyOp18
 70
     1
102
RTVSPropertyOp19
 70
     1
102
RTVSPropertyOp20
 70
     1
102
RTVSPropertyOp21
 70
     1
102
RTVSPropertyOp22
 70
     1
102
RTVSPropertyOp23
 70
     1
102
RTVSPropertyOp24
 70
     1
102
RTVSPropertyOp25
 70
     1
102
RTVSPropertyOp26
 70
     1
102
RTVSPropertyOp27
 70
     1
102
RTVSPropertyOp28
 70
     1
102
RTVSPropertyOp29
 70
     1
102
RTVSPropertyOp30
 70
     1
102
RTVSPropertyOp31
 70
     1
102
RTVSPropertyOp32
 70
     1
102
RTVSPropertyOp33
 70
     1
102
RTVSPropertyOp34
 70
     1
102
RTVSPropertyOp35
 70
     1
102
RTVSPropertyOp36
 70
     1
102
RTVSPropertyOp37
 70
     1
102
RTVSPropertyOp38
 70
     1
102
RTVSPropertyOp39
 70
     1
102
RTVSPropertyOp40
 70
     1
102
RTVSPropertyOp41
 70
     1
102
RTVSPropertyOp42
 70
     1
102
RTVSPropertyOp43
 70
     1
102
RTVSPropertyOp44
 70
     1
102
RTVSPropertyOp45
 70
     1
102
RTVSPropertyOp46
 70
     1
102
RTVSPropertyOp47
 70
     1
102
RTVSPropertyOp48
 70
     1
102
RTVSPropertyOp49
 70
     1
102
RTVSPropertyOp50
 70
     1
102
RTVSPropertyOp51
 70
     0
102
RTVSPropertyOp52
 70
     0
102
RTVSPropertyOp53
 70
     1
102
RTVSPropertyOp54
 70
     1
102
RTVSPropertyOp55
 70
     1
102
RTVSPropertyOp56
 70
     1
102
RTVSPropertyOp57
 70
     1
102
RTVSPost2010Prop28
280
     0
102
RTVSPost2010PropOp28
 70
     1
102
RTVSPost2010Prop29
280
     1
102
RTVSPost2010PropOp29
 70
     1
102
RTVSPost2010Prop30
280
     1
102
RTVSPost2010PropOp30
 70
     1
102
RTVSPost2010Prop31
280
     0
102
RTVSPost2010PropOp31
 70
     1
102
RTVSPost2010Prop32
280
     0
102
RTVSPost2010PropOp32
 70
     1
102
RTVSPost2010Prop33
280
     0
102
RTVSPost2010PropOp33
 70
     1
102
RTVSPost2010Prop34
280
     0
102
RTVSPost2010PropOp34
 70
     1
102
RTVSPost2010Prop35
280
     0
102
RTVSPost2010PropOp35
 70
     1
102
RTVSPost2010Prop36
280
     0
102
RTVSPost2010PropOp36
 70
     1
102
RTVSPost2010Prop37
 90
       50
102
RTVSPost2010PropOp37
 70
     1
102
RTVSPost2010Prop38
140
0.0
102
RTVSPost2010PropOp38
 70
     1
102
RTVSPost2010Prop39
140
1.0
102
RTVSPost2010PropOp39
 70
     1
102
RTVSPost2010Prop40
 90
        0
102
RTVSPost2010PropOp40
 70
     1
102
RTVSPost2010Prop41ColorIndex
 90
       18
102
RTVSPost2010Prop41ColorRGB
 90
        0
102
RTVSPost2010PropOp41
 70
     1
102
RTVSPost2010Prop42
 90
       50
102
RTVSPost2010PropOp42
 70
     1
102
RTVSPost2010Prop43
 90
        3
102
RTVSPost2010PropOp43
 70
     1
102
RTVSPost2010Prop44ColorIndex
 90
        5
102
RTVSPost2010Prop44ColorRGB
 90
      255
102
RTVSPost2010PropOp44
 70
     1
102
RTVSPost2010Prop45
280
     0
102
RTVSPost2010PropOp45
 70
     1
102
RTVSPost2010Prop46
 90
       50
102
RTVSPost2010PropOp46
 70
     1
102
RTVSPost2010Prop47
 90
       50
102
RTVSPost2010PropOp47
 70
     1
102
RTVSPost2010Prop48
 90
       50
102
RTVSPost2010PropOp48
 70
     1
102
RTVSPost2010Prop49
280
     0
102
RTVSPost2010PropOp49
 70
     1
102
RTVSPost2010Prop50
 90
       50
102
RTVSPost2010PropOp50
 70
     1
102
RTVSPost2010Prop51ColorIndex
 90
      256
102
RTVSPost2010Prop51ColorRGB
 90
-16777216
102
RTVSPost2010PropOp51
 70
     0
102
RTVSPost2010Prop52
140
1.0
102
RTVSPost2010PropOp52
 70
     0
102
RTVSPost2010Prop53
 90
        2
102
RTVSPost2010PropOp53
 70
     1
102
RTVSPost2010Prop54
  1
strokes_ogs.tif
102
RTVSPost2010PropOp54
 70
     1
102
RTVSPost2010Prop55
280
     0
102
RTVSPost2010PropOp55
 70
     1
102
RTVSPost2010Prop56
140
1.0
102
RTVSPost2010PropOp56
 70
     1
102
RTVSPost2010Prop57
140
1.0
102
RTVSPost2010PropOp57
 70
     1
  0
XRECORD
  5
426
102
{ACAD_REACTORS
330
425
102
}
330
425
100
AcDbXrecord
280
     1
102
RTVSPropertyOp0
 70
     1
102
RTVSPropertyOp1
 70
     1
102
RTVSPropertyOp2
 70
     1
102
RTVSPropertyOp3
 70
     1
102
RTVSPropertyOp4
 70
     1
102
RTVSPropertyOp5
 70
     1
102
RTVSPropertyOp6
 70
     1
102
RTVSPropertyOp7
 70
     1
102
RTVSPropertyOp8
 70
     1
102
RTVSPropertyOp9
 70
     1
102
RTVSPropertyOp10
 70
     1
102
RTVSPropertyOp11
 70
     1
102
RTVSPropertyOp12
 70
     1
102
RTVSPropertyOp13
 70
     1
102
RTVSPropertyOp14
 70
     1
102
RTVSPropertyOp15
 70
     1
102
RTVSPropertyOp16
 70
     1
102
RTVSPropertyOp17
 70
     1
102
RTVSPropertyOp18
 70
     1
102
RTVSPropertyOp19
 70
     1
102
RTVSPropertyOp20
 70
     1
102
RTVSPropertyOp21
 70
     1
102
RTVSPropertyOp22
 70
     1
102
RTVSPropertyOp23
 70
     1
102
RTVSPropertyOp24
 70
     1
102
RTVSPropertyOp25
 70
     1
102
RTVSPropertyOp26
 70
     1
102
RTVSPropertyOp27
 70
     1
102
RTVSPropertyOp28
 70
     1
102
RTVSPropertyOp29
 70
     1
102
RTVSPropertyOp30
 70
     1
102
RTVSPropertyOp31
 70
     1
102
RTVSPropertyOp32
 70
     1
102
RTVSPropertyOp33
 70
     1
102
RTVSPropertyOp34
 70
     1
102
RTVSPropertyOp35
 70
     1
102
RTVSPropertyOp36
 70
     1
102
RTVSPropertyOp37
 70
     1
102
RTVSPropertyOp38
 70
     1
102
RTVSPropertyOp39
 70
     1
102
RTVSPropertyOp40
 70
     1
102
RTVSPropertyOp41
 70
     1
102
RTVSPropertyOp42
 70
     1
102
RTVSPropertyOp43
 70
     1
102
RTVSPropertyOp44
 70
     1
102
RTVSPropertyOp45
 70
     1
102
RTVSPropertyOp46
 70
     1
102
RTVSPropertyOp47
 70
     1
102
RTVSPropertyOp48
 70
     1
102
RTVSPropertyOp49
 70
     1
102
RTVSPropertyOp50
 70
     1
102
RTVSPropertyOp51
 70
     0
102
RTVSPropertyOp52
 70
     0
102
RTVSPropertyOp53
 70
     1
102
RTVSPropertyOp54
 70
     1
102
RTVSPropertyOp55
 70
     1
102
RTVSPropertyOp56
 70
     1
102
RTVSPropertyOp57
 70
     1
102
RTVSPost2010Prop28
280
     0
102
RTVSPost2010PropOp28
 70
     1
102
RTVSPost2010Prop29
280
     1
102
RTVSPost2010PropOp29
 70
     1
102
RTVSPost2010Prop30
280
     1
102
RTVSPost2010PropOp30
 70
     1
102
RTVSPost2010Prop31
280
     0
102
RTVSPost2010PropOp31
 70
     1
102
RTVSPost2010Prop32
280
     0
102
RTVSPost2010PropOp32
 70
     1
102
RTVSPost2010Prop33
280
     0
102
RTVSPost2010PropOp33
 70
     1
102
RTVSPost2010Prop34
280
     0
102
RTVSPost2010PropOp34
 70
     1
102
RTVSPost2010Prop35
280
     0
102
RTVSPost2010PropOp35
 70
     1
102
RTVSPost2010Prop36
280
     0
102
RTVSPost2010PropOp36
 70
     1
102
RTVSPost2010Prop37
 90
       50
102
RTVSPost2010PropOp37
 70
     1
102
RTVSPost2010Prop38
140
0.0
102
RTVSPost2010PropOp38
 70
     1
102
RTVSPost2010Prop39
140
1.0
102
RTVSPost2010PropOp39
 70
     1
102
RTVSPost2010Prop40
 90
        0
102
RTVSPost2010PropOp40
 70
     1
102
RTVSPost2010Prop41ColorIndex
 90
       18
102
RTVSPost2010Prop41ColorRGB
 90
        0
102
RTVSPost2010PropOp41
 70
     1
102
RTVSPost2010Prop42
 90
       50
102
RTVSPost2010PropOp42
 70
     1
102
RTVSPost2010Prop43
 90
        3
102
RTVSPost2010PropOp43
 70
     1
102
RTVSPost2010Prop44ColorIndex
 90
        5
102
RTVSPost2010Prop44ColorRGB
 90
      255
102
RTVSPost2010PropOp44
 70
     1
102
RTVSPost2010Prop45
280
     0
102
RTVSPost2010PropOp45
 70
     1
102
RTVSPost2010Prop46
 90
       50
102
RTVSPost2010PropOp46
 70
     1
102
RTVSPost2010Prop47
 90
       50
102
RTVSPost2010PropOp47
 70
     1
102
RTVSPost2010Prop48
 90
       50
102
RTVSPost2010PropOp48
 70
     1
102
RTVSPost2010Prop49
280
     0
102
RTVSPost2010PropOp49
 70
     1
102
RTVSPost2010Prop50
 90
       50
102
RTVSPost2010PropOp50
 70
     1
102
RTVSPost2010Prop51ColorIndex
 90
      256
102
RTVSPost2010Prop51ColorRGB
 90
-16777216
102
RTVSPost2010PropOp51
 70
     0
102
RTVSPost2010Prop52
140
1.0
102
RTVSPost2010PropOp52
 70
     0
102
RTVSPost2010Prop53
 90
        2
102
RTVSPost2010PropOp53
 70
     1
102
RTVSPost2010Prop54
  1
strokes_ogs.tif
102
RTVSPost2010PropOp54
 70
     1
102
RTVSPost2010Prop55
280
     0
102
RTVSPost2010PropOp55
 70
     1
102
RTVSPost2010Prop56
140
1.0
102
RTVSPost2010PropOp56
 70
     1
102
RTVSPost2010Prop57
140
1.0
102
RTVSPost2010PropOp57
 70
     1
  0
XRECORD
  5
428
102
{ACAD_REACTORS
330
427
102
}
330
427
100
AcDbXrecord
280
     1
102
RTVSPropertyOp0
 70
     1
102
RTVSPropertyOp1
 70
     1
102
RTVSPropertyOp2
 70
     1
102
RTVSPropertyOp3
 70
     1
102
RTVSPropertyOp4
 70
     1
102
RTVSPropertyOp5
 70
     1
102
RTVSPropertyOp6
 70
     1
102
RTVSPropertyOp7
 70
     1
102
RTVSPropertyOp8
 70
     1
102
RTVSPropertyOp9
 70
     1
102
RTVSPropertyOp10
 70
     1
102
RTVSPropertyOp11
 70
     1
102
RTVSPropertyOp12
 70
     1
102
RTVSPropertyOp13
 70
     1
102
RTVSPropertyOp14
 70
     1
102
RTVSPropertyOp15
 70
     1
102
RTVSPropertyOp16
 70
     1
102
RTVSPropertyOp17
 70
     1
102
RTVSPropertyOp18
 70
     1
102
RTVSPropertyOp19
 70
     1
102
RTVSPropertyOp20
 70
     1
102
RTVSPropertyOp21
 70
     1
102
RTVSPropertyOp22
 70
     1
102
RTVSPropertyOp23
 70
     1
102
RTVSPropertyOp24
 70
     1
102
RTVSPropertyOp25
 70
     1
102
RTVSPropertyOp26
 70
     1
102
RTVSPropertyOp27
 70
     1
102
RTVSPropertyOp28
 70
     1
102
RTVSPropertyOp29
 70
     1
102
RTVSPropertyOp30
 70
     1
102
RTVSPropertyOp31
 70
     1
102
RTVSPropertyOp32
 70
     1
102
RTVSPropertyOp33
 70
     1
102
RTVSPropertyOp34
 70
     1
102
RTVSPropertyOp35
 70
     1
102
RTVSPropertyOp36
 70
     1
102
RTVSPropertyOp37
 70
     1
102
RTVSPropertyOp38
 70
     1
102
RTVSPropertyOp39
 70
     1
102
RTVSPropertyOp40
 70
     1
102
RTVSPropertyOp41
 70
     1
102
RTVSPropertyOp42
 70
     1
102
RTVSPropertyOp43
 70
     1
102
RTVSPropertyOp44
 70
     1
102
RTVSPropertyOp45
 70
     1
102
RTVSPropertyOp46
 70
     1
102
RTVSPropertyOp47
 70
     1
102
RTVSPropertyOp48
 70
     1
102
RTVSPropertyOp49
 70
     1
102
RTVSPropertyOp50
 70
     1
102
RTVSPropertyOp51
 70
     0
102
RTVSPropertyOp52
 70
     0
102
RTVSPropertyOp53
 70
     1
102
RTVSPropertyOp54
 70
     1
102
RTVSPropertyOp55
 70
     1
102
RTVSPropertyOp56
 70
     1
102
RTVSPropertyOp57
 70
     1
102
RTVSPost2010Prop28
280
     0
102
RTVSPost2010PropOp28
 70
     1
102
RTVSPost2010Prop29
280
     1
102
RTVSPost2010PropOp29
 70
     1
102
RTVSPost2010Prop30
280
     1
102
RTVSPost2010PropOp30
 70
     1
102
RTVSPost2010Prop31
280
     0
102
RTVSPost2010PropOp31
 70
     1
102
RTVSPost2010Prop32
280
     0
102
RTVSPost2010PropOp32
 70
     1
102
RTVSPost2010Prop33
280
     0
102
RTVSPost2010PropOp33
 70
     1
102
RTVSPost2010Prop34
280
     0
102
RTVSPost2010PropOp34
 70
     1
102
RTVSPost2010Prop35
280
     0
102
RTVSPost2010PropOp35
 70
     1
102
RTVSPost2010Prop36
280
     0
102
RTVSPost2010PropOp36
 70
     1
102
RTVSPost2010Prop37
 90
       50
102
RTVSPost2010PropOp37
 70
     1
102
RTVSPost2010Prop38
140
0.0
102
RTVSPost2010PropOp38
 70
     1
102
RTVSPost2010Prop39
140
1.0
102
RTVSPost2010PropOp39
 70
     1
102
RTVSPost2010Prop40
 90
        0
102
RTVSPost2010PropOp40
 70
     1
102
RTVSPost2010Prop41ColorIndex
 90
       18
102
RTVSPost2010Prop41ColorRGB
 90
        0
102
RTVSPost2010PropOp41
 70
     1
102
RTVSPost2010Prop42
 90
       50
102
RTVSPost2010PropOp42
 70
     1
102
RTVSPost2010Prop43
 90
        3
102
RTVSPost2010PropOp43
 70
     1
102
RTVSPost2010Prop44ColorIndex
 90
        5
102
RTVSPost2010Prop44ColorRGB
 90
      255
102
RTVSPost2010PropOp44
 70
     1
102
RTVSPost2010Prop45
280
     0
102
RTVSPost2010PropOp45
 70
     1
102
RTVSPost2010Prop46
 90
       50
102
RTVSPost2010PropOp46
 70
     1
102
RTVSPost2010Prop47
 90
       50
102
RTVSPost2010PropOp47
 70
     1
102
RTVSPost2010Prop48
 90
       50
102
RTVSPost2010PropOp48
 70
     1
102
RTVSPost2010Prop49
280
     0
102
RTVSPost2010PropOp49
 70
     1
102
RTVSPost2010Prop50
 90
       50
102
RTVSPost2010PropOp50
 70
     1
102
RTVSPost2010Prop51ColorIndex
 90
      256
102
RTVSPost2010Prop51ColorRGB
 90
-16777216
102
RTVSPost2010PropOp51
 70
     0
102
RTVSPost2010Prop52
140
1.0
102
RTVSPost2010PropOp52
 70
     0
102
RTVSPost2010Prop53
 90
        2
102
RTVSPost2010PropOp53
 70
     1
102
RTVSPost2010Prop54
  1
strokes_ogs.tif
102
RTVSPost2010PropOp54
 70
     1
102
RTVSPost2010Prop55
280
     0
102
RTVSPost2010PropOp55
 70
     1
102
RTVSPost2010Prop56
140
1.0
102
RTVSPost2010PropOp56
 70
     1
102
RTVSPost2010Prop57
140
1.0
102
RTVSPost2010PropOp57
 70
     1
  0
XRECORD
  5
438
102
{ACAD_REACTORS
330
437
102
}
330
437
100
AcDbXrecord
280
     1
102
RTVSPropertyOp0
 70
     0
102
RTVSPropertyOp1
 70
     0
102
RTVSPropertyOp2
 70
     0
102
RTVSPropertyOp3
 70
     0
102
RTVSPropertyOp4
 70
     0
102
RTVSPropertyOp5
 70
     0
102
RTVSPropertyOp6
 70
     0
102
RTVSPropertyOp7
 70
     0
102
RTVSPropertyOp8
 70
     0
102
RTVSPropertyOp9
 70
     0
102
RTVSPropertyOp10
 70
     0
102
RTVSPropertyOp11
 70
     0
102
RTVSPropertyOp12
 70
     0
102
RTVSPropertyOp13
 70
     0
102
RTVSPropertyOp14
 70
     2
102
RTVSPropertyOp15
 70
     0
102
RTVSPropertyOp16
 70
     0
102
RTVSPropertyOp17
 70
     0
102
RTVSPropertyOp18
 70
     0
102
RTVSPropertyOp19
 70
     0
102
RTVSPropertyOp20
 70
     0
102
RTVSPropertyOp21
 70
     0
102
RTVSPropertyOp22
 70
     0
102
RTVSPropertyOp23
 70
     0
102
RTVSPropertyOp24
 70
     0
102
RTVSPropertyOp25
 70
     0
102
RTVSPropertyOp26
 70
     0
102
RTVSPropertyOp27
 70
     0
102
RTVSPropertyOp28
 70
     0
102
RTVSPropertyOp29
 70
     0
102
RTVSPropertyOp30
 70
     0
102
RTVSPropertyOp31
 70
     0
102
RTVSPropertyOp32
 70
     0
102
RTVSPropertyOp33
 70
     0
102
RTVSPropertyOp34
 70
     0
102
RTVSPropertyOp35
 70
     0
102
RTVSPropertyOp36
 70
     0
102
RTVSPropertyOp37
 70
     0
102
RTVSPropertyOp38
 70
     0
102
RTVSPropertyOp39
 70
     0
102
RTVSPropertyOp40
 70
     0
102
RTVSPropertyOp41
 70
     0
102
RTVSPropertyOp42
 70
     0
102
RTVSPropertyOp43
 70
     0
102
RTVSPropertyOp44
 70
     0
102
RTVSPropertyOp45
 70
     0
102
RTVSPropertyOp46
 70
     0
102
RTVSPropertyOp47
 70
     0
102
RTVSPropertyOp48
 70
     0
102
RTVSPropertyOp49
 70
     0
102
RTVSPropertyOp50
 70
     0
102
RTVSPropertyOp51
 70
     0
102
RTVSPropertyOp52
 70
     0
102
RTVSPropertyOp53
 70
     0
102
RTVSPropertyOp54
 70
     0
102
RTVSPropertyOp55
 70
     0
102
RTVSPropertyOp56
 70
     0
102
RTVSPropertyOp57
 70
     0
102
RTVSPost2010Prop28
280
     0
102
RTVSPost2010PropOp28
 70
     0
102
RTVSPost2010Prop29
280
     1
102
RTVSPost2010PropOp29
 70
     0
102
RTVSPost2010Prop30
280
     1
102
RTVSPost2010PropOp30
 70
     0
102
RTVSPost2010Prop31
280
     0
102
RTVSPost2010PropOp31
 70
     0
102
RTVSPost2010Prop32
280
     0
102
RTVSPost2010PropOp32
 70
     0
102
RTVSPost2010Prop33
280
     0
102
RTVSPost2010PropOp33
 70
     0
102
RTVSPost2010Prop34
280
     0
102
RTVSPost2010PropOp34
 70
     0
102
RTVSPost2010Prop35
280
     0
102
RTVSPost2010PropOp35
 70
     0
102
RTVSPost2010Prop36
280
     0
102
RTVSPost2010PropOp36
 70
     0
102
RTVSPost2010Prop37
 90
       50
102
RTVSPost2010PropOp37
 70
     0
102
RTVSPost2010Prop38
140
0.0
102
RTVSPost2010PropOp38
 70
     0
102
RTVSPost2010Prop39
140
1.0
102
RTVSPost2010PropOp39
 70
     0
102
RTVSPost2010Prop40
 90
        0
102
RTVSPost2010PropOp40
 70
     0
102
RTVSPost2010Prop41ColorIndex
 90
       18
102
RTVSPost2010Prop41ColorRGB
 90
        0
102
RTVSPost2010PropOp41
 70
     0
102
RTVSPost2010Prop42
 90
       50
102
RTVSPost2010PropOp42
 70
     0
102
RTVSPost2010Prop43
 90
        3
102
RTVSPost2010PropOp43
 70
     0
102
RTVSPost2010Prop44ColorIndex
 90
        5
102
RTVSPost2010Prop44ColorRGB
 90
      255
102
RTVSPost2010PropOp44
 70
     0
102
RTVSPost2010Prop45
280
     0
102
RTVSPost2010PropOp45
 70
     0
102
RTVSPost2010Prop46
 90
       50
102
RTVSPost2010PropOp46
 70
     0
102
RTVSPost2010Prop47
 90
       50
102
RTVSPost2010PropOp47
 70
     0
102
RTVSPost2010Prop48
 90
       50
102
RTVSPost2010PropOp48
 70
     0
102
RTVSPost2010Prop49
280
     0
102
RTVSPost2010PropOp49
 70
     0
102
RTVSPost2010Prop50
 90
       50
102
RTVSPost2010PropOp50
 70
     0
102
RTVSPost2010Prop51ColorIndex
 90
      256
102
RTVSPost2010Prop51ColorRGB
 90
-16777216
102
RTVSPost2010PropOp51
 70
     0
102
RTVSPost2010Prop52
140
1.0
102
RTVSPost2010PropOp52
 70
     0
102
RTVSPost2010Prop53
 90
        2
102
RTVSPost2010PropOp53
 70
     0
102
RTVSPost2010Prop54
  1
strokes_ogs.tif
102
RTVSPost2010PropOp54
 70
     0
102
RTVSPost2010Prop55
280
     0
102
RTVSPost2010PropOp55
 70
     0
102
RTVSPost2010Prop56
140
1.0
102
RTVSPost2010PropOp56
 70
     0
102
RTVSPost2010Prop57
140
1.0
102
RTVSPost2010PropOp57
 70
     0
  0
XRECORD
  5
430
102
{ACAD_REACTORS
330
42F
102
}
330
42F
100
AcDbXrecord
280
     1
102
RTVSPropertyOp0
 70
     1
102
RTVSPropertyOp1
 70
     1
102
RTVSPropertyOp2
 70
     1
102
RTVSPropertyOp3
 70
     1
102
RTVSPropertyOp4
 70
     1
102
RTVSPropertyOp5
 70
     1
102
RTVSPropertyOp6
 70
     1
102
RTVSPropertyOp7
 70
     1
102
RTVSPropertyOp8
 70
     1
102
RTVSPropertyOp9
 70
     1
102
RTVSPropertyOp10
 70
     1
102
RTVSPropertyOp11
 70
     1
102
RTVSPropertyOp12
 70
     1
102
RTVSPropertyOp13
 70
     1
102
RTVSPropertyOp14
 70
     1
102
RTVSPropertyOp15
 70
     1
102
RTVSPropertyOp16
 70
     1
102
RTVSPropertyOp17
 70
     1
102
RTVSPropertyOp18
 70
     1
102
RTVSPropertyOp19
 70
     1
102
RTVSPropertyOp20
 70
     1
102
RTVSPropertyOp21
 70
     1
102
RTVSPropertyOp22
 70
     1
102
RTVSPropertyOp23
 70
     1
102
RTVSPropertyOp24
 70
     1
102
RTVSPropertyOp25
 70
     1
102
RTVSPropertyOp26
 70
     1
102
RTVSPropertyOp27
 70
     1
102
RTVSPropertyOp28
 70
     1
102
RTVSPropertyOp29
 70
     1
102
RTVSPropertyOp30
 70
     1
102
RTVSPropertyOp31
 70
     1
102
RTVSPropertyOp32
 70
     1
102
RTVSPropertyOp33
 70
     1
102
RTVSPropertyOp34
 70
     1
102
RTVSPropertyOp35
 70
     1
102
RTVSPropertyOp36
 70
     1
102
RTVSPropertyOp37
 70
     1
102
RTVSPropertyOp38
 70
     1
102
RTVSPropertyOp39
 70
     1
102
RTVSPropertyOp40
 70
     1
102
RTVSPropertyOp41
 70
     1
102
RTVSPropertyOp42
 70
     1
102
RTVSPropertyOp43
 70
     1
102
RTVSPropertyOp44
 70
     1
102
RTVSPropertyOp45
 70
     1
102
RTVSPropertyOp46
 70
     1
102
RTVSPropertyOp47
 70
     1
102
RTVSPropertyOp48
 70
     1
102
RTVSPropertyOp49
 70
     1
102
RTVSPropertyOp50
 70
     1
102
RTVSPropertyOp51
 70
     0
102
RTVSPropertyOp52
 70
     0
102
RTVSPropertyOp53
 70
     1
102
RTVSPropertyOp54
 70
     1
102
RTVSPropertyOp55
 70
     1
102
RTVSPropertyOp56
 70
     1
102
RTVSPropertyOp57
 70
     1
102
RTVSPost2010Prop28
280
     0
102
RTVSPost2010PropOp28
 70
     1
102
RTVSPost2010Prop29
280
     1
102
RTVSPost2010PropOp29
 70
     1
102
RTVSPost2010Prop30
280
     1
102
RTVSPost2010PropOp30
 70
     1
102
RTVSPost2010Prop31
280
     0
102
RTVSPost2010PropOp31
 70
     1
102
RTVSPost2010Prop32
280
     0
102
RTVSPost2010PropOp32
 70
     1
102
RTVSPost2010Prop33
280
     0
102
RTVSPost2010PropOp33
 70
     1
102
RTVSPost2010Prop34
280
     0
102
RTVSPost2010PropOp34
 70
     1
102
RTVSPost2010Prop35
280
     0
102
RTVSPost2010PropOp35
 70
     1
102
RTVSPost2010Prop36
280
     0
102
RTVSPost2010PropOp36
 70
     1
102
RTVSPost2010Prop37
 90
       50
102
RTVSPost2010PropOp37
 70
     1
102
RTVSPost2010Prop38
140
0.0
102
RTVSPost2010PropOp38
 70
     1
102
RTVSPost2010Prop39
140
1.0
102
RTVSPost2010PropOp39
 70
     1
102
RTVSPost2010Prop40
 90
        0
102
RTVSPost2010PropOp40
 70
     1
102
RTVSPost2010Prop41ColorIndex
 90
       18
102
RTVSPost2010Prop41ColorRGB
 90
        0
102
RTVSPost2010PropOp41
 70
     1
102
RTVSPost2010Prop42
 90
       50
102
RTVSPost2010PropOp42
 70
     1
102
RTVSPost2010Prop43
 90
        3
102
RTVSPost2010PropOp43
 70
     1
102
RTVSPost2010Prop44ColorIndex
 90
        5
102
RTVSPost2010Prop44ColorRGB
 90
      255
102
RTVSPost2010PropOp44
 70
     1
102
RTVSPost2010Prop45
280
     0
102
RTVSPost2010PropOp45
 70
     1
102
RTVSPost2010Prop46
 90
       50
102
RTVSPost2010PropOp46
 70
     1
102
RTVSPost2010Prop47
 90
       50
102
RTVSPost2010PropOp47
 70
     1
102
RTVSPost2010Prop48
 90
       50
102
RTVSPost2010PropOp48
 70
     1
102
RTVSPost2010Prop49
280
     0
102
RTVSPost2010PropOp49
 70
     1
102
RTVSPost2010Prop50
 90
       50
102
RTVSPost2010PropOp50
 70
     1
102
RTVSPost2010Prop51ColorIndex
 90
      256
102
RTVSPost2010Prop51ColorRGB
 90
-16777216
102
RTVSPost2010PropOp51
 70
     0
102
RTVSPost2010Prop52
140
1.0
102
RTVSPost2010PropOp52
 70
     0
102
RTVSPost2010Prop53
 90
        2
102
RTVSPost2010PropOp53
 70
     1
102
RTVSPost2010Prop54
  1
strokes_ogs.tif
102
RTVSPost2010PropOp54
 70
     1
102
RTVSPost2010Prop55
280
     0
102
RTVSPost2010PropOp55
 70
     1
102
RTVSPost2010Prop56
140
1.0
102
RTVSPost2010PropOp56
 70
     1
102
RTVSPost2010Prop57
140
1.0
102
RTVSPost2010PropOp57
 70
     1
  0
XRECORD
  5
414
102
{ACAD_REACTORS
330
413
102
}
330
413
100
AcDbXrecord
280
     1
102
RTVSPropertyOp0
 70
     1
102
RTVSPropertyOp1
 70
     1
102
RTVSPropertyOp2
 70
     1
102
RTVSPropertyOp3
 70
     1
102
RTVSPropertyOp4
 70
     1
102
RTVSPropertyOp5
 70
     1
102
RTVSPropertyOp6
 70
     1
102
RTVSPropertyOp7
 70
     1
102
RTVSPropertyOp8
 70
     1
102
RTVSPropertyOp9
 70
     1
102
RTVSPropertyOp10
 70
     1
102
RTVSPropertyOp11
 70
     1
102
RTVSPropertyOp12
 70
     1
102
RTVSPropertyOp13
 70
     1
102
RTVSPropertyOp14
 70
     1
102
RTVSPropertyOp15
 70
     1
102
RTVSPropertyOp16
 70
     1
102
RTVSPropertyOp17
 70
     1
102
RTVSPropertyOp18
 70
     1
102
RTVSPropertyOp19
 70
     1
102
RTVSPropertyOp20
 70
     1
102
RTVSPropertyOp21
 70
     1
102
RTVSPropertyOp22
 70
     1
102
RTVSPropertyOp23
 70
     1
102
RTVSPropertyOp24
 70
     1
102
RTVSPropertyOp25
 70
     1
102
RTVSPropertyOp26
 70
     1
102
RTVSPropertyOp27
 70
     1
102
RTVSPropertyOp28
 70
     1
102
RTVSPropertyOp29
 70
     1
102
RTVSPropertyOp30
 70
     1
102
RTVSPropertyOp31
 70
     1
102
RTVSPropertyOp32
 70
     1
102
RTVSPropertyOp33
 70
     1
102
RTVSPropertyOp34
 70
     1
102
RTVSPropertyOp35
 70
     1
102
RTVSPropertyOp36
 70
     1
102
RTVSPropertyOp37
 70
     1
102
RTVSPropertyOp38
 70
     1
102
RTVSPropertyOp39
 70
     1
102
RTVSPropertyOp40
 70
     1
102
RTVSPropertyOp41
 70
     1
102
RTVSPropertyOp42
 70
     1
102
RTVSPropertyOp43
 70
     1
102
RTVSPropertyOp44
 70
     1
102
RTVSPropertyOp45
 70
     1
102
RTVSPropertyOp46
 70
     1
102
RTVSPropertyOp47
 70
     1
102
RTVSPropertyOp48
 70
     1
102
RTVSPropertyOp49
 70
     1
102
RTVSPropertyOp50
 70
     1
102
RTVSPropertyOp51
 70
     0
102
RTVSPropertyOp52
 70
     0
102
RTVSPropertyOp53
 70
     1
102
RTVSPropertyOp54
 70
     1
102
RTVSPropertyOp55
 70
     1
102
RTVSPropertyOp56
 70
     1
102
RTVSPropertyOp57
 70
     1
102
RTVSPost2010Prop28
280
     0
102
RTVSPost2010PropOp28
 70
     1
102
RTVSPost2010Prop29
280
     1
102
RTVSPost2010PropOp29
 70
     1
102
RTVSPost2010Prop30
280
     1
102
RTVSPost2010PropOp30
 70
     1
102
RTVSPost2010Prop31
280
     0
102
RTVSPost2010PropOp31
 70
     1
102
RTVSPost2010Prop32
280
     0
102
RTVSPost2010PropOp32
 70
     1
102
RTVSPost2010Prop33
280
     0
102
RTVSPost2010PropOp33
 70
     1
102
RTVSPost2010Prop34
280
     0
102
RTVSPost2010PropOp34
 70
     1
102
RTVSPost2010Prop35
280
     0
102
RTVSPost2010PropOp35
 70
     1
102
RTVSPost2010Prop36
280
     0
102
RTVSPost2010PropOp36
 70
     1
102
RTVSPost2010Prop37
 90
       50
102
RTVSPost2010PropOp37
 70
     1
102
RTVSPost2010Prop38
140
0.0
102
RTVSPost2010PropOp38
 70
     1
102
RTVSPost2010Prop39
140
1.0
102
RTVSPost2010PropOp39
 70
     1
102
RTVSPost2010Prop40
 90
        0
102
RTVSPost2010PropOp40
 70
     1
102
RTVSPost2010Prop41ColorIndex
 90
       18
102
RTVSPost2010Prop41ColorRGB
 90
        0
102
RTVSPost2010PropOp41
 70
     1
102
RTVSPost2010Prop42
 90
       50
102
RTVSPost2010PropOp42
 70
     1
102
RTVSPost2010Prop43
 90
        3
102
RTVSPost2010PropOp43
 70
     1
102
RTVSPost2010Prop44ColorIndex
 90
        5
102
RTVSPost2010Prop44ColorRGB
 90
      255
102
RTVSPost2010PropOp44
 70
     1
102
RTVSPost2010Prop45
280
     0
102
RTVSPost2010PropOp45
 70
     1
102
RTVSPost2010Prop46
 90
       50
102
RTVSPost2010PropOp46
 70
     1
102
RTVSPost2010Prop47
 90
       50
102
RTVSPost2010PropOp47
 70
     1
102
RTVSPost2010Prop48
 90
       50
102
RTVSPost2010PropOp48
 70
     1
102
RTVSPost2010Prop49
280
     0
102
RTVSPost2010PropOp49
 70
     1
102
RTVSPost2010Prop50
 90
       50
102
RTVSPost2010PropOp50
 70
     1
102
RTVSPost2010Prop51ColorIndex
 90
      256
102
RTVSPost2010Prop51ColorRGB
 90
-16777216
102
RTVSPost2010PropOp51
 70
     0
102
RTVSPost2010Prop52
140
1.0
102
RTVSPost2010PropOp52
 70
     0
102
RTVSPost2010Prop53
 90
        2
102
RTVSPost2010PropOp53
 70
     1
102
RTVSPost2010Prop54
  1
strokes_ogs.tif
102
RTVSPost2010PropOp54
 70
     1
102
RTVSPost2010Prop55
280
     0
102
RTVSPost2010PropOp55
 70
     1
102
RTVSPost2010Prop56
140
1.0
102
RTVSPost2010PropOp56
 70
     1
102
RTVSPost2010Prop57
140
1.0
102
RTVSPost2010PropOp57
 70
     1
  0
XRECORD
  5
416
102
{ACAD_REACTORS
330
415
102
}
330
415
100
AcDbXrecord
280
     1
102
RTVSPropertyOp0
 70
     1
102
RTVSPropertyOp1
 70
     1
102
RTVSPropertyOp2
 70
     1
102
RTVSPropertyOp3
 70
     1
102
RTVSPropertyOp4
 70
     1
102
RTVSPropertyOp5
 70
     1
102
RTVSPropertyOp6
 70
     1
102
RTVSPropertyOp7
 70
     1
102
RTVSPropertyOp8
 70
     1
102
RTVSPropertyOp9
 70
     1
102
RTVSPropertyOp10
 70
     1
102
RTVSPropertyOp11
 70
     1
102
RTVSPropertyOp12
 70
     1
102
RTVSPropertyOp13
 70
     1
102
RTVSPropertyOp14
 70
     1
102
RTVSPropertyOp15
 70
     1
102
RTVSPropertyOp16
 70
     1
102
RTVSPropertyOp17
 70
     1
102
RTVSPropertyOp18
 70
     1
102
RTVSPropertyOp19
 70
     1
102
RTVSPropertyOp20
 70
     1
102
RTVSPropertyOp21
 70
     1
102
RTVSPropertyOp22
 70
     1
102
RTVSPropertyOp23
 70
     1
102
RTVSPropertyOp24
 70
     1
102
RTVSPropertyOp25
 70
     1
102
RTVSPropertyOp26
 70
     1
102
RTVSPropertyOp27
 70
     1
102
RTVSPropertyOp28
 70
     1
102
RTVSPropertyOp29
 70
     1
102
RTVSPropertyOp30
 70
     1
102
RTVSPropertyOp31
 70
     1
102
RTVSPropertyOp32
 70
     1
102
RTVSPropertyOp33
 70
     1
102
RTVSPropertyOp34
 70
     1
102
RTVSPropertyOp35
 70
     1
102
RTVSPropertyOp36
 70
     1
102
RTVSPropertyOp37
 70
     1
102
RTVSPropertyOp38
 70
     1
102
RTVSPropertyOp39
 70
     1
102
RTVSPropertyOp40
 70
     1
102
RTVSPropertyOp41
 70
     1
102
RTVSPropertyOp42
 70
     1
102
RTVSPropertyOp43
 70
     1
102
RTVSPropertyOp44
 70
     1
102
RTVSPropertyOp45
 70
     1
102
RTVSPropertyOp46
 70
     1
102
RTVSPropertyOp47
 70
     1
102
RTVSPropertyOp48
 70
     1
102
RTVSPropertyOp49
 70
     1
102
RTVSPropertyOp50
 70
     1
102
RTVSPropertyOp51
 70
     0
102
RTVSPropertyOp52
 70
     0
102
RTVSPropertyOp53
 70
     1
102
RTVSPropertyOp54
 70
     1
102
RTVSPropertyOp55
 70
     1
102
RTVSPropertyOp56
 70
     1
102
RTVSPropertyOp57
 70
     1
102
RTVSPost2010Prop28
280
     0
102
RTVSPost2010PropOp28
 70
     1
102
RTVSPost2010Prop29
280
     1
102
RTVSPost2010PropOp29
 70
     1
102
RTVSPost2010Prop30
280
     1
102
RTVSPost2010PropOp30
 70
     1
102
RTVSPost2010Prop31
280
     0
102
RTVSPost2010PropOp31
 70
     1
102
RTVSPost2010Prop32
280
     0
102
RTVSPost2010PropOp32
 70
     1
102
RTVSPost2010Prop33
280
     0
102
RTVSPost2010PropOp33
 70
     1
102
RTVSPost2010Prop34
280
     0
102
RTVSPost2010PropOp34
 70
     1
102
RTVSPost2010Prop35
280
     0
102
RTVSPost2010PropOp35
 70
     1
102
RTVSPost2010Prop36
280
     0
102
RTVSPost2010PropOp36
 70
     1
102
RTVSPost2010Prop37
 90
       50
102
RTVSPost2010PropOp37
 70
     1
102
RTVSPost2010Prop38
140
0.0
102
RTVSPost2010PropOp38
 70
     1
102
RTVSPost2010Prop39
140
1.0
102
RTVSPost2010PropOp39
 70
     1
102
RTVSPost2010Prop40
 90
        0
102
RTVSPost2010PropOp40
 70
     1
102
RTVSPost2010Prop41ColorIndex
 90
       18
102
RTVSPost2010Prop41ColorRGB
 90
        0
102
RTVSPost2010PropOp41
 70
     1
102
RTVSPost2010Prop42
 90
       50
102
RTVSPost2010PropOp42
 70
     1
102
RTVSPost2010Prop43
 90
        3
102
RTVSPost2010PropOp43
 70
     1
102
RTVSPost2010Prop44ColorIndex
 90
        5
102
RTVSPost2010Prop44ColorRGB
 90
      255
102
RTVSPost2010PropOp44
 70
     1
102
RTVSPost2010Prop45
280
     0
102
RTVSPost2010PropOp45
 70
     1
102
RTVSPost2010Prop46
 90
       50
102
RTVSPost2010PropOp46
 70
     1
102
RTVSPost2010Prop47
 90
       50
102
RTVSPost2010PropOp47
 70
     1
102
RTVSPost2010Prop48
 90
       50
102
RTVSPost2010PropOp48
 70
     1
102
RTVSPost2010Prop49
280
     0
102
RTVSPost2010PropOp49
 70
     1
102
RTVSPost2010Prop50
 90
       50
102
RTVSPost2010PropOp50
 70
     1
102
RTVSPost2010Prop51ColorIndex
 90
      256
102
RTVSPost2010Prop51ColorRGB
 90
-16777216
102
RTVSPost2010PropOp51
 70
     0
102
RTVSPost2010Prop52
140
1.0
102
RTVSPost2010PropOp52
 70
     0
102
RTVSPost2010Prop53
 90
        2
102
RTVSPost2010PropOp53
 70
     1
102
RTVSPost2010Prop54
  1
strokes_ogs.tif
102
RTVSPost2010PropOp54
 70
     1
102
RTVSPost2010Prop55
280
     0
102
RTVSPost2010PropOp55
 70
     1
102
RTVSPost2010Prop56
140
1.0
102
RTVSPost2010PropOp56
 70
     1
102
RTVSPost2010Prop57
140
1.0
102
RTVSPost2010PropOp57
 70
     1
  0
XRECORD
  5
418
102
{ACAD_REACTORS
330
417
102
}
330
417
100
AcDbXrecord
280
     1
102
RTVSPropertyOp0
 70
     1
102
RTVSPropertyOp1
 70
     1
102
RTVSPropertyOp2
 70
     1
102
RTVSPropertyOp3
 70
     1
102
RTVSPropertyOp4
 70
     1
102
RTVSPropertyOp5
 70
     1
102
RTVSPropertyOp6
 70
     1
102
RTVSPropertyOp7
 70
     1
102
RTVSPropertyOp8
 70
     1
102
RTVSPropertyOp9
 70
     1
102
RTVSPropertyOp10
 70
     1
102
RTVSPropertyOp11
 70
     1
102
RTVSPropertyOp12
 70
     1
102
RTVSPropertyOp13
 70
     1
102
RTVSPropertyOp14
 70
     1
102
RTVSPropertyOp15
 70
     1
102
RTVSPropertyOp16
 70
     1
102
RTVSPropertyOp17
 70
     1
102
RTVSPropertyOp18
 70
     1
102
RTVSPropertyOp19
 70
     1
102
RTVSPropertyOp20
 70
     1
102
RTVSPropertyOp21
 70
     1
102
RTVSPropertyOp22
 70
     1
102
RTVSPropertyOp23
 70
     1
102
RTVSPropertyOp24
 70
     1
102
RTVSPropertyOp25
 70
     1
102
RTVSPropertyOp26
 70
     1
102
RTVSPropertyOp27
 70
     1
102
RTVSPropertyOp28
 70
     1
102
RTVSPropertyOp29
 70
     1
102
RTVSPropertyOp30
 70
     1
102
RTVSPropertyOp31
 70
     1
102
RTVSPropertyOp32
 70
     1
102
RTVSPropertyOp33
 70
     1
102
RTVSPropertyOp34
 70
     1
102
RTVSPropertyOp35
 70
     1
102
RTVSPropertyOp36
 70
     1
102
RTVSPropertyOp37
 70
     1
102
RTVSPropertyOp38
 70
     1
102
RTVSPropertyOp39
 70
     1
102
RTVSPropertyOp40
 70
     1
102
RTVSPropertyOp41
 70
     1
102
RTVSPropertyOp42
 70
     1
102
RTVSPropertyOp43
 70
     1
102
RTVSPropertyOp44
 70
     1
102
RTVSPropertyOp45
 70
     1
102
RTVSPropertyOp46
 70
     1
102
RTVSPropertyOp47
 70
     1
102
RTVSPropertyOp48
 70
     1
102
RTVSPropertyOp49
 70
     1
102
RTVSPropertyOp50
 70
     1
102
RTVSPropertyOp51
 70
     0
102
RTVSPropertyOp52
 70
     0
102
RTVSPropertyOp53
 70
     1
102
RTVSPropertyOp54
 70
     1
102
RTVSPropertyOp55
 70
     1
102
RTVSPropertyOp56
 70
     1
102
RTVSPropertyOp57
 70
     1
102
RTVSPost2010Prop28
280
     0
102
RTVSPost2010PropOp28
 70
     1
102
RTVSPost2010Prop29
280
     1
102
RTVSPost2010PropOp29
 70
     1
102
RTVSPost2010Prop30
280
     1
102
RTVSPost2010PropOp30
 70
     1
102
RTVSPost2010Prop31
280
     0
102
RTVSPost2010PropOp31
 70
     1
102
RTVSPost2010Prop32
280
     0
102
RTVSPost2010PropOp32
 70
     1
102
RTVSPost2010Prop33
280
     0
102
RTVSPost2010PropOp33
 70
     1
102
RTVSPost2010Prop34
280
     0
102
RTVSPost2010PropOp34
 70
     1
102
RTVSPost2010Prop35
280
     0
102
RTVSPost2010PropOp35
 70
     1
102
RTVSPost2010Prop36
280
     0
102
RTVSPost2010PropOp36
 70
     1
102
RTVSPost2010Prop37
 90
       50
102
RTVSPost2010PropOp37
 70
     1
102
RTVSPost2010Prop38
140
0.0
102
RTVSPost2010PropOp38
 70
     1
102
RTVSPost2010Prop39
140
1.0
102
RTVSPost2010PropOp39
 70
     1
102
RTVSPost2010Prop40
 90
        0
102
RTVSPost2010PropOp40
 70
     1
102
RTVSPost2010Prop41ColorIndex
 90
       18
102
RTVSPost2010Prop41ColorRGB
 90
        0
102
RTVSPost2010PropOp41
 70
     1
102
RTVSPost2010Prop42
 90
       50
102
RTVSPost2010PropOp42
 70
     1
102
RTVSPost2010Prop43
 90
        3
102
RTVSPost2010PropOp43
 70
     1
102
RTVSPost2010Prop44ColorIndex
 90
        5
102
RTVSPost2010Prop44ColorRGB
 90
      255
102
RTVSPost2010PropOp44
 70
     1
102
RTVSPost2010Prop45
280
     0
102
RTVSPost2010PropOp45
 70
     1
102
RTVSPost2010Prop46
 90
       50
102
RTVSPost2010PropOp46
 70
     1
102
RTVSPost2010Prop47
 90
       50
102
RTVSPost2010PropOp47
 70
     1
102
RTVSPost2010Prop48
 90
       50
102
RTVSPost2010PropOp48
 70
     1
102
RTVSPost2010Prop49
280
     0
102
RTVSPost2010PropOp49
 70
     1
102
RTVSPost2010Prop50
 90
       50
102
RTVSPost2010PropOp50
 70
     1
102
RTVSPost2010Prop51ColorIndex
 90
      256
102
RTVSPost2010Prop51ColorRGB
 90
-16777216
102
RTVSPost2010PropOp51
 70
     0
102
RTVSPost2010Prop52
140
1.0
102
RTVSPost2010PropOp52
 70
     0
102
RTVSPost2010Prop53
 90
        2
102
RTVSPost2010PropOp53
 70
     1
102
RTVSPost2010Prop54
  1
strokes_ogs.tif
102
RTVSPost2010PropOp54
 70
     1
102
RTVSPost2010Prop55
280
     0
102
RTVSPost2010PropOp55
 70
     1
102
RTVSPost2010Prop56
140
1.0
102
RTVSPost2010PropOp56
 70
     1
102
RTVSPost2010Prop57
140
1.0
102
RTVSPost2010PropOp57
 70
     1
  0
XRECORD
  5
41A
102
{ACAD_REACTORS
330
419
102
}
330
419
100
AcDbXrecord
280
     1
102
RTVSPropertyOp0
 70
     1
102
RTVSPropertyOp1
 70
     1
102
RTVSPropertyOp2
 70
     1
102
RTVSPropertyOp3
 70
     1
102
RTVSPropertyOp4
 70
     1
102
RTVSPropertyOp5
 70
     1
102
RTVSPropertyOp6
 70
     1
102
RTVSPropertyOp7
 70
     1
102
RTVSPropertyOp8
 70
     1
102
RTVSPropertyOp9
 70
     1
102
RTVSPropertyOp10
 70
     1
102
RTVSPropertyOp11
 70
     1
102
RTVSPropertyOp12
 70
     1
102
RTVSPropertyOp13
 70
     1
102
RTVSPropertyOp14
 70
     1
102
RTVSPropertyOp15
 70
     1
102
RTVSPropertyOp16
 70
     1
102
RTVSPropertyOp17
 70
     1
102
RTVSPropertyOp18
 70
     1
102
RTVSPropertyOp19
 70
     1
102
RTVSPropertyOp20
 70
     1
102
RTVSPropertyOp21
 70
     1
102
RTVSPropertyOp22
 70
     1
102
RTVSPropertyOp23
 70
     1
102
RTVSPropertyOp24
 70
     1
102
RTVSPropertyOp25
 70
     1
102
RTVSPropertyOp26
 70
     1
102
RTVSPropertyOp27
 70
     1
102
RTVSPropertyOp28
 70
     1
102
RTVSPropertyOp29
 70
     1
102
RTVSPropertyOp30
 70
     1
102
RTVSPropertyOp31
 70
     1
102
RTVSPropertyOp32
 70
     1
102
RTVSPropertyOp33
 70
     1
102
RTVSPropertyOp34
 70
     1
102
RTVSPropertyOp35
 70
     1
102
RTVSPropertyOp36
 70
     1
102
RTVSPropertyOp37
 70
     1
102
RTVSPropertyOp38
 70
     1
102
RTVSPropertyOp39
 70
     1
102
RTVSPropertyOp40
 70
     1
102
RTVSPropertyOp41
 70
     1
102
RTVSPropertyOp42
 70
     1
102
RTVSPropertyOp43
 70
     1
102
RTVSPropertyOp44
 70
     1
102
RTVSPropertyOp45
 70
     1
102
RTVSPropertyOp46
 70
     1
102
RTVSPropertyOp47
 70
     1
102
RTVSPropertyOp48
 70
     1
102
RTVSPropertyOp49
 70
     1
102
RTVSPropertyOp50
 70
     1
102
RTVSPropertyOp51
 70
     0
102
RTVSPropertyOp52
 70
     0
102
RTVSPropertyOp53
 70
     1
102
RTVSPropertyOp54
 70
     1
102
RTVSPropertyOp55
 70
     1
102
RTVSPropertyOp56
 70
     1
102
RTVSPropertyOp57
 70
     1
102
RTVSPost2010Prop28
280
     0
102
RTVSPost2010PropOp28
 70
     1
102
RTVSPost2010Prop29
280
     1
102
RTVSPost2010PropOp29
 70
     1
102
RTVSPost2010Prop30
280
     1
102
RTVSPost2010PropOp30
 70
     1
102
RTVSPost2010Prop31
280
     0
102
RTVSPost2010PropOp31
 70
     1
102
RTVSPost2010Prop32
280
     0
102
RTVSPost2010PropOp32
 70
     1
102
RTVSPost2010Prop33
280
     0
102
RTVSPost2010PropOp33
 70
     1
102
RTVSPost2010Prop34
280
     0
102
RTVSPost2010PropOp34
 70
     1
102
RTVSPost2010Prop35
280
     0
102
RTVSPost2010PropOp35
 70
     1
102
RTVSPost2010Prop36
280
     0
102
RTVSPost2010PropOp36
 70
     1
102
RTVSPost2010Prop37
 90
       50
102
RTVSPost2010PropOp37
 70
     1
102
RTVSPost2010Prop38
140
0.0
102
RTVSPost2010PropOp38
 70
     1
102
RTVSPost2010Prop39
140
1.0
102
RTVSPost2010PropOp39
 70
     1
102
RTVSPost2010Prop40
 90
        0
102
RTVSPost2010PropOp40
 70
     1
102
RTVSPost2010Prop41ColorIndex
 90
       18
102
RTVSPost2010Prop41ColorRGB
 90
        0
102
RTVSPost2010PropOp41
 70
     1
102
RTVSPost2010Prop42
 90
       50
102
RTVSPost2010PropOp42
 70
     1
102
RTVSPost2010Prop43
 90
        3
102
RTVSPost2010PropOp43
 70
     1
102
RTVSPost2010Prop44ColorIndex
 90
        5
102
RTVSPost2010Prop44ColorRGB
 90
      255
102
RTVSPost2010PropOp44
 70
     1
102
RTVSPost2010Prop45
280
     0
102
RTVSPost2010PropOp45
 70
     1
102
RTVSPost2010Prop46
 90
       50
102
RTVSPost2010PropOp46
 70
     1
102
RTVSPost2010Prop47
 90
       50
102
RTVSPost2010PropOp47
 70
     1
102
RTVSPost2010Prop48
 90
       50
102
RTVSPost2010PropOp48
 70
     1
102
RTVSPost2010Prop49
280
     0
102
RTVSPost2010PropOp49
 70
     1
102
RTVSPost2010Prop50
 90
       50
102
RTVSPost2010PropOp50
 70
     1
102
RTVSPost2010Prop51ColorIndex
 90
      256
102
RTVSPost2010Prop51ColorRGB
 90
-16777216
102
RTVSPost2010PropOp51
 70
     0
102
RTVSPost2010Prop52
140
1.0
102
RTVSPost2010PropOp52
 70
     0
102
RTVSPost2010Prop53
 90
        2
102
RTVSPost2010PropOp53
 70
     1
102
RTVSPost2010Prop54
  1
strokes_ogs.tif
102
RTVSPost2010PropOp54
 70
     1
102
RTVSPost2010Prop55
280
     0
102
RTVSPost2010PropOp55
 70
     1
102
RTVSPost2010Prop56
140
1.0
102
RTVSPost2010PropOp56
 70
     1
102
RTVSPost2010Prop57
140
1.0
102
RTVSPost2010PropOp57
 70
     1
  0
XRECORD
  5
420
102
{ACAD_REACTORS
330
41F
102
}
330
41F
100
AcDbXrecord
280
     1
102
RTVSPropertyOp0
 70
     1
102
RTVSPropertyOp1
 70
     1
102
RTVSPropertyOp2
 70
     1
102
RTVSPropertyOp3
 70
     1
102
RTVSPropertyOp4
 70
     1
102
RTVSPropertyOp5
 70
     1
102
RTVSPropertyOp6
 70
     1
102
RTVSPropertyOp7
 70
     1
102
RTVSPropertyOp8
 70
     1
102
RTVSPropertyOp9
 70
     1
102
RTVSPropertyOp10
 70
     1
102
RTVSPropertyOp11
 70
     1
102
RTVSPropertyOp12
 70
     1
102
RTVSPropertyOp13
 70
     1
102
RTVSPropertyOp14
 70
     1
102
RTVSPropertyOp15
 70
     1
102
RTVSPropertyOp16
 70
     1
102
RTVSPropertyOp17
 70
     1
102
RTVSPropertyOp18
 70
     1
102
RTVSPropertyOp19
 70
     1
102
RTVSPropertyOp20
 70
     1
102
RTVSPropertyOp21
 70
     1
102
RTVSPropertyOp22
 70
     1
102
RTVSPropertyOp23
 70
     1
102
RTVSPropertyOp24
 70
     1
102
RTVSPropertyOp25
 70
     1
102
RTVSPropertyOp26
 70
     1
102
RTVSPropertyOp27
 70
     1
102
RTVSPropertyOp28
 70
     1
102
RTVSPropertyOp29
 70
     1
102
RTVSPropertyOp30
 70
     1
102
RTVSPropertyOp31
 70
     1
102
RTVSPropertyOp32
 70
     1
102
RTVSPropertyOp33
 70
     1
102
RTVSPropertyOp34
 70
     1
102
RTVSPropertyOp35
 70
     1
102
RTVSPropertyOp36
 70
     1
102
RTVSPropertyOp37
 70
     1
102
RTVSPropertyOp38
 70
     1
102
RTVSPropertyOp39
 70
     1
102
RTVSPropertyOp40
 70
     1
102
RTVSPropertyOp41
 70
     1
102
RTVSPropertyOp42
 70
     1
102
RTVSPropertyOp43
 70
     1
102
RTVSPropertyOp44
 70
     1
102
RTVSPropertyOp45
 70
     1
102
RTVSPropertyOp46
 70
     1
102
RTVSPropertyOp47
 70
     1
102
RTVSPropertyOp48
 70
     1
102
RTVSPropertyOp49
 70
     1
102
RTVSPropertyOp50
 70
     1
102
RTVSPropertyOp51
 70
     0
102
RTVSPropertyOp52
 70
     0
102
RTVSPropertyOp53
 70
     1
102
RTVSPropertyOp54
 70
     1
102
RTVSPropertyOp55
 70
     1
102
RTVSPropertyOp56
 70
     1
102
RTVSPropertyOp57
 70
     1
102
RTVSPost2010Prop28
280
     0
102
RTVSPost2010PropOp28
 70
     1
102
RTVSPost2010Prop29
280
     1
102
RTVSPost2010PropOp29
 70
     1
102
RTVSPost2010Prop30
280
     1
102
RTVSPost2010PropOp30
 70
     1
102
RTVSPost2010Prop31
280
     0
102
RTVSPost2010PropOp31
 70
     1
102
RTVSPost2010Prop32
280
     0
102
RTVSPost2010PropOp32
 70
     1
102
RTVSPost2010Prop33
280
     0
102
RTVSPost2010PropOp33
 70
     1
102
RTVSPost2010Prop34
280
     0
102
RTVSPost2010PropOp34
 70
     1
102
RTVSPost2010Prop35
280
     0
102
RTVSPost2010PropOp35
 70
     1
102
RTVSPost2010Prop36
280
     0
102
RTVSPost2010PropOp36
 70
     1
102
RTVSPost2010Prop37
 90
       50
102
RTVSPost2010PropOp37
 70
     1
102
RTVSPost2010Prop38
140
0.0
102
RTVSPost2010PropOp38
 70
     1
102
RTVSPost2010Prop39
140
1.0
102
RTVSPost2010PropOp39
 70
     1
102
RTVSPost2010Prop40
 90
        0
102
RTVSPost2010PropOp40
 70
     1
102
RTVSPost2010Prop41ColorIndex
 90
       18
102
RTVSPost2010Prop41ColorRGB
 90
        0
102
RTVSPost2010PropOp41
 70
     1
102
RTVSPost2010Prop42
 90
       50
102
RTVSPost2010PropOp42
 70
     1
102
RTVSPost2010Prop43
 90
        3
102
RTVSPost2010PropOp43
 70
     1
102
RTVSPost2010Prop44ColorIndex
 90
        5
102
RTVSPost2010Prop44ColorRGB
 90
      255
102
RTVSPost2010PropOp44
 70
     1
102
RTVSPost2010Prop45
280
     0
102
RTVSPost2010PropOp45
 70
     1
102
RTVSPost2010Prop46
 90
       50
102
RTVSPost2010PropOp46
 70
     1
102
RTVSPost2010Prop47
 90
       50
102
RTVSPost2010PropOp47
 70
     1
102
RTVSPost2010Prop48
 90
       50
102
RTVSPost2010PropOp48
 70
     1
102
RTVSPost2010Prop49
280
     0
102
RTVSPost2010PropOp49
 70
     1
102
RTVSPost2010Prop50
 90
       50
102
RTVSPost2010PropOp50
 70
     1
102
RTVSPost2010Prop51ColorIndex
 90
      256
102
RTVSPost2010Prop51ColorRGB
 90
-16777216
102
RTVSPost2010PropOp51
 70
     0
102
RTVSPost2010Prop52
140
1.0
102
RTVSPost2010PropOp52
 70
     0
102
RTVSPost2010Prop53
 90
        2
102
RTVSPost2010PropOp53
 70
     1
102
RTVSPost2010Prop54
  1
strokes_ogs.tif
102
RTVSPost2010PropOp54
 70
     1
102
RTVSPost2010Prop55
280
     0
102
RTVSPost2010PropOp55
 70
     1
102
RTVSPost2010Prop56
140
1.0
102
RTVSPost2010PropOp56
 70
     1
102
RTVSPost2010Prop57
140
1.0
102
RTVSPost2010PropOp57
 70
     1
  0
XRECORD
  5
434
102
{ACAD_REACTORS
330
433
102
}
330
433
100
AcDbXrecord
280
     1
102
RTVSPropertyOp0
 70
     0
102
RTVSPropertyOp1
 70
     0
102
RTVSPropertyOp2
 70
     0
102
RTVSPropertyOp3
 70
     0
102
RTVSPropertyOp4
 70
     0
102
RTVSPropertyOp5
 70
     0
102
RTVSPropertyOp6
 70
     0
102
RTVSPropertyOp7
 70
     0
102
RTVSPropertyOp8
 70
     0
102
RTVSPropertyOp9
 70
     0
102
RTVSPropertyOp10
 70
     0
102
RTVSPropertyOp11
 70
     0
102
RTVSPropertyOp12
 70
     0
102
RTVSPropertyOp13
 70
     0
102
RTVSPropertyOp14
 70
     2
102
RTVSPropertyOp15
 70
     0
102
RTVSPropertyOp16
 70
     0
102
RTVSPropertyOp17
 70
     0
102
RTVSPropertyOp18
 70
     0
102
RTVSPropertyOp19
 70
     0
102
RTVSPropertyOp20
 70
     0
102
RTVSPropertyOp21
 70
     0
102
RTVSPropertyOp22
 70
     0
102
RTVSPropertyOp23
 70
     0
102
RTVSPropertyOp24
 70
     0
102
RTVSPropertyOp25
 70
     0
102
RTVSPropertyOp26
 70
     0
102
RTVSPropertyOp27
 70
     0
102
RTVSPropertyOp28
 70
     0
102
RTVSPropertyOp29
 70
     0
102
RTVSPropertyOp30
 70
     0
102
RTVSPropertyOp31
 70
     0
102
RTVSPropertyOp32
 70
     0
102
RTVSPropertyOp33
 70
     0
102
RTVSPropertyOp34
 70
     0
102
RTVSPropertyOp35
 70
     0
102
RTVSPropertyOp36
 70
     0
102
RTVSPropertyOp37
 70
     0
102
RTVSPropertyOp38
 70
     0
102
RTVSPropertyOp39
 70
     0
102
RTVSPropertyOp40
 70
     0
102
RTVSPropertyOp41
 70
     0
102
RTVSPropertyOp42
 70
     0
102
RTVSPropertyOp43
 70
     0
102
RTVSPropertyOp44
 70
     0
102
RTVSPropertyOp45
 70
     0
102
RTVSPropertyOp46
 70
     0
102
RTVSPropertyOp47
 70
     0
102
RTVSPropertyOp48
 70
     0
102
RTVSPropertyOp49
 70
     0
102
RTVSPropertyOp50
 70
     0
102
RTVSPropertyOp51
 70
     0
102
RTVSPropertyOp52
 70
     0
102
RTVSPropertyOp53
 70
     0
102
RTVSPropertyOp54
 70
     0
102
RTVSPropertyOp55
 70
     0
102
RTVSPropertyOp56
 70
     0
102
RTVSPropertyOp57
 70
     0
102
RTVSPost2010Prop28
280
     0
102
RTVSPost2010PropOp28
 70
     0
102
RTVSPost2010Prop29
280
     1
102
RTVSPost2010PropOp29
 70
     0
102
RTVSPost2010Prop30
280
     1
102
RTVSPost2010PropOp30
 70
     0
102
RTVSPost2010Prop31
280
     0
102
RTVSPost2010PropOp31
 70
     0
102
RTVSPost2010Prop32
280
     0
102
RTVSPost2010PropOp32
 70
     0
102
RTVSPost2010Prop33
280
     0
102
RTVSPost2010PropOp33
 70
     0
102
RTVSPost2010Prop34
280
     0
102
RTVSPost2010PropOp34
 70
     0
102
RTVSPost2010Prop35
280
     0
102
RTVSPost2010PropOp35
 70
     0
102
RTVSPost2010Prop36
280
     0
102
RTVSPost2010PropOp36
 70
     0
102
RTVSPost2010Prop37
 90
       50
102
RTVSPost2010PropOp37
 70
     0
102
RTVSPost2010Prop38
140
0.0
102
RTVSPost2010PropOp38
 70
     0
102
RTVSPost2010Prop39
140
1.0
102
RTVSPost2010PropOp39
 70
     0
102
RTVSPost2010Prop40
 90
        0
102
RTVSPost2010PropOp40
 70
     0
102
RTVSPost2010Prop41ColorIndex
 90
       18
102
RTVSPost2010Prop41ColorRGB
 90
        0
102
RTVSPost2010PropOp41
 70
     0
102
RTVSPost2010Prop42
 90
       50
102
RTVSPost2010PropOp42
 70
     0
102
RTVSPost2010Prop43
 90
        3
102
RTVSPost2010PropOp43
 70
     0
102
RTVSPost2010Prop44ColorIndex
 90
        5
102
RTVSPost2010Prop44ColorRGB
 90
      255
102
RTVSPost2010PropOp44
 70
     0
102
RTVSPost2010Prop45
280
     0
102
RTVSPost2010PropOp45
 70
     0
102
RTVSPost2010Prop46
 90
       50
102
RTVSPost2010PropOp46
 70
     0
102
RTVSPost2010Prop47
 90
       50
102
RTVSPost2010PropOp47
 70
     0
102
RTVSPost2010Prop48
 90
       50
102
RTVSPost2010PropOp48
 70
     0
102
RTVSPost2010Prop49
280
     0
102
RTVSPost2010PropOp49
 70
     0
102
RTVSPost2010Prop50
 90
       50
102
RTVSPost2010PropOp50
 70
     0
102
RTVSPost2010Prop51ColorIndex
 90
      256
102
RTVSPost2010Prop51ColorRGB
 90
-16777216
102
RTVSPost2010PropOp51
 70
     0
102
RTVSPost2010Prop52
140
1.0
102
RTVSPost2010PropOp52
 70
     0
102
RTVSPost2010Prop53
 90
        2
102
RTVSPost2010PropOp53
 70
     0
102
RTVSPost2010Prop54
  1
strokes_ogs.tif
102
RTVSPost2010PropOp54
 70
     0
102
RTVSPost2010Prop55
280
     0
102
RTVSPost2010PropOp55
 70
     0
102
RTVSPost2010Prop56
140
1.0
102
RTVSPost2010PropOp56
 70
     0
102
RTVSPost2010Prop57
140
1.0
102
RTVSPost2010PropOp57
 70
     0
  0
XRECORD
  5
42E
102
{ACAD_REACTORS
330
42D
102
}
330
42D
100
AcDbXrecord
280
     1
102
RTVSPropertyOp0
 70
     1
102
RTVSPropertyOp1
 70
     1
102
RTVSPropertyOp2
 70
     1
102
RTVSPropertyOp3
 70
     1
102
RTVSPropertyOp4
 70
     1
102
RTVSPropertyOp5
 70
     1
102
RTVSPropertyOp6
 70
     1
102
RTVSPropertyOp7
 70
     1
102
RTVSPropertyOp8
 70
     1
102
RTVSPropertyOp9
 70
     1
102
RTVSPropertyOp10
 70
     1
102
RTVSPropertyOp11
 70
     1
102
RTVSPropertyOp12
 70
     1
102
RTVSPropertyOp13
 70
     1
102
RTVSPropertyOp14
 70
     1
102
RTVSPropertyOp15
 70
     1
102
RTVSPropertyOp16
 70
     1
102
RTVSPropertyOp17
 70
     1
102
RTVSPropertyOp18
 70
     1
102
RTVSPropertyOp19
 70
     1
102
RTVSPropertyOp20
 70
     1
102
RTVSPropertyOp21
 70
     1
102
RTVSPropertyOp22
 70
     1
102
RTVSPropertyOp23
 70
     1
102
RTVSPropertyOp24
 70
     1
102
RTVSPropertyOp25
 70
     1
102
RTVSPropertyOp26
 70
     1
102
RTVSPropertyOp27
 70
     1
102
RTVSPropertyOp28
 70
     1
102
RTVSPropertyOp29
 70
     1
102
RTVSPropertyOp30
 70
     1
102
RTVSPropertyOp31
 70
     1
102
RTVSPropertyOp32
 70
     1
102
RTVSPropertyOp33
 70
     1
102
RTVSPropertyOp34
 70
     1
102
RTVSPropertyOp35
 70
     1
102
RTVSPropertyOp36
 70
     1
102
RTVSPropertyOp37
 70
     1
102
RTVSPropertyOp38
 70
     1
102
RTVSPropertyOp39
 70
     1
102
RTVSPropertyOp40
 70
     1
102
RTVSPropertyOp41
 70
     1
102
RTVSPropertyOp42
 70
     1
102
RTVSPropertyOp43
 70
     1
102
RTVSPropertyOp44
 70
     1
102
RTVSPropertyOp45
 70
     1
102
RTVSPropertyOp46
 70
     1
102
RTVSPropertyOp47
 70
     1
102
RTVSPropertyOp48
 70
     1
102
RTVSPropertyOp49
 70
     1
102
RTVSPropertyOp50
 70
     1
102
RTVSPropertyOp51
 70
     0
102
RTVSPropertyOp52
 70
     0
102
RTVSPropertyOp53
 70
     1
102
RTVSPropertyOp54
 70
     1
102
RTVSPropertyOp55
 70
     1
102
RTVSPropertyOp56
 70
     1
102
RTVSPropertyOp57
 70
     1
102
RTVSPost2010Prop28
280
     0
102
RTVSPost2010PropOp28
 70
     1
102
RTVSPost2010Prop29
280
     1
102
RTVSPost2010PropOp29
 70
     1
102
RTVSPost2010Prop30
280
     1
102
RTVSPost2010PropOp30
 70
     1
102
RTVSPost2010Prop31
280
     0
102
RTVSPost2010PropOp31
 70
     1
102
RTVSPost2010Prop32
280
     0
102
RTVSPost2010PropOp32
 70
     1
102
RTVSPost2010Prop33
280
     0
102
RTVSPost2010PropOp33
 70
     1
102
RTVSPost2010Prop34
280
     0
102
RTVSPost2010PropOp34
 70
     1
102
RTVSPost2010Prop35
280
     0
102
RTVSPost2010PropOp35
 70
     1
102
RTVSPost2010Prop36
280
     0
102
RTVSPost2010PropOp36
 70
     1
102
RTVSPost2010Prop37
 90
       50
102
RTVSPost2010PropOp37
 70
     1
102
RTVSPost2010Prop38
140
0.0
102
RTVSPost2010PropOp38
 70
     1
102
RTVSPost2010Prop39
140
1.0
102
RTVSPost2010PropOp39
 70
     1
102
RTVSPost2010Prop40
 90
        0
102
RTVSPost2010PropOp40
 70
     1
102
RTVSPost2010Prop41ColorIndex
 90
       18
102
RTVSPost2010Prop41ColorRGB
 90
        0
102
RTVSPost2010PropOp41
 70
     1
102
RTVSPost2010Prop42
 90
       50
102
RTVSPost2010PropOp42
 70
     1
102
RTVSPost2010Prop43
 90
        3
102
RTVSPost2010PropOp43
 70
     1
102
RTVSPost2010Prop44ColorIndex
 90
        5
102
RTVSPost2010Prop44ColorRGB
 90
      255
102
RTVSPost2010PropOp44
 70
     1
102
RTVSPost2010Prop45
280
     0
102
RTVSPost2010PropOp45
 70
     1
102
RTVSPost2010Prop46
 90
       50
102
RTVSPost2010PropOp46
 70
     1
102
RTVSPost2010Prop47
 90
       50
102
RTVSPost2010PropOp47
 70
     1
102
RTVSPost2010Prop48
 90
       50
102
RTVSPost2010PropOp48
 70
     1
102
RTVSPost2010Prop49
280
     0
102
RTVSPost2010PropOp49
 70
     1
102
RTVSPost2010Prop50
 90
       50
102
RTVSPost2010PropOp50
 70
     1
102
RTVSPost2010Prop51ColorIndex
 90
      256
102
RTVSPost2010Prop51ColorRGB
 90
-16777216
102
RTVSPost2010PropOp51
 70
     0
102
RTVSPost2010Prop52
140
1.0
102
RTVSPost2010PropOp52
 70
     0
102
RTVSPost2010Prop53
 90
        2
102
RTVSPost2010PropOp53
 70
     1
102
RTVSPost2010Prop54
  1
strokes_ogs.tif
102
RTVSPost2010PropOp54
 70
     1
102
RTVSPost2010Prop55
280
     0
102
RTVSPost2010PropOp55
 70
     1
102
RTVSPost2010Prop56
140
1.0
102
RTVSPost2010PropOp56
 70
     1
102
RTVSPost2010Prop57
140
1.0
102
RTVSPost2010PropOp57
 70
     1
  0
XRECORD
  5
436
102
{ACAD_REACTORS
330
435
102
}
330
435
100
AcDbXrecord
280
     1
102
RTVSPropertyOp0
 70
     0
102
RTVSPropertyOp1
 70
     0
102
RTVSPropertyOp2
 70
     0
102
RTVSPropertyOp3
 70
     0
102
RTVSPropertyOp4
 70
     0
102
RTVSPropertyOp5
 70
     0
102
RTVSPropertyOp6
 70
     0
102
RTVSPropertyOp7
 70
     0
102
RTVSPropertyOp8
 70
     0
102
RTVSPropertyOp9
 70
     0
102
RTVSPropertyOp10
 70
     0
102
RTVSPropertyOp11
 70
     0
102
RTVSPropertyOp12
 70
     0
102
RTVSPropertyOp13
 70
     0
102
RTVSPropertyOp14
 70
     2
102
RTVSPropertyOp15
 70
     0
102
RTVSPropertyOp16
 70
     0
102
RTVSPropertyOp17
 70
     0
102
RTVSPropertyOp18
 70
     0
102
RTVSPropertyOp19
 70
     0
102
RTVSPropertyOp20
 70
     0
102
RTVSPropertyOp21
 70
     0
102
RTVSPropertyOp22
 70
     0
102
RTVSPropertyOp23
 70
     0
102
RTVSPropertyOp24
 70
     0
102
RTVSPropertyOp25
 70
     0
102
RTVSPropertyOp26
 70
     0
102
RTVSPropertyOp27
 70
     0
102
RTVSPropertyOp28
 70
     0
102
RTVSPropertyOp29
 70
     0
102
RTVSPropertyOp30
 70
     0
102
RTVSPropertyOp31
 70
     0
102
RTVSPropertyOp32
 70
     0
102
RTVSPropertyOp33
 70
     0
102
RTVSPropertyOp34
 70
     0
102
RTVSPropertyOp35
 70
     0
102
RTVSPropertyOp36
 70
     0
102
RTVSPropertyOp37
 70
     0
102
RTVSPropertyOp38
 70
     0
102
RTVSPropertyOp39
 70
     0
102
RTVSPropertyOp40
 70
     0
102
RTVSPropertyOp41
 70
     0
102
RTVSPropertyOp42
 70
     0
102
RTVSPropertyOp43
 70
     0
102
RTVSPropertyOp44
 70
     0
102
RTVSPropertyOp45
 70
     0
102
RTVSPropertyOp46
 70
     0
102
RTVSPropertyOp47
 70
     0
102
RTVSPropertyOp48
 70
     0
102
RTVSPropertyOp49
 70
     0
102
RTVSPropertyOp50
 70
     0
102
RTVSPropertyOp51
 70
     0
102
RTVSPropertyOp52
 70
     0
102
RTVSPropertyOp53
 70
     0
102
RTVSPropertyOp54
 70
     0
102
RTVSPropertyOp55
 70
     0
102
RTVSPropertyOp56
 70
     0
102
RTVSPropertyOp57
 70
     0
102
RTVSPost2010Prop28
280
     0
102
RTVSPost2010PropOp28
 70
     0
102
RTVSPost2010Prop29
280
     1
102
RTVSPost2010PropOp29
 70
     0
102
RTVSPost2010Prop30
280
     1
102
RTVSPost2010PropOp30
 70
     0
102
RTVSPost2010Prop31
280
     0
102
RTVSPost2010PropOp31
 70
     0
102
RTVSPost2010Prop32
280
     0
102
RTVSPost2010PropOp32
 70
     0
102
RTVSPost2010Prop33
280
     0
102
RTVSPost2010PropOp33
 70
     0
102
RTVSPost2010Prop34
280
     0
102
RTVSPost2010PropOp34
 70
     0
102
RTVSPost2010Prop35
280
     0
102
RTVSPost2010PropOp35
 70
     0
102
RTVSPost2010Prop36
280
     0
102
RTVSPost2010PropOp36
 70
     0
102
RTVSPost2010Prop37
 90
       50
102
RTVSPost2010PropOp37
 70
     0
102
RTVSPost2010Prop38
140
0.0
102
RTVSPost2010PropOp38
 70
     0
102
RTVSPost2010Prop39
140
1.0
102
RTVSPost2010PropOp39
 70
     0
102
RTVSPost2010Prop40
 90
        0
102
RTVSPost2010PropOp40
 70
     0
102
RTVSPost2010Prop41ColorIndex
 90
       18
102
RTVSPost2010Prop41ColorRGB
 90
        0
102
RTVSPost2010PropOp41
 70
     0
102
RTVSPost2010Prop42
 90
       50
102
RTVSPost2010PropOp42
 70
     0
102
RTVSPost2010Prop43
 90
        3
102
RTVSPost2010PropOp43
 70
     0
102
RTVSPost2010Prop44ColorIndex
 90
        5
102
RTVSPost2010Prop44ColorRGB
 90
      255
102
RTVSPost2010PropOp44
 70
     0
102
RTVSPost2010Prop45
280
     0
102
RTVSPost2010PropOp45
 70
     0
102
RTVSPost2010Prop46
 90
       50
102
RTVSPost2010PropOp46
 70
     0
102
RTVSPost2010Prop47
 90
       50
102
RTVSPost2010PropOp47
 70
     0
102
RTVSPost2010Prop48
 90
       50
102
RTVSPost2010PropOp48
 70
     0
102
RTVSPost2010Prop49
280
     0
102
RTVSPost2010PropOp49
 70
     0
102
RTVSPost2010Prop50
 90
       50
102
RTVSPost2010PropOp50
 70
     0
102
RTVSPost2010Prop51ColorIndex
 90
      256
102
RTVSPost2010Prop51ColorRGB
 90
-16777216
102
RTVSPost2010PropOp51
 70
     0
102
RTVSPost2010Prop52
140
1.0
102
RTVSPost2010PropOp52
 70
     0
102
RTVSPost2010Prop53
 90
        2
102
RTVSPost2010PropOp53
 70
     0
102
RTVSPost2010Prop54
  1
strokes_ogs.tif
102
RTVSPost2010PropOp54
 70
     0
102
RTVSPost2010Prop55
280
     0
102
RTVSPost2010PropOp55
 70
     0
102
RTVSPost2010Prop56
140
1.0
102
RTVSPost2010PropOp56
 70
     0
102
RTVSPost2010Prop57
140
1.0
102
RTVSPost2010PropOp57
 70
     0
  0
XRECORD
  5
424
102
{ACAD_REACTORS
330
423
102
}
330
423
100
AcDbXrecord
280
     1
102
RTVSPropertyOp0
 70
     1
102
RTVSPropertyOp1
 70
     1
102
RTVSPropertyOp2
 70
     1
102
RTVSPropertyOp3
 70
     1
102
RTVSPropertyOp4
 70
     1
102
RTVSPropertyOp5
 70
     1
102
RTVSPropertyOp6
 70
     1
102
RTVSPropertyOp7
 70
     1
102
RTVSPropertyOp8
 70
     1
102
RTVSPropertyOp9
 70
     1
102
RTVSPropertyOp10
 70
     1
102
RTVSPropertyOp11
 70
     1
102
RTVSPropertyOp12
 70
     1
102
RTVSPropertyOp13
 70
     1
102
RTVSPropertyOp14
 70
     1
102
RTVSPropertyOp15
 70
     1
102
RTVSPropertyOp16
 70
     1
102
RTVSPropertyOp17
 70
     1
102
RTVSPropertyOp18
 70
     1
102
RTVSPropertyOp19
 70
     1
102
RTVSPropertyOp20
 70
     1
102
RTVSPropertyOp21
 70
     1
102
RTVSPropertyOp22
 70
     1
102
RTVSPropertyOp23
 70
     1
102
RTVSPropertyOp24
 70
     1
102
RTVSPropertyOp25
 70
     1
102
RTVSPropertyOp26
 70
     1
102
RTVSPropertyOp27
 70
     1
102
RTVSPropertyOp28
 70
     1
102
RTVSPropertyOp29
 70
     1
102
RTVSPropertyOp30
 70
     1
102
RTVSPropertyOp31
 70
     1
102
RTVSPropertyOp32
 70
     1
102
RTVSPropertyOp33
 70
     1
102
RTVSPropertyOp34
 70
     1
102
RTVSPropertyOp35
 70
     1
102
RTVSPropertyOp36
 70
     1
102
RTVSPropertyOp37
 70
     1
102
RTVSPropertyOp38
 70
     1
102
RTVSPropertyOp39
 70
     1
102
RTVSPropertyOp40
 70
     1
102
RTVSPropertyOp41
 70
     1
102
RTVSPropertyOp42
 70
     1
102
RTVSPropertyOp43
 70
     1
102
RTVSPropertyOp44
 70
     1
102
RTVSPropertyOp45
 70
     1
102
RTVSPropertyOp46
 70
     1
102
RTVSPropertyOp47
 70
     1
102
RTVSPropertyOp48
 70
     1
102
RTVSPropertyOp49
 70
     1
102
RTVSPropertyOp50
 70
     1
102
RTVSPropertyOp51
 70
     0
102
RTVSPropertyOp52
 70
     0
102
RTVSPropertyOp53
 70
     1
102
RTVSPropertyOp54
 70
     1
102
RTVSPropertyOp55
 70
     1
102
RTVSPropertyOp56
 70
     1
102
RTVSPropertyOp57
 70
     1
102
RTVSPost2010Prop28
280
     0
102
RTVSPost2010PropOp28
 70
     1
102
RTVSPost2010Prop29
280
     1
102
RTVSPost2010PropOp29
 70
     1
102
RTVSPost2010Prop30
280
     1
102
RTVSPost2010PropOp30
 70
     1
102
RTVSPost2010Prop31
280
     0
102
RTVSPost2010PropOp31
 70
     1
102
RTVSPost2010Prop32
280
     0
102
RTVSPost2010PropOp32
 70
     1
102
RTVSPost2010Prop33
280
     0
102
RTVSPost2010PropOp33
 70
     1
102
RTVSPost2010Prop34
280
     0
102
RTVSPost2010PropOp34
 70
     1
102
RTVSPost2010Prop35
280
     0
102
RTVSPost2010PropOp35
 70
     1
102
RTVSPost2010Prop36
280
     0
102
RTVSPost2010PropOp36
 70
     1
102
RTVSPost2010Prop37
 90
       50
102
RTVSPost2010PropOp37
 70
     1
102
RTVSPost2010Prop38
140
0.0
102
RTVSPost2010PropOp38
 70
     1
102
RTVSPost2010Prop39
140
1.0
102
RTVSPost2010PropOp39
 70
     1
102
RTVSPost2010Prop40
 90
        0
102
RTVSPost2010PropOp40
 70
     1
102
RTVSPost2010Prop41ColorIndex
 90
       18
102
RTVSPost2010Prop41ColorRGB
 90
        0
102
RTVSPost2010PropOp41
 70
     1
102
RTVSPost2010Prop42
 90
       50
102
RTVSPost2010PropOp42
 70
     1
102
RTVSPost2010Prop43
 90
        3
102
RTVSPost2010PropOp43
 70
     1
102
RTVSPost2010Prop44ColorIndex
 90
        5
102
RTVSPost2010Prop44ColorRGB
 90
      255
102
RTVSPost2010PropOp44
 70
     1
102
RTVSPost2010Prop45
280
     0
102
RTVSPost2010PropOp45
 70
     1
102
RTVSPost2010Prop46
 90
       50
102
RTVSPost2010PropOp46
 70
     1
102
RTVSPost2010Prop47
 90
       50
102
RTVSPost2010PropOp47
 70
     1
102
RTVSPost2010Prop48
 90
       50
102
RTVSPost2010PropOp48
 70
     1
102
RTVSPost2010Prop49
280
     0
102
RTVSPost2010PropOp49
 70
     1
102
RTVSPost2010Prop50
 90
       50
102
RTVSPost2010PropOp50
 70
     1
102
RTVSPost2010Prop51ColorIndex
 90
      256
102
RTVSPost2010Prop51ColorRGB
 90
-16777216
102
RTVSPost2010PropOp51
 70
     0
102
RTVSPost2010Prop52
140
1.0
102
RTVSPost2010PropOp52
 70
     0
102
RTVSPost2010Prop53
 90
        2
102
RTVSPost2010PropOp53
 70
     1
102
RTVSPost2010Prop54
  1
strokes_ogs.tif
102
RTVSPost2010PropOp54
 70
     1
102
RTVSPost2010Prop55
280
     0
102
RTVSPost2010PropOp55
 70
     1
102
RTVSPost2010Prop56
140
1.0
102
RTVSPost2010PropOp56
 70
     1
102
RTVSPost2010Prop57
140
1.0
102
RTVSPost2010PropOp57
 70
     1
  0
XRECORD
  5
442
102
{ACAD_REACTORS
330
441
102
}
330
441
100
AcDbXrecord
280
     1
102
RTVSPropertyOp0
 70
     1
102
RTVSPropertyOp1
 70
     1
102
RTVSPropertyOp2
 70
     1
102
RTVSPropertyOp3
 70
     1
102
RTVSPropertyOp4
 70
     1
102
RTVSPropertyOp5
 70
     1
102
RTVSPropertyOp6
 70
     1
102
RTVSPropertyOp7
 70
     1
102
RTVSPropertyOp8
 70
     1
102
RTVSPropertyOp9
 70
     1
102
RTVSPropertyOp10
 70
     1
102
RTVSPropertyOp11
 70
     1
102
RTVSPropertyOp12
 70
     1
102
RTVSPropertyOp13
 70
     1
102
RTVSPropertyOp14
 70
     1
102
RTVSPropertyOp15
 70
     1
102
RTVSPropertyOp16
 70
     1
102
RTVSPropertyOp17
 70
     1
102
RTVSPropertyOp18
 70
     1
102
RTVSPropertyOp19
 70
     1
102
RTVSPropertyOp20
 70
     1
102
RTVSPropertyOp21
 70
     1
102
RTVSPropertyOp22
 70
     1
102
RTVSPropertyOp23
 70
     1
102
RTVSPropertyOp24
 70
     1
102
RTVSPropertyOp25
 70
     1
102
RTVSPropertyOp26
 70
     1
102
RTVSPropertyOp27
 70
     1
102
RTVSPropertyOp28
 70
     1
102
RTVSPropertyOp29
 70
     1
102
RTVSPropertyOp30
 70
     1
102
RTVSPropertyOp31
 70
     1
102
RTVSPropertyOp32
 70
     1
102
RTVSPropertyOp33
 70
     1
102
RTVSPropertyOp34
 70
     1
102
RTVSPropertyOp35
 70
     1
102
RTVSPropertyOp36
 70
     1
102
RTVSPropertyOp37
 70
     1
102
RTVSPropertyOp38
 70
     1
102
RTVSPropertyOp39
 70
     1
102
RTVSPropertyOp40
 70
     1
102
RTVSPropertyOp41
 70
     1
102
RTVSPropertyOp42
 70
     1
102
RTVSPropertyOp43
 70
     1
102
RTVSPropertyOp44
 70
     1
102
RTVSPropertyOp45
 70
     1
102
RTVSPropertyOp46
 70
     1
102
RTVSPropertyOp47
 70
     1
102
RTVSPropertyOp48
 70
     1
102
RTVSPropertyOp49
 70
     1
102
RTVSPropertyOp50
 70
     1
102
RTVSPropertyOp51
 70
     0
102
RTVSPropertyOp52
 70
     0
102
RTVSPropertyOp53
 70
     1
102
RTVSPropertyOp54
 70
     1
102
RTVSPropertyOp55
 70
     1
102
RTVSPropertyOp56
 70
     1
102
RTVSPropertyOp57
 70
     1
102
RTVSPost2010Prop28
280
     0
102
RTVSPost2010PropOp28
 70
     1
102
RTVSPost2010Prop29
280
     1
102
RTVSPost2010PropOp29
 70
     1
102
RTVSPost2010Prop30
280
     1
102
RTVSPost2010PropOp30
 70
     1
102
RTVSPost2010Prop31
280
     0
102
RTVSPost2010PropOp31
 70
     1
102
RTVSPost2010Prop32
280
     0
102
RTVSPost2010PropOp32
 70
     1
102
RTVSPost2010Prop33
280
     0
102
RTVSPost2010PropOp33
 70
     1
102
RTVSPost2010Prop34
280
     0
102
RTVSPost2010PropOp34
 70
     1
102
RTVSPost2010Prop35
280
     0
102
RTVSPost2010PropOp35
 70
     1
102
RTVSPost2010Prop36
280
     0
102
RTVSPost2010PropOp36
 70
     1
102
RTVSPost2010Prop37
 90
       50
102
RTVSPost2010PropOp37
 70
     1
102
RTVSPost2010Prop38
140
0.0
102
RTVSPost2010PropOp38
 70
     1
102
RTVSPost2010Prop39
140
1.0
102
RTVSPost2010PropOp39
 70
     1
102
RTVSPost2010Prop40
 90
        0
102
RTVSPost2010PropOp40
 70
     1
102
RTVSPost2010Prop41ColorIndex
 90
       18
102
RTVSPost2010Prop41ColorRGB
 90
        0
102
RTVSPost2010PropOp41
 70
     1
102
RTVSPost2010Prop42
 90
       50
102
RTVSPost2010PropOp42
 70
     1
102
RTVSPost2010Prop43
 90
        3
102
RTVSPost2010PropOp43
 70
     1
102
RTVSPost2010Prop44ColorIndex
 90
        5
102
RTVSPost2010Prop44ColorRGB
 90
      255
102
RTVSPost2010PropOp44
 70
     1
102
RTVSPost2010Prop45
280
     0
102
RTVSPost2010PropOp45
 70
     1
102
RTVSPost2010Prop46
 90
       50
102
RTVSPost2010PropOp46
 70
     1
102
RTVSPost2010Prop47
 90
       50
102
RTVSPost2010PropOp47
 70
     1
102
RTVSPost2010Prop48
 90
       50
102
RTVSPost2010PropOp48
 70
     1
102
RTVSPost2010Prop49
280
     0
102
RTVSPost2010PropOp49
 70
     1
102
RTVSPost2010Prop50
 90
       50
102
RTVSPost2010PropOp50
 70
     1
102
RTVSPost2010Prop51ColorIndex
 90
      256
102
RTVSPost2010Prop51ColorRGB
 90
-16777216
102
RTVSPost2010PropOp51
 70
     0
102
RTVSPost2010Prop52
140
1.0
102
RTVSPost2010PropOp52
 70
     0
102
RTVSPost2010Prop53
 90
        2
102
RTVSPost2010PropOp53
 70
     1
102
RTVSPost2010Prop54
  1
strokes_ogs.tif
102
RTVSPost2010PropOp54
 70
     1
102
RTVSPost2010Prop55
280
     0
102
RTVSPost2010PropOp55
 70
     1
102
RTVSPost2010Prop56
140
1.0
102
RTVSPost2010PropOp56
 70
     1
102
RTVSPost2010Prop57
140
1.0
102
RTVSPost2010PropOp57
 70
     1
  0
XRECORD
  5
440
102
{ACAD_REACTORS
330
43F
102
}
330
43F
100
AcDbXrecord
280
     1
102
RTVSPropertyOp0
 70
     1
102
RTVSPropertyOp1
 70
     1
102
RTVSPropertyOp2
 70
     1
102
RTVSPropertyOp3
 70
     1
102
RTVSPropertyOp4
 70
     1
102
RTVSPropertyOp5
 70
     1
102
RTVSPropertyOp6
 70
     1
102
RTVSPropertyOp7
 70
     1
102
RTVSPropertyOp8
 70
     1
102
RTVSPropertyOp9
 70
     1
102
RTVSPropertyOp10
 70
     1
102
RTVSPropertyOp11
 70
     1
102
RTVSPropertyOp12
 70
     1
102
RTVSPropertyOp13
 70
     1
102
RTVSPropertyOp14
 70
     1
102
RTVSPropertyOp15
 70
     1
102
RTVSPropertyOp16
 70
     1
102
RTVSPropertyOp17
 70
     1
102
RTVSPropertyOp18
 70
     1
102
RTVSPropertyOp19
 70
     1
102
RTVSPropertyOp20
 70
     1
102
RTVSPropertyOp21
 70
     1
102
RTVSPropertyOp22
 70
     1
102
RTVSPropertyOp23
 70
     1
102
RTVSPropertyOp24
 70
     1
102
RTVSPropertyOp25
 70
     1
102
RTVSPropertyOp26
 70
     1
102
RTVSPropertyOp27
 70
     1
102
RTVSPropertyOp28
 70
     1
102
RTVSPropertyOp29
 70
     1
102
RTVSPropertyOp30
 70
     1
102
RTVSPropertyOp31
 70
     1
102
RTVSPropertyOp32
 70
     1
102
RTVSPropertyOp33
 70
     1
102
RTVSPropertyOp34
 70
     1
102
RTVSPropertyOp35
 70
     1
102
RTVSPropertyOp36
 70
     1
102
RTVSPropertyOp37
 70
     1
102
RTVSPropertyOp38
 70
     1
102
RTVSPropertyOp39
 70
     1
102
RTVSPropertyOp40
 70
     1
102
RTVSPropertyOp41
 70
     1
102
RTVSPropertyOp42
 70
     1
102
RTVSPropertyOp43
 70
     1
102
RTVSPropertyOp44
 70
     1
102
RTVSPropertyOp45
 70
     1
102
RTVSPropertyOp46
 70
     1
102
RTVSPropertyOp47
 70
     1
102
RTVSPropertyOp48
 70
     1
102
RTVSPropertyOp49
 70
     1
102
RTVSPropertyOp50
 70
     1
102
RTVSPropertyOp51
 70
     0
102
RTVSPropertyOp52
 70
     0
102
RTVSPropertyOp53
 70
     1
102
RTVSPropertyOp54
 70
     1
102
RTVSPropertyOp55
 70
     1
102
RTVSPropertyOp56
 70
     1
102
RTVSPropertyOp57
 70
     1
102
RTVSPost2010Prop28
280
     0
102
RTVSPost2010PropOp28
 70
     1
102
RTVSPost2010Prop29
280
     1
102
RTVSPost2010PropOp29
 70
     1
102
RTVSPost2010Prop30
280
     1
102
RTVSPost2010PropOp30
 70
     1
102
RTVSPost2010Prop31
280
     0
102
RTVSPost2010PropOp31
 70
     1
102
RTVSPost2010Prop32
280
     0
102
RTVSPost2010PropOp32
 70
     1
102
RTVSPost2010Prop33
280
     0
102
RTVSPost2010PropOp33
 70
     1
102
RTVSPost2010Prop34
280
     0
102
RTVSPost2010PropOp34
 70
     1
102
RTVSPost2010Prop35
280
     0
102
RTVSPost2010PropOp35
 70
     1
102
RTVSPost2010Prop36
280
     0
102
RTVSPost2010PropOp36
 70
     1
102
RTVSPost2010Prop37
 90
       50
102
RTVSPost2010PropOp37
 70
     1
102
RTVSPost2010Prop38
140
0.0
102
RTVSPost2010PropOp38
 70
     1
102
RTVSPost2010Prop39
140
1.0
102
RTVSPost2010PropOp39
 70
     1
102
RTVSPost2010Prop40
 90
        0
102
RTVSPost2010PropOp40
 70
     1
102
RTVSPost2010Prop41ColorIndex
 90
       18
102
RTVSPost2010Prop41ColorRGB
 90
        0
102
RTVSPost2010PropOp41
 70
     1
102
RTVSPost2010Prop42
 90
       50
102
RTVSPost2010PropOp42
 70
     1
102
RTVSPost2010Prop43
 90
        3
102
RTVSPost2010PropOp43
 70
     1
102
RTVSPost2010Prop44ColorIndex
 90
        5
102
RTVSPost2010Prop44ColorRGB
 90
      255
102
RTVSPost2010PropOp44
 70
     1
102
RTVSPost2010Prop45
280
     0
102
RTVSPost2010PropOp45
 70
     1
102
RTVSPost2010Prop46
 90
       50
102
RTVSPost2010PropOp46
 70
     1
102
RTVSPost2010Prop47
 90
       50
102
RTVSPost2010PropOp47
 70
     1
102
RTVSPost2010Prop48
 90
       50
102
RTVSPost2010PropOp48
 70
     1
102
RTVSPost2010Prop49
280
     0
102
RTVSPost2010PropOp49
 70
     1
102
RTVSPost2010Prop50
 90
       50
102
RTVSPost2010PropOp50
 70
     1
102
RTVSPost2010Prop51ColorIndex
 90
      256
102
RTVSPost2010Prop51ColorRGB
 90
-16777216
102
RTVSPost2010PropOp51
 70
     0
102
RTVSPost2010Prop52
140
1.0
102
RTVSPost2010PropOp52
 70
     0
102
RTVSPost2010Prop53
 90
        2
102
RTVSPost2010PropOp53
 70
     1
102
RTVSPost2010Prop54
  1
strokes_ogs.tif
102
RTVSPost2010PropOp54
 70
     1
102
RTVSPost2010Prop55
280
     0
102
RTVSPost2010PropOp55
 70
     1
102
RTVSPost2010Prop56
140
1.0
102
RTVSPost2010PropOp56
 70
     1
102
RTVSPost2010Prop57
140
1.0
102
RTVSPost2010PropOp57
 70
     1
  0
XRECORD
  5
43A
102
{ACAD_REACTORS
330
439
102
}
330
439
100
AcDbXrecord
280
     1
102
RTVSPropertyOp0
 70
     1
102
RTVSPropertyOp1
 70
     1
102
RTVSPropertyOp2
 70
     1
102
RTVSPropertyOp3
 70
     1
102
RTVSPropertyOp4
 70
     1
102
RTVSPropertyOp5
 70
     1
102
RTVSPropertyOp6
 70
     1
102
RTVSPropertyOp7
 70
     1
102
RTVSPropertyOp8
 70
     1
102
RTVSPropertyOp9
 70
     1
102
RTVSPropertyOp10
 70
     1
102
RTVSPropertyOp11
 70
     1
102
RTVSPropertyOp12
 70
     1
102
RTVSPropertyOp13
 70
     1
102
RTVSPropertyOp14
 70
     1
102
RTVSPropertyOp15
 70
     1
102
RTVSPropertyOp16
 70
     1
102
RTVSPropertyOp17
 70
     1
102
RTVSPropertyOp18
 70
     1
102
RTVSPropertyOp19
 70
     1
102
RTVSPropertyOp20
 70
     1
102
RTVSPropertyOp21
 70
     1
102
RTVSPropertyOp22
 70
     1
102
RTVSPropertyOp23
 70
     1
102
RTVSPropertyOp24
 70
     1
102
RTVSPropertyOp25
 70
     1
102
RTVSPropertyOp26
 70
     1
102
RTVSPropertyOp27
 70
     1
102
RTVSPropertyOp28
 70
     1
102
RTVSPropertyOp29
 70
     1
102
RTVSPropertyOp30
 70
     1
102
RTVSPropertyOp31
 70
     1
102
RTVSPropertyOp32
 70
     1
102
RTVSPropertyOp33
 70
     1
102
RTVSPropertyOp34
 70
     1
102
RTVSPropertyOp35
 70
     1
102
RTVSPropertyOp36
 70
     1
102
RTVSPropertyOp37
 70
     1
102
RTVSPropertyOp38
 70
     1
102
RTVSPropertyOp39
 70
     1
102
RTVSPropertyOp40
 70
     1
102
RTVSPropertyOp41
 70
     1
102
RTVSPropertyOp42
 70
     1
102
RTVSPropertyOp43
 70
     1
102
RTVSPropertyOp44
 70
     1
102
RTVSPropertyOp45
 70
     1
102
RTVSPropertyOp46
 70
     1
102
RTVSPropertyOp47
 70
     1
102
RTVSPropertyOp48
 70
     1
102
RTVSPropertyOp49
 70
     1
102
RTVSPropertyOp50
 70
     1
102
RTVSPropertyOp51
 70
     0
102
RTVSPropertyOp52
 70
     0
102
RTVSPropertyOp53
 70
     1
102
RTVSPropertyOp54
 70
     1
102
RTVSPropertyOp55
 70
     1
102
RTVSPropertyOp56
 70
     1
102
RTVSPropertyOp57
 70
     1
102
RTVSPost2010Prop28
280
     0
102
RTVSPost2010PropOp28
 70
     1
102
RTVSPost2010Prop29
280
     1
102
RTVSPost2010PropOp29
 70
     1
102
RTVSPost2010Prop30
280
     1
102
RTVSPost2010PropOp30
 70
     1
102
RTVSPost2010Prop31
280
     0
102
RTVSPost2010PropOp31
 70
     1
102
RTVSPost2010Prop32
280
     0
102
RTVSPost2010PropOp32
 70
     1
102
RTVSPost2010Prop33
280
     0
102
RTVSPost2010PropOp33
 70
     1
102
RTVSPost2010Prop34
280
     0
102
RTVSPost2010PropOp34
 70
     1
102
RTVSPost2010Prop35
280
     0
102
RTVSPost2010PropOp35
 70
     1
102
RTVSPost2010Prop36
280
     0
102
RTVSPost2010PropOp36
 70
     1
102
RTVSPost2010Prop37
 90
       50
102
RTVSPost2010PropOp37
 70
     1
102
RTVSPost2010Prop38
140
0.0
102
RTVSPost2010PropOp38
 70
     1
102
RTVSPost2010Prop39
140
1.0
102
RTVSPost2010PropOp39
 70
     1
102
RTVSPost2010Prop40
 90
        0
102
RTVSPost2010PropOp40
 70
     1
102
RTVSPost2010Prop41ColorIndex
 90
       18
102
RTVSPost2010Prop41ColorRGB
 90
        0
102
RTVSPost2010PropOp41
 70
     1
102
RTVSPost2010Prop42
 90
       50
102
RTVSPost2010PropOp42
 70
     1
102
RTVSPost2010Prop43
 90
        3
102
RTVSPost2010PropOp43
 70
     1
102
RTVSPost2010Prop44ColorIndex
 90
        5
102
RTVSPost2010Prop44ColorRGB
 90
      255
102
RTVSPost2010PropOp44
 70
     1
102
RTVSPost2010Prop45
280
     0
102
RTVSPost2010PropOp45
 70
     1
102
RTVSPost2010Prop46
 90
       50
102
RTVSPost2010PropOp46
 70
     1
102
RTVSPost2010Prop47
 90
       50
102
RTVSPost2010PropOp47
 70
     1
102
RTVSPost2010Prop48
 90
       50
102
RTVSPost2010PropOp48
 70
     1
102
RTVSPost2010Prop49
280
     0
102
RTVSPost2010PropOp49
 70
     1
102
RTVSPost2010Prop50
 90
       50
102
RTVSPost2010PropOp50
 70
     1
102
RTVSPost2010Prop51ColorIndex
 90
      256
102
RTVSPost2010Prop51ColorRGB
 90
-16777216
102
RTVSPost2010PropOp51
 70
     0
102
RTVSPost2010Prop52
140
1.0
102
RTVSPost2010PropOp52
 70
     0
102
RTVSPost2010Prop53
 90
        2
102
RTVSPost2010PropOp53
 70
     1
102
RTVSPost2010Prop54
  1
strokes_ogs.tif
102
RTVSPost2010PropOp54
 70
     1
102
RTVSPost2010Prop55
280
     0
102
RTVSPost2010PropOp55
 70
     1
102
RTVSPost2010Prop56
140
1.0
102
RTVSPost2010PropOp56
 70
     1
102
RTVSPost2010Prop57
140
1.0
102
RTVSPost2010PropOp57
 70
     1
  0
XRECORD
  5
43C
102
{ACAD_REACTORS
330
43B
102
}
330
43B
100
AcDbXrecord
280
     1
102
RTVSPropertyOp0
 70
     1
102
RTVSPropertyOp1
 70
     1
102
RTVSPropertyOp2
 70
     1
102
RTVSPropertyOp3
 70
     1
102
RTVSPropertyOp4
 70
     1
102
RTVSPropertyOp5
 70
     1
102
RTVSPropertyOp6
 70
     1
102
RTVSPropertyOp7
 70
     1
102
RTVSPropertyOp8
 70
     1
102
RTVSPropertyOp9
 70
     1
102
RTVSPropertyOp10
 70
     1
102
RTVSPropertyOp11
 70
     1
102
RTVSPropertyOp12
 70
     1
102
RTVSPropertyOp13
 70
     1
102
RTVSPropertyOp14
 70
     1
102
RTVSPropertyOp15
 70
     1
102
RTVSPropertyOp16
 70
     1
102
RTVSPropertyOp17
 70
     1
102
RTVSPropertyOp18
 70
     1
102
RTVSPropertyOp19
 70
     1
102
RTVSPropertyOp20
 70
     1
102
RTVSPropertyOp21
 70
     1
102
RTVSPropertyOp22
 70
     1
102
RTVSPropertyOp23
 70
     1
102
RTVSPropertyOp24
 70
     1
102
RTVSPropertyOp25
 70
     1
102
RTVSPropertyOp26
 70
     1
102
RTVSPropertyOp27
 70
     1
102
RTVSPropertyOp28
 70
     1
102
RTVSPropertyOp29
 70
     1
102
RTVSPropertyOp30
 70
     1
102
RTVSPropertyOp31
 70
     1
102
RTVSPropertyOp32
 70
     1
102
RTVSPropertyOp33
 70
     1
102
RTVSPropertyOp34
 70
     1
102
RTVSPropertyOp35
 70
     1
102
RTVSPropertyOp36
 70
     1
102
RTVSPropertyOp37
 70
     1
102
RTVSPropertyOp38
 70
     1
102
RTVSPropertyOp39
 70
     1
102
RTVSPropertyOp40
 70
     1
102
RTVSPropertyOp41
 70
     1
102
RTVSPropertyOp42
 70
     1
102
RTVSPropertyOp43
 70
     1
102
RTVSPropertyOp44
 70
     1
102
RTVSPropertyOp45
 70
     1
102
RTVSPropertyOp46
 70
     1
102
RTVSPropertyOp47
 70
     1
102
RTVSPropertyOp48
 70
     1
102
RTVSPropertyOp49
 70
     1
102
RTVSPropertyOp50
 70
     1
102
RTVSPropertyOp51
 70
     0
102
RTVSPropertyOp52
 70
     0
102
RTVSPropertyOp53
 70
     1
102
RTVSPropertyOp54
 70
     1
102
RTVSPropertyOp55
 70
     1
102
RTVSPropertyOp56
 70
     1
102
RTVSPropertyOp57
 70
     1
102
RTVSPost2010Prop28
280
     0
102
RTVSPost2010PropOp28
 70
     1
102
RTVSPost2010Prop29
280
     1
102
RTVSPost2010PropOp29
 70
     1
102
RTVSPost2010Prop30
280
     1
102
RTVSPost2010PropOp30
 70
     1
102
RTVSPost2010Prop31
280
     0
102
RTVSPost2010PropOp31
 70
     1
102
RTVSPost2010Prop32
280
     0
102
RTVSPost2010PropOp32
 70
     1
102
RTVSPost2010Prop33
280
     0
102
RTVSPost2010PropOp33
 70
     1
102
RTVSPost2010Prop34
280
     0
102
RTVSPost2010PropOp34
 70
     1
102
RTVSPost2010Prop35
280
     0
102
RTVSPost2010PropOp35
 70
     1
102
RTVSPost2010Prop36
280
     0
102
RTVSPost2010PropOp36
 70
     1
102
RTVSPost2010Prop37
 90
       50
102
RTVSPost2010PropOp37
 70
     1
102
RTVSPost2010Prop38
140
0.0
102
RTVSPost2010PropOp38
 70
     1
102
RTVSPost2010Prop39
140
1.0
102
RTVSPost2010PropOp39
 70
     1
102
RTVSPost2010Prop40
 90
        0
102
RTVSPost2010PropOp40
 70
     1
102
RTVSPost2010Prop41ColorIndex
 90
       18
102
RTVSPost2010Prop41ColorRGB
 90
        0
102
RTVSPost2010PropOp41
 70
     1
102
RTVSPost2010Prop42
 90
       50
102
RTVSPost2010PropOp42
 70
     1
102
RTVSPost2010Prop43
 90
        3
102
RTVSPost2010PropOp43
 70
     1
102
RTVSPost2010Prop44ColorIndex
 90
        5
102
RTVSPost2010Prop44ColorRGB
 90
      255
102
RTVSPost2010PropOp44
 70
     1
102
RTVSPost2010Prop45
280
     0
102
RTVSPost2010PropOp45
 70
     1
102
RTVSPost2010Prop46
 90
       50
102
RTVSPost2010PropOp46
 70
     1
102
RTVSPost2010Prop47
 90
       50
102
RTVSPost2010PropOp47
 70
     1
102
RTVSPost2010Prop48
 90
       50
102
RTVSPost2010PropOp48
 70
     1
102
RTVSPost2010Prop49
280
     0
102
RTVSPost2010PropOp49
 70
     1
102
RTVSPost2010Prop50
 90
       50
102
RTVSPost2010PropOp50
 70
     1
102
RTVSPost2010Prop51ColorIndex
 90
      256
102
RTVSPost2010Prop51ColorRGB
 90
-16777216
102
RTVSPost2010PropOp51
 70
     0
102
RTVSPost2010Prop52
140
1.0
102
RTVSPost2010PropOp52
 70
     0
102
RTVSPost2010Prop53
 90
        2
102
RTVSPost2010PropOp53
 70
     1
102
RTVSPost2010Prop54
  1
strokes_ogs.tif
102
RTVSPost2010PropOp54
 70
     1
102
RTVSPost2010Prop55
280
     0
102
RTVSPost2010PropOp55
 70
     1
102
RTVSPost2010Prop56
140
1.0
102
RTVSPost2010PropOp56
 70
     1
102
RTVSPost2010Prop57
140
1.0
102
RTVSPost2010PropOp57
 70
     1
  0
XRECORD
  5
42C
102
{ACAD_REACTORS
330
42B
102
}
330
42B
100
AcDbXrecord
280
     1
102
RTVSPropertyOp0
 70
     1
102
RTVSPropertyOp1
 70
     1
102
RTVSPropertyOp2
 70
     1
102
RTVSPropertyOp3
 70
     1
102
RTVSPropertyOp4
 70
     1
102
RTVSPropertyOp5
 70
     1
102
RTVSPropertyOp6
 70
     1
102
RTVSPropertyOp7
 70
     1
102
RTVSPropertyOp8
 70
     1
102
RTVSPropertyOp9
 70
     1
102
RTVSPropertyOp10
 70
     1
102
RTVSPropertyOp11
 70
     1
102
RTVSPropertyOp12
 70
     1
102
RTVSPropertyOp13
 70
     1
102
RTVSPropertyOp14
 70
     1
102
RTVSPropertyOp15
 70
     1
102
RTVSPropertyOp16
 70
     1
102
RTVSPropertyOp17
 70
     1
102
RTVSPropertyOp18
 70
     1
102
RTVSPropertyOp19
 70
     1
102
RTVSPropertyOp20
 70
     1
102
RTVSPropertyOp21
 70
     1
102
RTVSPropertyOp22
 70
     1
102
RTVSPropertyOp23
 70
     1
102
RTVSPropertyOp24
 70
     1
102
RTVSPropertyOp25
 70
     1
102
RTVSPropertyOp26
 70
     1
102
RTVSPropertyOp27
 70
     1
102
RTVSPropertyOp28
 70
     1
102
RTVSPropertyOp29
 70
     1
102
RTVSPropertyOp30
 70
     1
102
RTVSPropertyOp31
 70
     1
102
RTVSPropertyOp32
 70
     1
102
RTVSPropertyOp33
 70
     1
102
RTVSPropertyOp34
 70
     1
102
RTVSPropertyOp35
 70
     1
102
RTVSPropertyOp36
 70
     1
102
RTVSPropertyOp37
 70
     1
102
RTVSPropertyOp38
 70
     1
102
RTVSPropertyOp39
 70
     1
102
RTVSPropertyOp40
 70
     1
102
RTVSPropertyOp41
 70
     1
102
RTVSPropertyOp42
 70
     1
102
RTVSPropertyOp43
 70
     1
102
RTVSPropertyOp44
 70
     1
102
RTVSPropertyOp45
 70
     1
102
RTVSPropertyOp46
 70
     1
102
RTVSPropertyOp47
 70
     1
102
RTVSPropertyOp48
 70
     1
102
RTVSPropertyOp49
 70
     1
102
RTVSPropertyOp50
 70
     1
102
RTVSPropertyOp51
 70
     0
102
RTVSPropertyOp52
 70
     0
102
RTVSPropertyOp53
 70
     1
102
RTVSPropertyOp54
 70
     1
102
RTVSPropertyOp55
 70
     1
102
RTVSPropertyOp56
 70
     1
102
RTVSPropertyOp57
 70
     1
102
RTVSPost2010Prop28
280
     0
102
RTVSPost2010PropOp28
 70
     1
102
RTVSPost2010Prop29
280
     1
102
RTVSPost2010PropOp29
 70
     1
102
RTVSPost2010Prop30
280
     1
102
RTVSPost2010PropOp30
 70
     1
102
RTVSPost2010Prop31
280
     0
102
RTVSPost2010PropOp31
 70
     1
102
RTVSPost2010Prop32
280
     0
102
RTVSPost2010PropOp32
 70
     1
102
RTVSPost2010Prop33
280
     0
102
RTVSPost2010PropOp33
 70
     1
102
RTVSPost2010Prop34
280
     0
102
RTVSPost2010PropOp34
 70
     1
102
RTVSPost2010Prop35
280
     0
102
RTVSPost2010PropOp35
 70
     1
102
RTVSPost2010Prop36
280
     0
102
RTVSPost2010PropOp36
 70
     1
102
RTVSPost2010Prop37
 90
       50
102
RTVSPost2010PropOp37
 70
     1
102
RTVSPost2010Prop38
140
0.0
102
RTVSPost2010PropOp38
 70
     1
102
RTVSPost2010Prop39
140
1.0
102
RTVSPost2010PropOp39
 70
     1
102
RTVSPost2010Prop40
 90
        0
102
RTVSPost2010PropOp40
 70
     1
102
RTVSPost2010Prop41ColorIndex
 90
       18
102
RTVSPost2010Prop41ColorRGB
 90
        0
102
RTVSPost2010PropOp41
 70
     1
102
RTVSPost2010Prop42
 90
       50
102
RTVSPost2010PropOp42
 70
     1
102
RTVSPost2010Prop43
 90
        3
102
RTVSPost2010PropOp43
 70
     1
102
RTVSPost2010Prop44ColorIndex
 90
        5
102
RTVSPost2010Prop44ColorRGB
 90
      255
102
RTVSPost2010PropOp44
 70
     1
102
RTVSPost2010Prop45
280
     0
102
RTVSPost2010PropOp45
 70
     1
102
RTVSPost2010Prop46
 90
       50
102
RTVSPost2010PropOp46
 70
     1
102
RTVSPost2010Prop47
 90
       50
102
RTVSPost2010PropOp47
 70
     1
102
RTVSPost2010Prop48
 90
       50
102
RTVSPost2010PropOp48
 70
     1
102
RTVSPost2010Prop49
280
     0
102
RTVSPost2010PropOp49
 70
     1
102
RTVSPost2010Prop50
 90
       50
102
RTVSPost2010PropOp50
 70
     1
102
RTVSPost2010Prop51ColorIndex
 90
      256
102
RTVSPost2010Prop51ColorRGB
 90
-16777216
102
RTVSPost2010PropOp51
 70
     0
102
RTVSPost2010Prop52
140
1.0
102
RTVSPost2010PropOp52
 70
     0
102
RTVSPost2010Prop53
 90
        2
102
RTVSPost2010PropOp53
 70
     1
102
RTVSPost2010Prop54
  1
strokes_ogs.tif
102
RTVSPost2010PropOp54
 70
     1
102
RTVSPost2010Prop55
280
     0
102
RTVSPost2010PropOp55
 70
     1
102
RTVSPost2010Prop56
140
1.0
102
RTVSPost2010PropOp56
 70
     1
102
RTVSPost2010Prop57
140
1.0
102
RTVSPost2010PropOp57
 70
     1
  0
XRECORD
  5
41E
102
{ACAD_REACTORS
330
41D
102
}
330
41D
100
AcDbXrecord
280
     1
102
RTVSPropertyOp0
 70
     1
102
RTVSPropertyOp1
 70
     1
102
RTVSPropertyOp2
 70
     1
102
RTVSPropertyOp3
 70
     1
102
RTVSPropertyOp4
 70
     1
102
RTVSPropertyOp5
 70
     1
102
RTVSPropertyOp6
 70
     1
102
RTVSPropertyOp7
 70
     1
102
RTVSPropertyOp8
 70
     1
102
RTVSPropertyOp9
 70
     1
102
RTVSPropertyOp10
 70
     1
102
RTVSPropertyOp11
 70
     1
102
RTVSPropertyOp12
 70
     1
102
RTVSPropertyOp13
 70
     1
102
RTVSPropertyOp14
 70
     1
102
RTVSPropertyOp15
 70
     1
102
RTVSPropertyOp16
 70
     1
102
RTVSPropertyOp17
 70
     1
102
RTVSPropertyOp18
 70
     1
102
RTVSPropertyOp19
 70
     1
102
RTVSPropertyOp20
 70
     1
102
RTVSPropertyOp21
 70
     1
102
RTVSPropertyOp22
 70
     1
102
RTVSPropertyOp23
 70
     1
102
RTVSPropertyOp24
 70
     1
102
RTVSPropertyOp25
 70
     1
102
RTVSPropertyOp26
 70
     1
102
RTVSPropertyOp27
 70
     1
102
RTVSPropertyOp28
 70
     1
102
RTVSPropertyOp29
 70
     1
102
RTVSPropertyOp30
 70
     1
102
RTVSPropertyOp31
 70
     1
102
RTVSPropertyOp32
 70
     1
102
RTVSPropertyOp33
 70
     1
102
RTVSPropertyOp34
 70
     1
102
RTVSPropertyOp35
 70
     1
102
RTVSPropertyOp36
 70
     1
102
RTVSPropertyOp37
 70
     1
102
RTVSPropertyOp38
 70
     1
102
RTVSPropertyOp39
 70
     1
102
RTVSPropertyOp40
 70
     1
102
RTVSPropertyOp41
 70
     1
102
RTVSPropertyOp42
 70
     1
102
RTVSPropertyOp43
 70
     1
102
RTVSPropertyOp44
 70
     1
102
RTVSPropertyOp45
 70
     1
102
RTVSPropertyOp46
 70
     1
102
RTVSPropertyOp47
 70
     1
102
RTVSPropertyOp48
 70
     1
102
RTVSPropertyOp49
 70
     1
102
RTVSPropertyOp50
 70
     1
102
RTVSPropertyOp51
 70
     0
102
RTVSPropertyOp52
 70
     0
102
RTVSPropertyOp53
 70
     1
102
RTVSPropertyOp54
 70
     1
102
RTVSPropertyOp55
 70
     1
102
RTVSPropertyOp56
 70
     1
102
RTVSPropertyOp57
 70
     1
102
RTVSPost2010Prop28
280
     0
102
RTVSPost2010PropOp28
 70
     1
102
RTVSPost2010Prop29
280
     1
102
RTVSPost2010PropOp29
 70
     1
102
RTVSPost2010Prop30
280
     1
102
RTVSPost2010PropOp30
 70
     1
102
RTVSPost2010Prop31
280
     0
102
RTVSPost2010PropOp31
 70
     1
102
RTVSPost2010Prop32
280
     0
102
RTVSPost2010PropOp32
 70
     1
102
RTVSPost2010Prop33
280
     0
102
RTVSPost2010PropOp33
 70
     1
102
RTVSPost2010Prop34
280
     0
102
RTVSPost2010PropOp34
 70
     1
102
RTVSPost2010Prop35
280
     0
102
RTVSPost2010PropOp35
 70
     1
102
RTVSPost2010Prop36
280
     0
102
RTVSPost2010PropOp36
 70
     1
102
RTVSPost2010Prop37
 90
       50
102
RTVSPost2010PropOp37
 70
     1
102
RTVSPost2010Prop38
140
0.0
102
RTVSPost2010PropOp38
 70
     1
102
RTVSPost2010Prop39
140
1.0
102
RTVSPost2010PropOp39
 70
     1
102
RTVSPost2010Prop40
 90
        0
102
RTVSPost2010PropOp40
 70
     1
102
RTVSPost2010Prop41ColorIndex
 90
       18
102
RTVSPost2010Prop41ColorRGB
 90
        0
102
RTVSPost2010PropOp41
 70
     1
102
RTVSPost2010Prop42
 90
       50
102
RTVSPost2010PropOp42
 70
     1
102
RTVSPost2010Prop43
 90
        3
102
RTVSPost2010PropOp43
 70
     1
102
RTVSPost2010Prop44ColorIndex
 90
        5
102
RTVSPost2010Prop44ColorRGB
 90
      255
102
RTVSPost2010PropOp44
 70
     1
102
RTVSPost2010Prop45
280
     0
102
RTVSPost2010PropOp45
 70
     1
102
RTVSPost2010Prop46
 90
       50
102
RTVSPost2010PropOp46
 70
     1
102
RTVSPost2010Prop47
 90
       50
102
RTVSPost2010PropOp47
 70
     1
102
RTVSPost2010Prop48
 90
       50
102
RTVSPost2010PropOp48
 70
     1
102
RTVSPost2010Prop49
280
     0
102
RTVSPost2010PropOp49
 70
     1
102
RTVSPost2010Prop50
 90
       50
102
RTVSPost2010PropOp50
 70
     1
102
RTVSPost2010Prop51ColorIndex
 90
      256
102
RTVSPost2010Prop51ColorRGB
 90
-16777216
102
RTVSPost2010PropOp51
 70
     0
102
RTVSPost2010Prop52
140
1.0
102
RTVSPost2010PropOp52
 70
     0
102
RTVSPost2010Prop53
 90
        2
102
RTVSPost2010PropOp53
 70
     1
102
RTVSPost2010Prop54
  1
strokes_ogs.tif
102
RTVSPost2010PropOp54
 70
     1
102
RTVSPost2010Prop55
280
     0
102
RTVSPost2010PropOp55
 70
     1
102
RTVSPost2010Prop56
140
1.0
102
RTVSPost2010PropOp56
 70
     1
102
RTVSPost2010Prop57
140
1.0
102
RTVSPost2010PropOp57
 70
     1
  0
XRECORD
  5
43E
102
{ACAD_REACTORS
330
43D
102
}
330
43D
100
AcDbXrecord
280
     1
102
RTVSPropertyOp0
 70
     1
102
RTVSPropertyOp1
 70
     1
102
RTVSPropertyOp2
 70
     1
102
RTVSPropertyOp3
 70
     1
102
RTVSPropertyOp4
 70
     1
102
RTVSPropertyOp5
 70
     1
102
RTVSPropertyOp6
 70
     1
102
RTVSPropertyOp7
 70
     1
102
RTVSPropertyOp8
 70
     1
102
RTVSPropertyOp9
 70
     1
102
RTVSPropertyOp10
 70
     1
102
RTVSPropertyOp11
 70
     1
102
RTVSPropertyOp12
 70
     1
102
RTVSPropertyOp13
 70
     1
102
RTVSPropertyOp14
 70
     1
102
RTVSPropertyOp15
 70
     1
102
RTVSPropertyOp16
 70
     1
102
RTVSPropertyOp17
 70
     1
102
RTVSPropertyOp18
 70
     1
102
RTVSPropertyOp19
 70
     1
102
RTVSPropertyOp20
 70
     1
102
RTVSPropertyOp21
 70
     1
102
RTVSPropertyOp22
 70
     1
102
RTVSPropertyOp23
 70
     1
102
RTVSPropertyOp24
 70
     1
102
RTVSPropertyOp25
 70
     1
102
RTVSPropertyOp26
 70
     1
102
RTVSPropertyOp27
 70
     1
102
RTVSPropertyOp28
 70
     1
102
RTVSPropertyOp29
 70
     1
102
RTVSPropertyOp30
 70
     1
102
RTVSPropertyOp31
 70
     1
102
RTVSPropertyOp32
 70
     1
102
RTVSPropertyOp33
 70
     1
102
RTVSPropertyOp34
 70
     1
102
RTVSPropertyOp35
 70
     1
102
RTVSPropertyOp36
 70
     1
102
RTVSPropertyOp37
 70
     1
102
RTVSPropertyOp38
 70
     1
102
RTVSPropertyOp39
 70
     1
102
RTVSPropertyOp40
 70
     1
102
RTVSPropertyOp41
 70
     1
102
RTVSPropertyOp42
 70
     1
102
RTVSPropertyOp43
 70
     1
102
RTVSPropertyOp44
 70
     1
102
RTVSPropertyOp45
 70
     1
102
RTVSPropertyOp46
 70
     1
102
RTVSPropertyOp47
 70
     1
102
RTVSPropertyOp48
 70
     1
102
RTVSPropertyOp49
 70
     1
102
RTVSPropertyOp50
 70
     1
102
RTVSPropertyOp51
 70
     0
102
RTVSPropertyOp52
 70
     0
102
RTVSPropertyOp53
 70
     1
102
RTVSPropertyOp54
 70
     1
102
RTVSPropertyOp55
 70
     1
102
RTVSPropertyOp56
 70
     1
102
RTVSPropertyOp57
 70
     1
102
RTVSPost2010Prop28
280
     0
102
RTVSPost2010PropOp28
 70
     1
102
RTVSPost2010Prop29
280
     1
102
RTVSPost2010PropOp29
 70
     1
102
RTVSPost2010Prop30
280
     1
102
RTVSPost2010PropOp30
 70
     1
102
RTVSPost2010Prop31
280
     0
102
RTVSPost2010PropOp31
 70
     1
102
RTVSPost2010Prop32
280
     0
102
RTVSPost2010PropOp32
 70
     1
102
RTVSPost2010Prop33
280
     0
102
RTVSPost2010PropOp33
 70
     1
102
RTVSPost2010Prop34
280
     0
102
RTVSPost2010PropOp34
 70
     1
102
RTVSPost2010Prop35
280
     0
102
RTVSPost2010PropOp35
 70
     1
102
RTVSPost2010Prop36
280
     0
102
RTVSPost2010PropOp36
 70
     1
102
RTVSPost2010Prop37
 90
       50
102
RTVSPost2010PropOp37
 70
     1
102
RTVSPost2010Prop38
140
0.0
102
RTVSPost2010PropOp38
 70
     1
102
RTVSPost2010Prop39
140
1.0
102
RTVSPost2010PropOp39
 70
     1
102
RTVSPost2010Prop40
 90
        0
102
RTVSPost2010PropOp40
 70
     1
102
RTVSPost2010Prop41ColorIndex
 90
       18
102
RTVSPost2010Prop41ColorRGB
 90
        0
102
RTVSPost2010PropOp41
 70
     1
102
RTVSPost2010Prop42
 90
       50
102
RTVSPost2010PropOp42
 70
     1
102
RTVSPost2010Prop43
 90
        3
102
RTVSPost2010PropOp43
 70
     1
102
RTVSPost2010Prop44ColorIndex
 90
        5
102
RTVSPost2010Prop44ColorRGB
 90
      255
102
RTVSPost2010PropOp44
 70
     1
102
RTVSPost2010Prop45
280
     0
102
RTVSPost2010PropOp45
 70
     1
102
RTVSPost2010Prop46
 90
       50
102
RTVSPost2010PropOp46
 70
     1
102
RTVSPost2010Prop47
 90
       50
102
RTVSPost2010PropOp47
 70
     1
102
RTVSPost2010Prop48
 90
       50
102
RTVSPost2010PropOp48
 70
     1
102
RTVSPost2010Prop49
280
     0
102
RTVSPost2010PropOp49
 70
     1
102
RTVSPost2010Prop50
 90
       50
102
RTVSPost2010PropOp50
 70
     1
102
RTVSPost2010Prop51ColorIndex
 90
      256
102
RTVSPost2010Prop51ColorRGB
 90
-16777216
102
RTVSPost2010PropOp51
 70
     0
102
RTVSPost2010Prop52
140
1.0
102
RTVSPost2010PropOp52
 70
     0
102
RTVSPost2010Prop53
 90
        2
102
RTVSPost2010PropOp53
 70
     1
102
RTVSPost2010Prop54
  1
strokes_ogs.tif
102
RTVSPost2010PropOp54
 70
     1
102
RTVSPost2010Prop55
280
     0
102
RTVSPost2010PropOp55
 70
     1
102
RTVSPost2010Prop56
140
1.0
102
RTVSPost2010PropOp56
 70
     1
102
RTVSPost2010Prop57
140
1.0
102
RTVSPost2010PropOp57
 70
     1
  0
ENDSEC
  0
EOF
