  0
SECTION
  2
HEADER
  9
$ACADVER
  1
AC1006
  9
$DWGCODEPAGE
  3
ansi_1252
  9
$INSBASE
 10
0.0
 20
0.0
 30
0.0
  9
$EXTMIN
 10
656.14541857
 20
-644.19706365
  9
$EXTMAX
 10
1530.17708438
 20
-223.25521935
  9
$LIMMIN
 10
656.14541857
 20
-644.19706365
  9
$LIMMAX
 10
1530.17708438
 20
-223.25521935
  9
$ORTHOMODE
 70
     0
  9
$REGENMODE
 70
     1
  9
$FILLMODE
 70
     1
  9
$QTEXTMODE
 70
     0
  9
$MIRRTEXT
 70
     1
  9
$DRAGMODE
 70
     2
  9
$LTSCALE
 40
1.0
  9
$OSMODE
 70
    37
  9
$ATTMODE
 70
     1
  9
$TEXTSIZE
 40
1.0
  9
$TRACEWID
 40
0.05
  9
$TEXTSTYLE
  7
STANDARD
  9
$CLAYER
  8
0
  9
$CELTYPE
  6
BYBLOCK
  9
$CECOLOR
 62
   256
  9
$DIMSCALE
 40
1.0
  9
$DIMASZ
 40
0.18
  9
$DIMEXO
 40
0.0625
  9
$DIMDLI
 40
0.38
  9
$DIMRND
 40
0.0
  9
$DIMDLE
 40
0.0
  9
$DIMEXE
 40
0.18
  9
$DIMTP
 40
0.0
  9
$DIMTM
 40
0.0
  9
$DIMTXT
 40
0.18
  9
$DIMCEN
 40
0.09
  9
$DIMTSZ
 40
0.0
  9
$DIMTOL
 70
     0
  9
$DIMLIM
 70
     0
  9
$DIMTIH
 70
     1
  9
$DIMTOH
 70
     1
  9
$DIMSE1
 70
     0
  9
$DIMSE2
 70
     0
  9
$DIMTAD
 70
     0
  9
$DIMZIN
 70
     0
  9
$DIMBLK
  1

  9
$DIMASO
 70
     1
  9
$DIMSHO
 70
     1
  9
$DIMPOST
  1

  9
$DIMAPOST
  1

  9
$DIMALT
 70
     0
  9
$DIMALTD
 70
     2
  9
$DIMALTF
 40
25.4
  9
$DIMLFAC
 40
1.0
  9
$DIMTOFL
 70
     0
  9
$DIMTVP
 40
0.0
  9
$DIMTIX
 70
     0
  9
$DIMSOXD
 70
     0
  9
$DIMSAH
 70
     0
  9
$DIMBLK1
  1

  9
$DIMBLK2
  1

  9
$LUNITS
 70
     2
  9
$LUPREC
 70
     4
  9
$SKETCHINC
 40
0.1
  9
$FILLETRAD
 40
0.5
  9
$AUNITS
 70
     0
  9
$AUPREC
 70
     0
  9
$MENU
  1
.
  9
$ELEVATION
 40
0.0
  9
$THICKNESS
 40
0.0
  9
$LIMCHECK
 70
     0
  9
$CHAMFERA
 40
0.0
  9
$CHAMFERB
 40
0.0
  9
$SKPOLY
 70
     0
  9
$TDCREATE
 40
2447893.125
  9
$TDUPDATE
 40
2460791.499250706
  9
$TDINDWG
 40
0.0
  9
$TDUSRTIMER
 40
0.0
  9
$USRTIMER
 70
     1
  9
$ANGBASE
 50
0.0
  9
$ANGDIR
 70
     0
  9
$PDMODE
 70
     0
  9
$PDSIZE
 40
0.0
  9
$PLINEWID
 40
0.0
  9
$COORDS
 70
     1
  9
$SPLFRAME
 70
     0
  9
$SPLINETYPE
 70
     6
  9
$SPLINESEGS
 70
     8
  9
$ATTDIA
 70
     0
  9
$ATTREQ
 70
     1
  9
$HANDLING
 70
     1
  9
$HANDSEED
  5
7A4
  9
$SURFTAB1
 70
     6
  9
$SURFTAB2
 70
     6
  9
$SURFTYPE
 70
     6
  9
$SURFU
 70
     6
  9
$SURFV
 70
     6
  9
$UCSNAME
  2

  9
$UCSORG
 10
0.0
 20
0.0
 30
0.0
  9
$UCSXDIR
 10
1.0
 20
0.0
 30
0.0
  9
$UCSYDIR
 10
0.0
 20
1.0
 30
0.0
  9
$USERI1
 70
     0
  9
$USERI2
 70
     0
  9
$USERI3
 70
     0
  9
$USERI4
 70
     0
  9
$USERI5
 70
     0
  9
$USERR1
 40
0.0
  9
$USERR2
 40
0.0
  9
$USERR3
 40
0.0
  9
$USERR4
 40
0.0
  9
$USERR5
 40
0.0
  9
$WORLDVIEW
 70
     1
  0
ENDSEC
  0
SECTION
  2
TABLES
  0
TABLE
  2
VPORT
 70
     1
  0
VPORT
  2
*ACTIVE
 70
     0
 10
0.0
 20
0.0
 11
1.0
 21
1.0
 12
1093.16125147
 22
-433.7261415
 13
0.0
 23
0.0
 14
1.0
 24
1.0
 15
0.0
 25
0.0
 16
0.0
 26
0.0
 36
1.0
 17
0.0
 27
0.0
 37
0.0
 40
420.941844298
 41
2.076371541
 42
50.0
 43
0.0
 44
0.0
 50
0.0
 51
0.0
 71
     0
 72
   100
 73
     1
 74
     1
 75
     0
 76
     0
 77
     0
 78
     0
  0
ENDTAB
  0
TABLE
  2
LTYPE
 70
    19
  0
LTYPE
  2
CONTINUOUS
 70
     0
  3
Solid line
 72
    65
 73
     0
 40
0.0
  0
LTYPE
  2
DOT
 70
     0
  3
..............
 72
    65
 73
     2
 40
2.0
 49
0.5
 49
-1.5
  0
LTYPE
  2
HIDDEN
 70
     0
  3
-- -- -- -- --
 72
    65
 73
     2
 40
7.0
 49
4.0
 49
-3.0
  0
LTYPE
  2
DASHDOT
 70
     0
  3
--.--.--.--.--
 72
    65
 73
     4
 40
8.5
 49
4.0
 49
-2.0
 49
0.5
 49
-2.0
  0
LTYPE
  2
STRICHPUNKT2
 70
     0
  3
--.--.--.--.--
 72
    65
 73
     4
 40
18.5
 49
10.0
 49
-4.0
 49
0.5
 49
-4.0
  0
LTYPE
  2
STRICHPUNKT3
 70
     0
  3
--.--.--.--.--
 72
    65
 73
     4
 40
35.5
 49
25.0
 49
-5.0
 49
0.5
 49
-5.0
  0
LTYPE
  2
PHANTOM
 70
     0
  3
--..--..--..--
 72
    65
 73
     6
 40
23.0
 49
10.0
 49
-4.0
 49
0.5
 49
-4.0
 49
0.5
 49
-4.0
  0
LTYPE
  2
PHANTOM2
 70
     0
  3
--..--..--..--
 72
    65
 73
     6
 40
33.0
 49
20.0
 49
-4.0
 49
0.5
 49
-4.0
 49
0.5
 49
-4.0
  0
LTYPE
  2
PHANTOM3
 70
     0
  3
--..--..--..--
 72
    65
 73
     6
 40
50.0
 49
37.0
 49
-4.0
 49
0.5
 49
-4.0
 49
0.5
 49
-4.0
  0
LTYPE
  2
STR3PKT
 70
     0
  3
--...--...--...
 72
    65
 73
     8
 40
31.5
 49
20.0
 49
-2.5
 49
0.5
 49
-2.5
 49
0.5
 49
-2.5
 49
0.5
 49
-2.5
  0
LTYPE
  2
2STRPKT
 70
     0
  3
--.--.--.--.--
 72
    65
 73
     6
 40
28.0
 49
10.0
 49
-2.5
 49
10.0
 49
-2.5
 49
0.5
 49
-2.5
  0
LTYPE
  2
GESTRICHELT2
 70
     0
  3
-- -- -- -- --
 72
    65
 73
     2
 40
25.0
 49
10.0
 49
-15.0
  0
LTYPE
  2
2STR2PKT
 70
     0
  3
--..--..--..--
 72
    65
 73
     8
 40
31.0
 49
10.0
 49
-2.5
 49
10.0
 49
-2.5
 49
0.5
 49
-2.5
 49
0.5
 49
-2.5
  0
LTYPE
  2
STR3PKT2
 70
     0
  3
--...--...--...
 72
    65
 73
     8
 40
21.0
 49
10.0
 49
-2.5
 49
0.5
 49
-2.5
 49
0.5
 49
-2.5
 49
0.5
 49
-2.0
  0
LTYPE
  2
2STR3PKT
 70
     0
  3
--...--...--...
 72
    65
 73
    10
 40
34.0
 49
10.0
 49
-2.5
 49
10.0
 49
-2.5
 49
0.5
 49
-2.5
 49
0.5
 49
-2.5
 49
0.5
 49
-2.5
  0
LTYPE
  2
STRKSTR
 70
     0
  3
-- - -- - -- -
 72
    65
 73
     4
 40
30.0
 49
20.0
 49
-2.5
 49
5.0
 49
-2.5
  0
LTYPE
  2
STRKSTR2
 70
     0
  3
-- - -- - -- -
 72
    65
 73
     6
 40
37.5
 49
20.0
 49
-2.5
 49
5.0
 49
-2.5
 49
5.0
 49
-2.5
  0
LTYPE
  2
STRKSTR3
 70
     0
  3
-- - -- - -- -
 72
    65
 73
     8
 40
45.0
 49
20.0
 49
-2.5
 49
5.0
 49
-2.5
 49
5.0
 49
-2.5
 49
5.0
 49
-2.5
  0
LTYPE
  2
PUNKT2
 70
     0
  3
..............
 72
    65
 73
     2
 40
3.5
 49
0.5
 49
-3.0
  0
ENDTAB
  0
TABLE
  2
LAYER
 70
    15
  0
LAYER
  2
0
 70
     0
 62
     7
  6
CONTINUOUS
  0
LAYER
  2
LE_GREEN
 70
     0
 62
     3
  6
CONTINUOUS
  0
LAYER
  2
LE_RED
 70
     0
 62
     1
  6
CONTINUOUS
  0
LAYER
  2
LE_ALL
 70
     0
 62
     7
  6
CONTINUOUS
  0
LAYER
  2
LE_HIDDEN1
 70
     0
 62
     3
  6
HIDDEN
  0
LAYER
  2
LE_HIDDEN
 70
     0
 62
     7
  6
CONTINUOUS
  0
LAYER
  2
LE_MIDDLE
 70
     0
 62
     7
  6
CONTINUOUS
  0
LAYER
  2
TXT_YELLOW
 70
     0
 62
     2
  6
CONTINUOUS
  0
LAYER
  2
TXT_DIM49
 70
     0
 62
     2
  6
CONTINUOUS
  0
LAYER
  2
TXT_ALL
 70
     0
 62
     7
  6
CONTINUOUS
  0
LAYER
  2
DIM49
 70
     0
 62
     4
  6
CONTINUOUS
  0
LAYER
  2
HATCH
 70
     0
 62
     3
  6
CONTINUOUS
  0
LAYER
  2
APPLE
 70
     0
 62
     7
  6
CONTINUOUS
  0
LAYER
  2
10
 70
     0
 62
     7
  6
CONTINUOUS
  0
LAYER
  2
49
 70
     0
 62
     7
  6
CONTINUOUS
  0
ENDTAB
  0
TABLE
  2
STYLE
 70
     5
  0
STYLE
  2
MONOTXT
 70
     0
 40
0.0
 41
1.0
 50
0.0
 71
     0
 42
1.0
  3
monotxt.shx
  4

  0
STYLE
  2
STANDARD
 70
     0
 40
0.0
 41
1.0
 50
0.0
 71
     0
 42
1.0
  3
txt
  4

  0
STYLE
  2
ARIAL
 70
     0
 40
0.0
 41
1.0
 50
0.0
 71
     0
 42
1.0
  3
arial.ttf
  4

  0
STYLE
  2
ARIAL_NARROW
 70
     0
 40
0.0
 41
1.0
 50
0.0
 71
     0
 42
1.0
  3
ArialN.ttf
  4

  0
STYLE
  2
ISOCPEUR
 70
     0
 40
0.0
 41
1.0
 50
0.0
 71
     0
 42
1.0
  3
ISOCPEUR.ttf
  4

  0
ENDTAB
  0
TABLE
  2
VIEW
 70
     0
  0
ENDTAB
  0
TABLE
  2
UCS
 70
     0
  0
ENDTAB
  0
ENDSEC
  0
SECTION
  2
BLOCKS
  0
ENDSEC
  0
SECTION
  2
ENTITIES
  0
POLYLINE
  5
16C
  8
0
 66
     1
 10
0.0
 20
0.0
 30
0.0
 70
     1
  0
VERTEX
  5
16D
  8
0
 10
745.0379509
 20
-618.90249154
 30
0.0
  0
VERTEX
  5
16E
  8
0
 10
1165.0379509
 20
-618.90249154
 30
0.0
  0
VERTEX
  5
16F
  8
0
 10
1165.0379509
 20
-321.90249154
 30
0.0
  0
VERTEX
  5
170
  8
0
 10
745.0379509
 20
-321.90249154
 30
0.0
  0
SEQEND
  5
171
  8
0
  0
POLYLINE
  5
172
  8
0
 66
     1
 10
0.0
 20
0.0
 30
0.0
 70
     1
  0
VERTEX
  5
173
  8
0
 10
750.0379509
 20
-613.90249154
 30
0.0
  0
VERTEX
  5
174
  8
0
 10
1160.0379509
 20
-613.90249154
 30
0.0
  0
VERTEX
  5
175
  8
0
 10
1160.0379509
 20
-326.90249154
 30
0.0
  0
VERTEX
  5
176
  8
0
 10
750.0379509
 20
-326.90249154
 30
0.0
  0
SEQEND
  5
177
  8
0
  0
LINE
  5
178
  8
0
 10
975.0379509
 20
-613.90249154
 30
0.0
 11
975.0379509
 21
-618.90249154
 31
0.0
  0
LINE
  5
179
  8
0
 10
975.0379509
 20
-326.90249154
 30
0.0
 11
975.0379509
 21
-321.90249154
 31
0.0
  0
LINE
  5
17A
  8
0
 10
765.0379509
 20
-613.90249154
 30
0.0
 11
765.0379509
 21
-618.90249154
 31
0.0
  0
LINE
  5
17B
  8
0
 10
765.0379509
 20
-326.90249154
 30
0.0
 11
765.0379509
 21
-321.90249154
 31
0.0
  0
TEXT
  5
17C
  8
TXT_ALL
 62
     4
 10
1164.0379509
 20
-617.90249154
 30
0.0
 40
2.5
  1

 50
90.00020741
  0
POLYLINE
  5
17D
  8
0
 66
     1
 10
0.0
 20
0.0
 30
0.0
  0
VERTEX
  5
17E
  8
0
 10
1160.0379509
 20
-336.90249154
 30
0.0
  0
VERTEX
  5
17F
  8
0
 10
1091.0446509
 20
-336.90249154
 30
0.0
  0
VERTEX
  5
180
  8
0
 10
1091.0446509
 20
-326.90249154
 30
0.0
  0
SEQEND
  5
181
  8
0
  0
LINE
  5
182
  8
0
 10
1092.9479509
 20
-594.40249154
 30
0.0
 11
953.0579509
 21
-594.40249154
 31
0.0
  0
LINE
  5
183
  8
0
 10
953.0579509
 20
-604.15249154
 30
0.0
 11
1092.9479509
 21
-604.15249154
 31
0.0
  0
POLYLINE
  5
184
  8
0
 66
     1
 10
0.0
 20
0.0
 30
0.0
  0
VERTEX
  5
185
  8
0
 10
953.0579509
 20
-594.40249154
 30
0.0
  0
VERTEX
  5
186
  8
0
 10
953.0579509
 20
-604.15249154
 30
0.0
  0
VERTEX
  5
187
  8
0
 10
953.0579509
 20
-613.90249154
 30
0.0
  0
SEQEND
  5
188
  8
0
  0
POLYLINE
  5
189
  8
0
 66
     1
 10
0.0
 20
0.0
 30
0.0
  0
VERTEX
  5
18A
  8
0
 10
1023.0029509
 20
-594.40249154
 30
0.0
  0
VERTEX
  5
18B
  8
0
 10
1023.0029509
 20
-604.15249154
 30
0.0
  0
VERTEX
  5
18C
  8
0
 10
1023.0029509
 20
-613.90249154
 30
0.0
  0
SEQEND
  5
18D
  8
0
  0
TEXT
  5
18E
  8
TXT_ALL
 10
955.0579509
 20
-600.57749149
 30
0.0
 40
2.5999999
  1
E-mail: verkoop@jonkers-bouwmetaal.nl
  7
ARIAL
  0
TEXT
  5
18F
  8
TXT_ALL
 10
955.0579509
 20
-610.32749149
 30
0.0
 40
2.5999999
  1
Telefoon: 0527-685156
  7
ARIAL
  0
TEXT
  5
190
  8
TXT_ALL
 10
1025.0029509
 20
-610.32749149
 30
0.0
 40
2.5999999
  1
Website: www.jonkers-bouwmetaal.nl
  7
ARIAL
  0
TEXT
  5
191
  8
TXT_ALL
 10
1025.0029509
 20
-600.57749149
 30
0.0
 40
2.5999999
  1
Adres: Hoornse Hop 10, 8321 WX Urk
  7
ARIAL
  0
TEXT
  5
192
  8
TXT_ALL
 10
753.47991116
 20
-333.15249154
 30
0.0
 40
2.5
  1
Art. nr. 91004023
  7
ARIAL
  0
TEXT
  5
193
  8
TXT_ALL
 10
796.21794797
 20
-333.15249154
 30
0.0
 40
2.5
  1
Omschrijving: Scharnier 3,5"x3,5"x2.2, type 2
  7
ARIAL
  0
LINE
  5
194
  8
0
 10
1160.0379509
 20
-336.90249154
 30
0.0
 11
750.0379509
 21
-336.90249154
 31
0.0
  0
LINE
  5
195
  8
0
 10
793.0579509
 20
-336.90249154
 30
0.0
 11
793.0579509
 21
-326.90249154
 31
0.0
  0
LINE
  5
196
  8
0
 10
953.0579509
 20
-336.90249154
 30
0.0
 11
953.0579509
 21
-326.90249154
 31
0.0
  0
TEXT
  5
197
  8
TXT_ALL
 10
1024.0516509
 20
-333.15249154
 30
0.0
 40
2.5
  1
Behandeling: N.V.T.
  7
ARIAL
  0
LINE
  5
198
  8
0
 10
1092.9479509
 20
-594.40249154
 30
0.0
 11
1160.0379509
 21
-594.40249154
 31
0.0
  0
LINE
  5
199
  8
0
 10
1092.9479509
 20
-613.90249154
 30
0.0
 11
1092.9479509
 21
-594.40249154
 31
0.0
  0
LINE
  5
19A
  8
0
 10
1092.9479509
 20
-613.90249154
 30
0.0
 11
1092.9479509
 21
-594.40249154
 31
0.0
  0
TEXT
  5
19B
  8
TXT_ALL
 10
887.40314899
 20
-612.74795812
 30
0.0
 40
2.5
  1

  0
TEXT
  5
19C
  8
TXT_ALL
 10
1008.53833196
 20
-602.65249154
 30
0.0
 40
2.5
  1

  0
POLYLINE
  5
19D
  8
0
 66
     1
 10
0.0
 20
0.0
 30
0.0
  0
VERTEX
  5
19E
  8
0
 10
1091.0446509
 20
-336.90249154
 30
0.0
  0
VERTEX
  5
19F
  8
0
 10
1022.0516509
 20
-336.90249154
 30
0.0
  0
VERTEX
  5
1A0
  8
0
 10
1022.0516509
 20
-326.90249154
 30
0.0
  0
SEQEND
  5
1A1
  8
0
  0
TEXT
  5
1A2
  8
TXT_ALL
 10
1093.0446509
 20
-333.15249154
 30
0.0
 40
2.5
  1
Verpakkingshoeveelheid: 100 st.
  7
ARIAL
  0
TEXT
  5
1A3
  8
TXT_ALL
 10
955.0579509
 20
-333.15249154
 30
0.0
 40
2.5
  1
Materiaal: Sendzimir Verzinkt
  7
ARIAL
  0
TEXT
  5
1A4
  8
TXT_ALL
 10
1128.15443632
 20
-617.15200139
 30
0.0
 40
1.5
  1
Onderdeel van
  7
ARIAL
  0
POLYLINE
  5
1A5
  8
0
 66
     1
 10
0.0
 20
0.0
 30
0.0
  0
VERTEX
  5
3DE
  8
0
 10
851.25837971
 20
-438.5275598725572
 30
0.0
  0
VERTEX
  5
3DF
  8
0
 10
851.3778952616159
 20
-438.932047136108
 30
0.0
  0
VERTEX
  5
3E0
  8
0
 10
851.731849009542
 20
-439.3209901812103
 30
0.0
  0
VERTEX
  5
3E1
  8
0
 10
852.3066387097138
 20
-439.6794421447285
 30
0.0
  0
VERTEX
  5
3E2
  8
0
 10
853.0801755162493
 20
-439.9936279186953
 30
0.0
  0
VERTEX
  5
3E3
  8
0
 10
854.02273284341
 20
-440.2514735199871
 30
0.0
  0
VERTEX
  5
3E4
  8
0
 10
855.098088741623
 20
-440.4430700867252
 30
0.0
  0
VERTEX
  5
3E5
  8
0
 10
856.2649178866922
 20
-440.5610546702817
 30
0.0
  0
VERTEX
  5
3E6
  8
0
 10
857.4783796888357
 20
-440.6008931892667
 30
0.0
  0
VERTEX
  5
3E7
  8
0
 10
858.6918414914084
 20
-440.5610546717338
 30
0.0
  0
VERTEX
  5
3E8
  8
0
 10
859.8586706377482
 20
-440.4430700895735
 30
0.0
  0
VERTEX
  5
3E9
  8
0
 10
860.9340265380246
 20
-440.2514735241221
 30
0.0
  0
VERTEX
  5
3EA
  8
0
 10
861.8765838679622
 20
-439.9936279239581
 30
0.0
  0
VERTEX
  5
3EB
  8
0
 10
862.6501206778812
 20
-439.6794421509169
 30
0.0
  0
VERTEX
  5
3EC
  8
0
 10
863.2249103819133
 20
-439.3209901880866
 30
0.0
  0
VERTEX
  5
3ED
  8
0
 10
863.578864134028
 20
-438.9320471434078
 30
0.0
  0
VERTEX
  5
3EE
  8
0
 10
863.69837969
 20
-438.52755988
 30
0.0
  0
SEQEND
  5
76B
  8
0
  0
POLYLINE
  5
1A6
  8
0
 66
     1
 10
0.0
 20
0.0
 30
0.0
  0
VERTEX
  5
1A7
  8
0
 10
851.2583797
 20
-438.52755988
 30
0.0
  0
VERTEX
  5
1A8
  8
0
 10
851.26187719
 20
-438.33097809
 30
0.0
  0
VERTEX
  5
1A9
  8
0
 10
851.27236775
 20
-438.13460064
 30
0.0
  0
VERTEX
  5
1AA
  8
0
 10
851.28984182
 20
-437.9386778
 30
0.0
  0
VERTEX
  5
1AB
  8
0
 10
851.31428083
 20
-437.74345998
 30
0.0
  0
VERTEX
  5
1AC
  8
0
 10
851.32089702
 20
-437.69860185
 30
0.0
  0
VERTEX
  5
1AD
  8
0
 10
851.35384227
 20
-437.5047243
 30
0.0
  0
VERTEX
  5
1AE
  8
0
 10
851.39367451
 20
-437.31207274
 30
0.0
  0
VERTEX
  5
1AF
  8
0
 10
851.44034764
 20
-437.12089315
 30
0.0
  0
VERTEX
  5
1B0
  8
0
 10
851.49380657
 20
-436.93143078
 30
0.0
  0
VERTEX
  5
1B1
  8
0
 10
851.50676983
 20
-436.88904337
 30
0.0
  0
VERTEX
  5
1B2
  8
0
 10
851.56840922
 20
-436.70214321
 30
0.0
  0
VERTEX
  5
1B3
  8
0
 10
851.63668439
 20
-436.51745369
 30
0.0
  0
VERTEX
  5
1B4
  8
0
 10
851.71151406
 20
-436.33521157
 30
0.0
  0
VERTEX
  5
1B5
  8
0
 10
851.79280794
 20
-436.15565202
 30
0.0
  0
VERTEX
  5
1B6
  8
0
 10
851.81151663
 20
-436.11660192
 30
0.0
  0
VERTEX
  5
1B7
  8
0
 10
851.90049457
 20
-435.94075004
 30
0.0
  0
VERTEX
  5
1B8
  8
0
 10
851.99572646
 20
-435.76802751
 30
0.0
  0
VERTEX
  5
1B9
  8
0
 10
852.09709807
 20
-435.59865746
 30
0.0
  0
VERTEX
  5
1BA
  8
0
 10
852.20448603
 20
-435.43286077
 30
0.0
  0
VERTEX
  5
1BB
  8
0
 10
852.22774536
 20
-435.39858267
 30
0.0
  0
VERTEX
  5
1BC
  8
0
 10
852.34214739
 20
-435.23751406
 30
0.0
  0
VERTEX
  5
1BD
  8
0
 10
852.46231852
 20
-435.08039618
 30
0.0
  0
VERTEX
  5
1BE
  8
0
 10
852.58811484
 20
-434.92743491
 30
0.0
  0
VERTEX
  5
1BF
  8
0
 10
852.71938275
 20
-434.77883368
 30
0.0
  0
VERTEX
  5
1C0
  8
0
 10
852.74498868
 20
-434.75104451
 30
0.0
  0
VERTEX
  5
1C1
  8
0
 10
852.88244795
 20
-434.60800175
 30
0.0
  0
VERTEX
  5
1C2
  8
0
 10
853.02513825
 20
-434.46960033
 30
0.0
  0
VERTEX
  5
1C3
  8
0
 10
853.17289121
 20
-434.33602609
 30
0.0
  0
VERTEX
  5
1C4
  8
0
 10
853.32552739
 20
-434.20746277
 30
0.0
  0
VERTEX
  5
1C5
  8
0
 10
853.34943068
 20
-434.18814063
 30
0.0
  0
VERTEX
  5
1C6
  8
0
 10
853.50733407
 20
-434.06567732
 30
0.0
  0
VERTEX
  5
1C7
  8
0
 10
853.66996129
 20
-433.94838578
 30
0.0
  0
VERTEX
  5
1C8
  8
0
 10
853.83713229
 20
-433.83642761
 30
0.0
  0
VERTEX
  5
1C9
  8
0
 10
853.93013668
 20
-433.77768125
 30
0.0
  0
VERTEX
  5
1CA
  8
0
 10
854.02422509
 20
-433.72069915
 30
0.0
  0
VERTEX
  5
1CB
  8
0
 10
854.20013281
 20
-433.62045945
 30
0.0
  0
VERTEX
  5
1CC
  8
0
 10
854.38039913
 20
-433.52576113
 30
0.0
  0
VERTEX
  5
1CD
  8
0
 10
854.56487334
 20
-433.43673001
 30
0.0
  0
VERTEX
  5
1CE
  8
0
 10
854.75319718
 20
-433.35357472
 30
0.0
  0
VERTEX
  5
1CF
  8
0
 10
854.94558192
 20
-433.27623986
 30
0.0
  0
VERTEX
  5
1D0
  8
0
 10
855.14214659
 20
-433.20472931
 30
0.0
  0
VERTEX
  5
1D1
  8
0
 10
855.34286056
 20
-433.13911965
 30
0.0
  0
VERTEX
  5
1D2
  8
0
 10
855.5310597
 20
-433.08406631
 30
0.0
  0
VERTEX
  5
1D3
  8
0
 10
855.73983907
 20
-433.02995958
 30
0.0
  0
VERTEX
  5
1D4
  8
0
 10
855.9525493
 20
-432.98202726
 30
0.0
  0
VERTEX
  5
1D5
  8
0
 10
856.16925911
 20
-432.94033187
 30
0.0
  0
VERTEX
  5
1D6
  8
0
 10
856.36890741
 20
-432.90803085
 30
0.0
  0
VERTEX
  5
1D7
  8
0
 10
856.59311931
 20
-432.87847758
 30
0.0
  0
VERTEX
  5
1D8
  8
0
 10
856.81347663
 20
-432.85614859
 30
0.0
  0
VERTEX
  5
1D9
  8
0
 10
857.04360492
 20
-432.83973943
 30
0.0
  0
VERTEX
  5
1DA
  8
0
 10
857.26091908
 20
-432.83060105
 30
0.0
  0
VERTEX
  5
1DB
  8
0
 10
857.49410488
 20
-432.82757472
 30
0.0
  0
VERTEX
  5
1DC
  8
0
 10
857.70255789
 20
-432.83079198
 30
0.0
  0
VERTEX
  5
1DD
  8
0
 10
857.93581728
 20
-432.8410371
 30
0.0
  0
VERTEX
  5
1DE
  8
0
 10
858.16683273
 20
-432.85820697
 30
0.0
  0
VERTEX
  5
1DF
  8
0
 10
858.39535802
 20
-432.88222892
 30
0.0
  0
VERTEX
  5
1E0
  8
0
 10
858.5781169
 20
-432.90660159
 30
0.0
  0
VERTEX
  5
1E1
  8
0
 10
858.80110971
 20
-432.94274848
 30
0.0
  0
VERTEX
  5
1E2
  8
0
 10
859.02712184
 20
-432.98685965
 30
0.0
  0
VERTEX
  5
1E3
  8
0
 10
859.24190329
 20
-433.03606278
 30
0.0
  0
VERTEX
  5
1E4
  8
0
 10
859.45235253
 20
-433.09149381
 30
0.0
  0
VERTEX
  5
1E5
  8
0
 10
859.48707561
 20
-433.10135109
 30
0.0
  0
VERTEX
  5
1E6
  8
0
 10
859.69243927
 20
-433.16392425
 30
0.0
  0
VERTEX
  5
1E7
  8
0
 10
859.89350625
 20
-433.23254366
 30
0.0
  0
VERTEX
  5
1E8
  8
0
 10
859.94607304
 20
-433.25173297
 30
0.0
  0
VERTEX
  5
1E9
  8
0
 10
860.14158056
 20
-433.3278409
 30
0.0
  0
VERTEX
  5
1EA
  8
0
 10
860.33288842
 20
-433.40985779
 30
0.0
  0
VERTEX
  5
1EB
  8
0
 10
860.38201788
 20
-433.43217879
 30
0.0
  0
VERTEX
  5
1EC
  8
0
 10
860.56780023
 20
-433.52145098
 30
0.0
  0
VERTEX
  5
1ED
  8
0
 10
860.74937718
 20
-433.61649403
 30
0.0
  0
VERTEX
  5
1EE
  8
0
 10
860.79052771
 20
-433.63915675
 30
0.0
  0
VERTEX
  5
1EF
  8
0
 10
860.96664504
 20
-433.74107902
 30
0.0
  0
VERTEX
  5
1F0
  8
0
 10
861.1384314
 20
-433.84860192
 30
0.0
  0
VERTEX
  5
1F1
  8
0
 10
861.17215802
 20
-433.87070333
 30
0.0
  0
VERTEX
  5
1F2
  8
0
 10
861.33844982
 20
-433.98470612
 30
0.0
  0
VERTEX
  5
1F3
  8
0
 10
861.50019832
 20
-434.10409572
 30
0.0
  0
VERTEX
  5
1F4
  8
0
 10
861.52797907
 20
-434.12549671
 30
0.0
  0
VERTEX
  5
1F5
  8
0
 10
861.68409883
 20
-434.25096197
 30
0.0
  0
VERTEX
  5
1F6
  8
0
 10
861.83541186
 20
-434.38155543
 30
0.0
  0
VERTEX
  5
1F7
  8
0
 10
861.85851047
 20
-434.4023242
 30
0.0
  0
VERTEX
  5
1F8
  8
0
 10
862.00399426
 20
-434.53857852
 30
0.0
  0
VERTEX
  5
1F9
  8
0
 10
862.14438407
 20
-434.67966059
 30
0.0
  0
VERTEX
  5
1FA
  8
0
 10
862.16408574
 20
-434.70027424
 30
0.0
  0
VERTEX
  5
1FB
  8
0
 10
862.29834546
 20
-434.84654219
 30
0.0
  0
VERTEX
  5
1FC
  8
0
 10
862.42724867
 20
-434.99732748
 30
0.0
  0
VERTEX
  5
1FD
  8
0
 10
862.55063046
 20
-435.1524313
 30
0.0
  0
VERTEX
  5
1FE
  8
0
 10
862.66833514
 20
-435.31165114
 30
0.0
  0
VERTEX
  5
1FF
  8
0
 10
862.69845425
 20
-435.35436175
 30
0.0
  0
VERTEX
  5
200
  8
0
 10
862.80871266
 20
-435.51839135
 30
0.0
  0
VERTEX
  5
201
  8
0
 10
862.91304616
 20
-435.68615209
 30
0.0
  0
VERTEX
  5
202
  8
0
 10
863.0113209
 20
-435.85742724
 30
0.0
  0
VERTEX
  5
203
  8
0
 10
863.1034117
 20
-436.03199654
 30
0.0
  0
VERTEX
  5
204
  8
0
 10
863.125191
 20
-436.07559443
 30
0.0
  0
VERTEX
  5
205
  8
0
 10
863.20935871
 20
-436.25384535
 30
0.0
  0
VERTEX
  5
206
  8
0
 10
863.28713081
 20
-436.43494
 30
0.0
  0
VERTEX
  5
207
  8
0
 10
863.35840672
 20
-436.6186466
 30
0.0
  0
VERTEX
  5
208
  8
0
 10
863.42309448
 20
-436.80473043
 30
0.0
  0
VERTEX
  5
209
  8
0
 10
863.43754854
 20
-436.84946277
 30
0.0
  0
VERTEX
  5
20A
  8
0
 10
863.49392797
 20
-437.03803931
 30
0.0
  0
VERTEX
  5
20B
  8
0
 10
863.54356742
 20
-437.22849811
 30
0.0
  0
VERTEX
  5
20C
  8
0
 10
863.58640141
 20
-437.42059635
 30
0.0
  0
VERTEX
  5
20D
  8
0
 10
863.62237325
 20
-437.61408907
 30
0.0
  0
VERTEX
  5
20E
  8
0
 10
863.6297997
 20
-437.65957333
 30
0.0
  0
VERTEX
  5
20F
  8
0
 10
863.65722228
 20
-437.85431848
 30
0.0
  0
VERTEX
  5
210
  8
0
 10
863.67770269
 20
-438.04993711
 30
0.0
  0
VERTEX
  5
211
  8
0
 10
863.69121186
 20
-438.24618007
 30
0.0
  0
VERTEX
  5
212
  8
0
 10
863.69772964
 20
-438.44279702
 30
0.0
  0
VERTEX
  5
213
  8
0
 10
863.69824019
 20
-438.48829183
 30
0.0
  0
VERTEX
  5
214
  8
0
 10
863.69837969
 20
-438.52755988
 30
0.0
  0
SEQEND
  5
215
  8
0
  0
POLYLINE
  5
216
  8
0
 66
     1
 10
0.0
 20
0.0
 30
0.0
  0
VERTEX
  5
3EF
  8
0
 10
822.9055753471233
 20
-440.1277486637179
 30
0.0
  0
VERTEX
  5
3F0
  8
0
 10
822.5565830175385
 20
-440.512389843372
 30
0.0
  0
VERTEX
  5
3F1
  8
0
 10
822.2972583216136
 20
-440.9687157167916
 30
0.0
  0
VERTEX
  5
3F2
  8
0
 10
822.1375669620047
 20
-441.4791899365315
 30
0.0
  0
VERTEX
  5
3F3
  8
0
 10
822.0836457881198
 20
-442.0241952645598
 30
0.0
  0
VERTEX
  5
3F4
  8
0
 10
822.1375669604363
 20
-442.5827874517149
 30
0.0
  0
VERTEX
  5
3F5
  8
0
 10
822.2972583185369
 20
-443.133500113458
 30
0.0
  0
VERTEX
  5
3F6
  8
0
 10
822.5565830130719
 20
-443.655169670993
 30
0.0
  0
VERTEX
  5
3F7
  8
0
 10
822.9055753414384
 20
-444.127748655734
 30
0.0
  0
VERTEX
  5
3F8
  8
0
 10
823.3308237241439
 20
-444.5330761222814
 30
0.0
  0
VERTEX
  5
3F9
  8
0
 10
823.8159861042858
 20
-444.8555755633705
 30
0.0
  0
VERTEX
  5
3FA
  8
0
 10
824.342417963635
 20
-445.0828535063117
 30
0.0
  0
VERTEX
  5
3FB
  8
0
 10
824.889888821017
 20
-445.206175787197
 30
0.0
  0
VERTEX
  5
3FC
  8
0
 10
825.43735967836
 20
-445.220803199921
 30
0.0
  0
VERTEX
  5
3FD
  8
0
 10
825.9637915375936
 20
-445.1261736212145
 30
0.0
  0
VERTEX
  5
3FE
  8
0
 10
826.4489539175476
 20
-444.9259236127268
 30
0.0
  0
VERTEX
  5
3FF
  8
0
 10
826.8742023
 20
-444.62774867
 30
0.0
  0
SEQEND
  5
76C
  8
0
  0
POLYLINE
  5
217
  8
0
 66
     1
 10
0.0
 20
0.0
 30
0.0
  0
VERTEX
  5
400
  8
0
 10
826.8742023055966
 20
-444.6277486650643
 30
0.0
  0
VERTEX
  5
401
  8
0
 10
827.223194631481
 20
-444.2431074841589
 30
0.0
  0
VERTEX
  5
402
  8
0
 10
827.4825193239279
 20
-443.7867816104223
 30
0.0
  0
VERTEX
  5
403
  8
0
 10
827.642210680478
 20
-443.2763073912004
 30
0.0
  0
VERTEX
  5
404
  8
0
 10
827.6961318518802
 20
-442.7313020643806
 30
0.0
  0
VERTEX
  5
405
  8
0
 10
827.6422106777651
 20
-442.1727098789451
 30
0.0
  0
VERTEX
  5
406
  8
0
 10
827.4825193186061
 20
-441.6219972192307
 30
0.0
  0
VERTEX
  5
407
  8
0
 10
827.2231946237551
 20
-441.100327663821
 30
0.0
  0
VERTEX
  5
408
  8
0
 10
826.8742022957634
 20
-440.6277486810931
 30
0.0
  0
VERTEX
  5
409
  8
0
 10
826.4489539140241
 20
-440.222421216254
 30
0.0
  0
VERTEX
  5
40A
  8
0
 10
825.9637915352989
 20
-439.8999217764039
 30
0.0
  0
VERTEX
  5
40B
  8
0
 10
825.4373596776443
 20
-439.672643834106
 30
0.0
  0
VERTEX
  5
40C
  8
0
 10
824.8898888220411
 20
-439.5493215531883
 30
0.0
  0
VERTEX
  5
40D
  8
0
 10
824.3424179663596
 20
-439.5346941397275
 30
0.0
  0
VERTEX
  5
40E
  8
0
 10
823.8159861084727
 20
-439.6293237170171
 30
0.0
  0
VERTEX
  5
40F
  8
0
 10
823.3308237293703
 20
-439.8295737234859
 30
0.0
  0
VERTEX
  5
410
  8
0
 10
822.9055753471233
 20
-440.1277486637179
 30
0.0
  0
SEQEND
  5
76D
  8
0
  0
POLYLINE
  5
218
  8
0
 66
     1
 10
0.0
 20
0.0
 30
0.0
  0
VERTEX
  5
411
  8
0
 10
823.188537442744
 20
-439.9140746718106
 30
0.0
  0
VERTEX
  5
412
  8
0
 10
822.9054262864504
 20
-440.3380443928411
 30
0.0
  0
VERTEX
  5
413
  8
0
 10
822.7143224701528
 20
-440.8195279108173
 30
0.0
  0
VERTEX
  5
414
  8
0
 10
822.6222178044824
 20
-441.3409094520462
 30
0.0
  0
VERTEX
  5
415
  8
0
 10
822.6324820723827
 20
-441.8831135157162
 30
0.0
  0
VERTEX
  5
416
  8
0
 10
822.7447397407074
 20
-442.4263027787948
 30
0.0
  0
VERTEX
  5
417
  8
0
 10
822.9548836996455
 20
-442.9506038732983
 30
0.0
  0
VERTEX
  5
418
  8
0
 10
823.2552255272981
 20
-443.4368344823191
 30
0.0
  0
VERTEX
  5
419
  8
0
 10
823.6347767817582
 20
-443.8672051529448
 30
0.0
  0
VERTEX
  5
41A
  8
0
 10
824.079651029215
 20
-444.2259701492267
 30
0.0
  0
VERTEX
  5
41B
  8
0
 10
824.5735718992998
 20
-444.5000035327942
 30
0.0
  0
VERTEX
  5
41C
  8
0
 10
825.0984685797321
 20
-444.679279394371
 30
0.0
  0
VERTEX
  5
41D
  8
0
 10
825.635136963228
 20
-444.7572386662254
 30
0.0
  0
VERTEX
  5
41E
  8
0
 10
826.1639422576525
 20
-444.7310290951879
 30
0.0
  0
VERTEX
  5
41F
  8
0
 10
826.6655373534031
 20
-444.601609596475
 30
0.0
  0
VERTEX
  5
420
  8
0
 10
827.1215706655092
 20
-444.3737151703843
 30
0.0
  0
SEQEND
  5
76E
  8
0
  0
POLYLINE
  5
219
  8
0
 66
     1
 10
0.0
 20
0.0
 30
0.0
  0
VERTEX
  5
421
  8
0
 10
831.3243044671233
 20
-460.9873987037178
 30
0.0
  0
VERTEX
  5
422
  8
0
 10
830.9753121372637
 20
-461.372039883752
 30
0.0
  0
VERTEX
  5
423
  8
0
 10
830.715987441235
 20
-461.8283657576652
 30
0.0
  0
VERTEX
  5
424
  8
0
 10
830.5562960817153
 20
-462.338839977962
 30
0.0
  0
VERTEX
  5
425
  8
0
 10
830.5023749081197
 20
-462.883845306554
 30
0.0
  0
VERTEX
  5
426
  8
0
 10
830.5562960809189
 20
-463.4424374942207
 30
0.0
  0
VERTEX
  5
427
  8
0
 10
830.7159874396729
 20
-463.9931501563648
 30
0.0
  0
VERTEX
  5
428
  8
0
 10
830.9753121349958
 20
-464.5148197141372
 30
0.0
  0
VERTEX
  5
429
  8
0
 10
831.3243044642367
 20
-464.9873986989069
 30
0.0
  0
VERTEX
  5
42A
  8
0
 10
831.7495528478456
 20
-465.3927261652407
 30
0.0
  0
VERTEX
  5
42B
  8
0
 10
832.234715228856
 20
-465.7152256058542
 30
0.0
  0
VERTEX
  5
42C
  8
0
 10
832.7611470889718
 20
-465.942503548054
 30
0.0
  0
VERTEX
  5
42D
  8
0
 10
833.3086179469532
 20
-466.0658258279448
 30
0.0
  0
VERTEX
  5
42E
  8
0
 10
833.8560888046673
 20
-466.0804532394511
 30
0.0
  0
VERTEX
  5
42F
  8
0
 10
834.3825206639917
 20
-465.9858236593494
 30
0.0
  0
VERTEX
  5
430
  8
0
 10
834.8676830437171
 20
-465.7855736493491
 30
0.0
  0
VERTEX
  5
431
  8
0
 10
835.2929314255965
 20
-465.4873987050643
 30
0.0
  0
SEQEND
  5
76F
  8
0
  0
POLYLINE
  5
21A
  8
0
 66
     1
 10
0.0
 20
0.0
 30
0.0
  0
VERTEX
  5
432
  8
0
 10
835.29293142
 20
-465.48739871
 30
0.0
  0
VERTEX
  5
433
  8
0
 10
835.6419237473586
 20
-465.1027575298579
 30
0.0
  0
VERTEX
  5
434
  8
0
 10
835.9012484412776
 20
-464.6464316565372
 30
0.0
  0
VERTEX
  5
435
  8
0
 10
836.0609397992234
 20
-464.1359574373993
 30
0.0
  0
VERTEX
  5
436
  8
0
 10
836.1148609718801
 20
-463.5909521103636
 30
0.0
  0
VERTEX
  5
437
  8
0
 10
836.0609397988266
 20
-463.0323599244578
 30
0.0
  0
VERTEX
  5
438
  8
0
 10
835.9012484404992
 20
-462.4816472640755
 30
0.0
  0
VERTEX
  5
439
  8
0
 10
835.6419237462285
 20
-461.9599777078636
 30
0.0
  0
VERTEX
  5
43A
  8
0
 10
835.2929314185616
 20
-461.487398724266
 30
0.0
  0
VERTEX
  5
43B
  8
0
 10
834.8676830369031
 20
-461.0820712585557
 30
0.0
  0
VERTEX
  5
43C
  8
0
 10
834.382520658041
 20
-460.7595718178941
 30
0.0
  0
VERTEX
  5
43D
  8
0
 10
833.8560888000701
 20
-460.5322938748979
 30
0.0
  0
VERTEX
  5
43E
  8
0
 10
833.3086179440198
 20
-460.4089715934376
 30
0.0
  0
VERTEX
  5
43F
  8
0
 10
832.7611470878151
 20
-460.394344179619
 30
0.0
  0
VERTEX
  5
440
  8
0
 10
832.2347152293867
 20
-460.4889737567507
 30
0.0
  0
VERTEX
  5
441
  8
0
 10
831.7495528497816
 20
-460.6892237632607
 30
0.0
  0
VERTEX
  5
442
  8
0
 10
831.3243044671233
 20
-460.9873987037178
 30
0.0
  0
SEQEND
  5
770
  8
0
  0
POLYLINE
  5
21B
  8
0
 66
     1
 10
0.0
 20
0.0
 30
0.0
  0
VERTEX
  5
443
  8
0
 10
831.6072665627439
 20
-460.7737247118106
 30
0.0
  0
VERTEX
  5
444
  8
0
 10
831.3241554064504
 20
-461.1976944328412
 30
0.0
  0
VERTEX
  5
445
  8
0
 10
831.1330515901527
 20
-461.6791779508173
 30
0.0
  0
VERTEX
  5
446
  8
0
 10
831.0409469244823
 20
-462.2005594920462
 30
0.0
  0
VERTEX
  5
447
  8
0
 10
831.0512111923827
 20
-462.7427635557162
 30
0.0
  0
VERTEX
  5
448
  8
0
 10
831.1634688607073
 20
-463.2859528187948
 30
0.0
  0
VERTEX
  5
449
  8
0
 10
831.3736128196455
 20
-463.8102539132983
 30
0.0
  0
VERTEX
  5
44A
  8
0
 10
831.673954647298
 20
-464.2964845223191
 30
0.0
  0
VERTEX
  5
44B
  8
0
 10
832.0535059017582
 20
-464.7268551929448
 30
0.0
  0
VERTEX
  5
44C
  8
0
 10
832.498380149215
 20
-465.0856201892267
 30
0.0
  0
VERTEX
  5
44D
  8
0
 10
832.9923010192998
 20
-465.3596535727942
 30
0.0
  0
VERTEX
  5
44E
  8
0
 10
833.517197699732
 20
-465.538929434371
 30
0.0
  0
VERTEX
  5
44F
  8
0
 10
834.053866083228
 20
-465.6168887062254
 30
0.0
  0
VERTEX
  5
450
  8
0
 10
834.5826713776524
 20
-465.5906791351879
 30
0.0
  0
VERTEX
  5
451
  8
0
 10
835.0842664734031
 20
-465.4612596364751
 30
0.0
  0
VERTEX
  5
452
  8
0
 10
835.5402997855092
 20
-465.2333652103844
 30
0.0
  0
SEQEND
  5
771
  8
0
  0
POLYLINE
  5
21C
  8
0
 66
     1
 10
0.0
 20
0.0
 30
0.0
  0
VERTEX
  5
453
  8
0
 10
822.9055753471233
 20
-487.2682007437178
 30
0.0
  0
VERTEX
  5
454
  8
0
 10
822.5565830175385
 20
-487.652841923372
 30
0.0
  0
VERTEX
  5
455
  8
0
 10
822.2972583216136
 20
-488.1091677967916
 30
0.0
  0
VERTEX
  5
456
  8
0
 10
822.1375669620047
 20
-488.6196420165315
 30
0.0
  0
VERTEX
  5
457
  8
0
 10
822.0836457881198
 20
-489.1646473445597
 30
0.0
  0
VERTEX
  5
458
  8
0
 10
822.1375669604363
 20
-489.7232395317149
 30
0.0
  0
VERTEX
  5
459
  8
0
 10
822.2972583185369
 20
-490.2739521934579
 30
0.0
  0
VERTEX
  5
45A
  8
0
 10
822.5565830130719
 20
-490.795621750993
 30
0.0
  0
VERTEX
  5
45B
  8
0
 10
822.9055753414384
 20
-491.268200735734
 30
0.0
  0
VERTEX
  5
45C
  8
0
 10
823.3308237241439
 20
-491.6735282022814
 30
0.0
  0
VERTEX
  5
45D
  8
0
 10
823.8159861042858
 20
-491.9960276433704
 30
0.0
  0
VERTEX
  5
45E
  8
0
 10
824.342417963635
 20
-492.2233055863117
 30
0.0
  0
VERTEX
  5
45F
  8
0
 10
824.889888821017
 20
-492.346627867197
 30
0.0
  0
VERTEX
  5
460
  8
0
 10
825.43735967836
 20
-492.361255279921
 30
0.0
  0
VERTEX
  5
461
  8
0
 10
825.9637915375936
 20
-492.2666257012145
 30
0.0
  0
VERTEX
  5
462
  8
0
 10
826.4489539175476
 20
-492.0663756927268
 30
0.0
  0
VERTEX
  5
463
  8
0
 10
826.8742023
 20
-491.76820075
 30
0.0
  0
SEQEND
  5
772
  8
0
  0
POLYLINE
  5
21D
  8
0
 66
     1
 10
0.0
 20
0.0
 30
0.0
  0
VERTEX
  5
464
  8
0
 10
826.8742023055966
 20
-491.7682007450643
 30
0.0
  0
VERTEX
  5
465
  8
0
 10
827.223194631481
 20
-491.3835595641589
 30
0.0
  0
VERTEX
  5
466
  8
0
 10
827.4825193239279
 20
-490.9272336904223
 30
0.0
  0
VERTEX
  5
467
  8
0
 10
827.642210680478
 20
-490.4167594712004
 30
0.0
  0
VERTEX
  5
468
  8
0
 10
827.6961318518802
 20
-489.8717541443806
 30
0.0
  0
VERTEX
  5
469
  8
0
 10
827.6422106777651
 20
-489.3131619589451
 30
0.0
  0
VERTEX
  5
46A
  8
0
 10
827.4825193186061
 20
-488.7624492992307
 30
0.0
  0
VERTEX
  5
46B
  8
0
 10
827.2231946237551
 20
-488.240779743821
 30
0.0
  0
VERTEX
  5
46C
  8
0
 10
826.8742022957634
 20
-487.7682007610931
 30
0.0
  0
VERTEX
  5
46D
  8
0
 10
826.4489539140241
 20
-487.362873296254
 30
0.0
  0
VERTEX
  5
46E
  8
0
 10
825.9637915352989
 20
-487.0403738564038
 30
0.0
  0
VERTEX
  5
46F
  8
0
 10
825.4373596776443
 20
-486.813095914106
 30
0.0
  0
VERTEX
  5
470
  8
0
 10
824.8898888220411
 20
-486.6897736331883
 30
0.0
  0
VERTEX
  5
471
  8
0
 10
824.3424179663596
 20
-486.6751462197275
 30
0.0
  0
VERTEX
  5
472
  8
0
 10
823.8159861084727
 20
-486.7697757970171
 30
0.0
  0
VERTEX
  5
473
  8
0
 10
823.3308237293703
 20
-486.9700258034859
 30
0.0
  0
VERTEX
  5
474
  8
0
 10
822.9055753471233
 20
-487.2682007437178
 30
0.0
  0
SEQEND
  5
773
  8
0
  0
POLYLINE
  5
21E
  8
0
 66
     1
 10
0.0
 20
0.0
 30
0.0
  0
VERTEX
  5
475
  8
0
 10
823.188537442744
 20
-487.0545267418107
 30
0.0
  0
VERTEX
  5
476
  8
0
 10
822.9054262864504
 20
-487.4784964628412
 30
0.0
  0
VERTEX
  5
477
  8
0
 10
822.7143224701528
 20
-487.9599799808174
 30
0.0
  0
VERTEX
  5
478
  8
0
 10
822.6222178044824
 20
-488.4813615220462
 30
0.0
  0
VERTEX
  5
479
  8
0
 10
822.6324820723827
 20
-489.0235655857162
 30
0.0
  0
VERTEX
  5
47A
  8
0
 10
822.7447397407074
 20
-489.5667548487948
 30
0.0
  0
VERTEX
  5
47B
  8
0
 10
822.9548836996455
 20
-490.0910559432983
 30
0.0
  0
VERTEX
  5
47C
  8
0
 10
823.2552255272981
 20
-490.5772865523191
 30
0.0
  0
VERTEX
  5
47D
  8
0
 10
823.6347767817582
 20
-491.0076572229448
 30
0.0
  0
VERTEX
  5
47E
  8
0
 10
824.079651029215
 20
-491.3664222192268
 30
0.0
  0
VERTEX
  5
47F
  8
0
 10
824.5735718992998
 20
-491.6404556027942
 30
0.0
  0
VERTEX
  5
480
  8
0
 10
825.0984685797321
 20
-491.819731464371
 30
0.0
  0
VERTEX
  5
481
  8
0
 10
825.635136963228
 20
-491.8976907362255
 30
0.0
  0
VERTEX
  5
482
  8
0
 10
826.1639422576525
 20
-491.8714811651879
 30
0.0
  0
VERTEX
  5
483
  8
0
 10
826.6655373534031
 20
-491.7420616664751
 30
0.0
  0
VERTEX
  5
484
  8
0
 10
827.1215706655092
 20
-491.5141672403844
 30
0.0
  0
SEQEND
  5
774
  8
0
  0
POLYLINE
  5
21F
  8
0
 66
     1
 10
0.0
 20
0.0
 30
0.0
  0
VERTEX
  5
485
  8
0
 10
831.3243044671233
 20
-508.1278507837179
 30
0.0
  0
VERTEX
  5
486
  8
0
 10
830.9753121372637
 20
-508.512491963752
 30
0.0
  0
VERTEX
  5
487
  8
0
 10
830.715987441235
 20
-508.9688178376652
 30
0.0
  0
VERTEX
  5
488
  8
0
 10
830.5562960817153
 20
-509.4792920579621
 30
0.0
  0
VERTEX
  5
489
  8
0
 10
830.5023749081197
 20
-510.0242973865541
 30
0.0
  0
VERTEX
  5
48A
  8
0
 10
830.5562960809189
 20
-510.5828895742207
 30
0.0
  0
VERTEX
  5
48B
  8
0
 10
830.7159874396729
 20
-511.1336022363648
 30
0.0
  0
VERTEX
  5
48C
  8
0
 10
830.9753121349958
 20
-511.6552717941373
 30
0.0
  0
VERTEX
  5
48D
  8
0
 10
831.3243044642367
 20
-512.127850778907
 30
0.0
  0
VERTEX
  5
48E
  8
0
 10
831.7495528478456
 20
-512.5331782452407
 30
0.0
  0
VERTEX
  5
48F
  8
0
 10
832.234715228856
 20
-512.8556776858543
 30
0.0
  0
VERTEX
  5
490
  8
0
 10
832.7611470889718
 20
-513.082955628054
 30
0.0
  0
VERTEX
  5
491
  8
0
 10
833.3086179469532
 20
-513.2062779079448
 30
0.0
  0
VERTEX
  5
492
  8
0
 10
833.8560888046673
 20
-513.2209053194512
 30
0.0
  0
VERTEX
  5
493
  8
0
 10
834.3825206639917
 20
-513.1262757393495
 30
0.0
  0
VERTEX
  5
494
  8
0
 10
834.8676830437171
 20
-512.9260257293491
 30
0.0
  0
VERTEX
  5
495
  8
0
 10
835.2929314255965
 20
-512.6278507850643
 30
0.0
  0
SEQEND
  5
775
  8
0
  0
POLYLINE
  5
220
  8
0
 66
     1
 10
0.0
 20
0.0
 30
0.0
  0
VERTEX
  5
496
  8
0
 10
835.29293142
 20
-512.62785079
 30
0.0
  0
VERTEX
  5
497
  8
0
 10
835.6419237473586
 20
-512.2432096098579
 30
0.0
  0
VERTEX
  5
498
  8
0
 10
835.9012484412776
 20
-511.7868837365373
 30
0.0
  0
VERTEX
  5
499
  8
0
 10
836.0609397992234
 20
-511.2764095173993
 30
0.0
  0
VERTEX
  5
49A
  8
0
 10
836.1148609718801
 20
-510.7314041903636
 30
0.0
  0
VERTEX
  5
49B
  8
0
 10
836.0609397988266
 20
-510.1728120044579
 30
0.0
  0
VERTEX
  5
49C
  8
0
 10
835.9012484404992
 20
-509.6220993440755
 30
0.0
  0
VERTEX
  5
49D
  8
0
 10
835.6419237462285
 20
-509.1004297878636
 30
0.0
  0
VERTEX
  5
49E
  8
0
 10
835.2929314185616
 20
-508.627850804266
 30
0.0
  0
VERTEX
  5
49F
  8
0
 10
834.8676830369031
 20
-508.2225233385557
 30
0.0
  0
VERTEX
  5
4A0
  8
0
 10
834.382520658041
 20
-507.9000238978941
 30
0.0
  0
VERTEX
  5
4A1
  8
0
 10
833.8560888000701
 20
-507.6727459548979
 30
0.0
  0
VERTEX
  5
4A2
  8
0
 10
833.3086179440198
 20
-507.5494236734377
 30
0.0
  0
VERTEX
  5
4A3
  8
0
 10
832.7611470878151
 20
-507.534796259619
 30
0.0
  0
VERTEX
  5
4A4
  8
0
 10
832.2347152293867
 20
-507.6294258367508
 30
0.0
  0
VERTEX
  5
4A5
  8
0
 10
831.7495528497816
 20
-507.8296758432608
 30
0.0
  0
VERTEX
  5
4A6
  8
0
 10
831.3243044671233
 20
-508.1278507837179
 30
0.0
  0
SEQEND
  5
776
  8
0
  0
POLYLINE
  5
221
  8
0
 66
     1
 10
0.0
 20
0.0
 30
0.0
  0
VERTEX
  5
4A7
  8
0
 10
831.6072665627439
 20
-507.9141767918106
 30
0.0
  0
VERTEX
  5
4A8
  8
0
 10
831.3241554064504
 20
-508.3381465128411
 30
0.0
  0
VERTEX
  5
4A9
  8
0
 10
831.1330515901527
 20
-508.8196300308173
 30
0.0
  0
VERTEX
  5
4AA
  8
0
 10
831.0409469244823
 20
-509.3410115720462
 30
0.0
  0
VERTEX
  5
4AB
  8
0
 10
831.0512111923827
 20
-509.8832156357162
 30
0.0
  0
VERTEX
  5
4AC
  8
0
 10
831.1634688607073
 20
-510.4264048987948
 30
0.0
  0
VERTEX
  5
4AD
  8
0
 10
831.3736128196455
 20
-510.9507059932983
 30
0.0
  0
VERTEX
  5
4AE
  8
0
 10
831.673954647298
 20
-511.4369366023191
 30
0.0
  0
VERTEX
  5
4AF
  8
0
 10
832.0535059017582
 20
-511.8673072729448
 30
0.0
  0
VERTEX
  5
4B0
  8
0
 10
832.498380149215
 20
-512.2260722692267
 30
0.0
  0
VERTEX
  5
4B1
  8
0
 10
832.9923010192998
 20
-512.5001056527942
 30
0.0
  0
VERTEX
  5
4B2
  8
0
 10
833.517197699732
 20
-512.679381514371
 30
0.0
  0
VERTEX
  5
4B3
  8
0
 10
834.053866083228
 20
-512.7573407862254
 30
0.0
  0
VERTEX
  5
4B4
  8
0
 10
834.5826713776524
 20
-512.7311312151879
 30
0.0
  0
VERTEX
  5
4B5
  8
0
 10
835.0842664734031
 20
-512.6017117164752
 30
0.0
  0
VERTEX
  5
4B6
  8
0
 10
835.5402997855092
 20
-512.3738172903843
 30
0.0
  0
SEQEND
  5
777
  8
0
  0
POLYLINE
  5
222
  8
0
 66
     1
 10
0.0
 20
0.0
 30
0.0
  0
VERTEX
  5
4B7
  8
0
 10
827.18208674
 20
-445.68955345
 30
0.0
  0
VERTEX
  5
4B8
  8
0
 10
827.6474098437303
 20
-445.1766985416724
 30
0.0
  0
VERTEX
  5
4B9
  8
0
 10
827.9931761023447
 20
-444.5682640421932
 30
0.0
  0
VERTEX
  5
4BA
  8
0
 10
828.2060979124207
 20
-443.8876317481844
 30
0.0
  0
VERTEX
  5
4BB
  8
0
 10
828.2779928081974
 20
-443.1609579770254
 30
0.0
  0
VERTEX
  5
4BC
  8
0
 10
828.2060979091468
 20
-442.4161683942432
 30
0.0
  0
VERTEX
  5
4BD
  8
0
 10
827.9931760959231
 20
-441.681884845847
 30
0.0
  0
VERTEX
  5
4BE
  8
0
 10
827.6474098344078
 20
-440.9863254368361
 30
0.0
  0
VERTEX
  5
4BF
  8
0
 10
827.1820867281345
 20
-440.3562201252483
 30
0.0
  0
VERTEX
  5
4C0
  8
0
 10
826.6150888831373
 20
-439.8157835048626
 30
0.0
  0
VERTEX
  5
4C1
  8
0
 10
825.968205708643
 20
-439.3857842519386
 30
0.0
  0
VERTEX
  5
4C2
  8
0
 10
825.2662965622934
 20
-439.0827469966345
 30
0.0
  0
VERTEX
  5
4C3
  8
0
 10
824.5363354189716
 20
-438.918317290737
 30
0.0
  0
VERTEX
  5
4C4
  8
0
 10
823.8063742760735
 20
-438.8988140756361
 30
0.0
  0
VERTEX
  5
4C5
  8
0
 10
823.1044651309791
 20
-439.0249868489512
 30
0.0
  0
VERTEX
  5
4C6
  8
0
 10
822.457581958523
 20
-439.291986861758
 30
0.0
  0
VERTEX
  5
4C7
  8
0
 10
821.8905841162689
 20
-439.6895534532905
 30
0.0
  0
VERTEX
  5
4C8
  8
0
 10
821.4252610133382
 20
-440.2024083623803
 30
0.0
  0
VERTEX
  5
4C9
  8
0
 10
821.079494755636
 20
-440.8108428624658
 30
0.0
  0
VERTEX
  5
4CA
  8
0
 10
820.86657294655
 20
-441.4914751569019
 30
0.0
  0
VERTEX
  5
4CB
  8
0
 10
820.7946780518027
 20
-442.2181489282929
 30
0.0
  0
VERTEX
  5
4CC
  8
0
 10
820.8665729518825
 20
-442.9629385111025
 30
0.0
  0
VERTEX
  5
4CD
  8
0
 10
821.079494766096
 20
-443.6972220593208
 30
0.0
  0
VERTEX
  5
4CE
  8
0
 10
821.4252610285239
 20
-444.3927814679552
 30
0.0
  0
VERTEX
  5
4CF
  8
0
 10
821.8905841355966
 20
-445.0228867789824
 30
0.0
  0
VERTEX
  5
4D0
  8
0
 10
822.4575819812499
 20
-445.5633233986448
 30
0.0
  0
VERTEX
  5
4D1
  8
0
 10
823.1044651562318
 20
-445.9933226507108
 30
0.0
  0
VERTEX
  5
4D2
  8
0
 10
823.8063743028817
 20
-446.296359905055
 30
0.0
  0
VERTEX
  5
4D3
  8
0
 10
824.536335446305
 20
-446.4607896099278
 30
0.0
  0
VERTEX
  5
4D4
  8
0
 10
825.2662965891017
 20
-446.4802928239784
 30
0.0
  0
VERTEX
  5
4D5
  8
0
 10
825.9682057338958
 20
-446.3541200496278
 30
0.0
  0
VERTEX
  5
4D6
  8
0
 10
826.6150889058644
 20
-446.0871200358401
 30
0.0
  0
VERTEX
  5
4D7
  8
0
 10
827.1820867474621
 20
-445.689553443419
 30
0.0
  0
SEQEND
  5
778
  8
0
  0
POLYLINE
  5
223
  8
0
 66
     1
 10
0.0
 20
0.0
 30
0.0
  0
VERTEX
  5
4D8
  8
0
 10
835.60081586
 20
-466.5492035
 30
0.0
  0
VERTEX
  5
4D9
  8
0
 10
836.0661389637303
 20
-466.0363485916723
 30
0.0
  0
VERTEX
  5
4DA
  8
0
 10
836.4119052223447
 20
-465.4279140921931
 30
0.0
  0
VERTEX
  5
4DB
  8
0
 10
836.6248270324206
 20
-464.7472817981844
 30
0.0
  0
VERTEX
  5
4DC
  8
0
 10
836.6967219281973
 20
-464.0206080270253
 30
0.0
  0
VERTEX
  5
4DD
  8
0
 10
836.6248270291468
 20
-463.2758184442432
 30
0.0
  0
VERTEX
  5
4DE
  8
0
 10
836.4119052159231
 20
-462.541534895847
 30
0.0
  0
VERTEX
  5
4DF
  8
0
 10
836.0661389544077
 20
-461.845975486836
 30
0.0
  0
VERTEX
  5
4E0
  8
0
 10
835.6008158481345
 20
-461.2158701752483
 30
0.0
  0
VERTEX
  5
4E1
  8
0
 10
835.0338180031373
 20
-460.6754335548625
 30
0.0
  0
VERTEX
  5
4E2
  8
0
 10
834.386934828643
 20
-460.2454343019385
 30
0.0
  0
VERTEX
  5
4E3
  8
0
 10
833.6850256822934
 20
-459.9423970466345
 30
0.0
  0
VERTEX
  5
4E4
  8
0
 10
832.9550645389716
 20
-459.777967340737
 30
0.0
  0
VERTEX
  5
4E5
  8
0
 10
832.2251033960735
 20
-459.7584641256361
 30
0.0
  0
VERTEX
  5
4E6
  8
0
 10
831.523194250979
 20
-459.8846368989512
 30
0.0
  0
VERTEX
  5
4E7
  8
0
 10
830.8763110785229
 20
-460.151636911758
 30
0.0
  0
VERTEX
  5
4E8
  8
0
 10
830.3093132362688
 20
-460.5492035032905
 30
0.0
  0
VERTEX
  5
4E9
  8
0
 10
829.8439901333381
 20
-461.0620584123803
 30
0.0
  0
VERTEX
  5
4EA
  8
0
 10
829.498223875636
 20
-461.6704929124658
 30
0.0
  0
VERTEX
  5
4EB
  8
0
 10
829.28530206655
 20
-462.3511252069019
 30
0.0
  0
VERTEX
  5
4EC
  8
0
 10
829.2134071718027
 20
-463.0777989782928
 30
0.0
  0
VERTEX
  5
4ED
  8
0
 10
829.2853020718825
 20
-463.8225885611025
 30
0.0
  0
VERTEX
  5
4EE
  8
0
 10
829.498223886096
 20
-464.5568721093208
 30
0.0
  0
VERTEX
  5
4EF
  8
0
 10
829.8439901485239
 20
-465.2524315179552
 30
0.0
  0
VERTEX
  5
4F0
  8
0
 10
830.3093132555965
 20
-465.8825368289823
 30
0.0
  0
VERTEX
  5
4F1
  8
0
 10
830.8763111012498
 20
-466.4229734486448
 30
0.0
  0
VERTEX
  5
4F2
  8
0
 10
831.5231942762317
 20
-466.8529727007108
 30
0.0
  0
VERTEX
  5
4F3
  8
0
 10
832.2251034228817
 20
-467.156009955055
 30
0.0
  0
VERTEX
  5
4F4
  8
0
 10
832.9550645663049
 20
-467.3204396599277
 30
0.0
  0
VERTEX
  5
4F5
  8
0
 10
833.6850257091016
 20
-467.3399428739784
 30
0.0
  0
VERTEX
  5
4F6
  8
0
 10
834.3869348538958
 20
-467.2137700996278
 30
0.0
  0
VERTEX
  5
4F7
  8
0
 10
835.0338180258643
 20
-466.9467700858401
 30
0.0
  0
VERTEX
  5
4F8
  8
0
 10
835.6008158674621
 20
-466.549203493419
 30
0.0
  0
SEQEND
  5
779
  8
0
  0
POLYLINE
  5
224
  8
0
 66
     1
 10
0.0
 20
0.0
 30
0.0
  0
VERTEX
  5
4F9
  8
0
 10
827.18208674
 20
-492.83000553
 30
0.0
  0
VERTEX
  5
4FA
  8
0
 10
827.6474098437303
 20
-492.3171506216723
 30
0.0
  0
VERTEX
  5
4FB
  8
0
 10
827.9931761023447
 20
-491.7087161221932
 30
0.0
  0
VERTEX
  5
4FC
  8
0
 10
828.2060979124207
 20
-491.0280838281844
 30
0.0
  0
VERTEX
  5
4FD
  8
0
 10
828.2779928081974
 20
-490.3014100570254
 30
0.0
  0
VERTEX
  5
4FE
  8
0
 10
828.2060979091468
 20
-489.5566204742432
 30
0.0
  0
VERTEX
  5
4FF
  8
0
 10
827.9931760959231
 20
-488.822336925847
 30
0.0
  0
VERTEX
  5
500
  8
0
 10
827.6474098344078
 20
-488.1267775168361
 30
0.0
  0
VERTEX
  5
501
  8
0
 10
827.1820867281345
 20
-487.4966722052483
 30
0.0
  0
VERTEX
  5
502
  8
0
 10
826.6150888831373
 20
-486.9562355848626
 30
0.0
  0
VERTEX
  5
503
  8
0
 10
825.968205708643
 20
-486.5262363319385
 30
0.0
  0
VERTEX
  5
504
  8
0
 10
825.2662965622934
 20
-486.2231990766345
 30
0.0
  0
VERTEX
  5
505
  8
0
 10
824.5363354189716
 20
-486.058769370737
 30
0.0
  0
VERTEX
  5
506
  8
0
 10
823.8063742760735
 20
-486.0392661556361
 30
0.0
  0
VERTEX
  5
507
  8
0
 10
823.1044651309791
 20
-486.1654389289512
 30
0.0
  0
VERTEX
  5
508
  8
0
 10
822.457581958523
 20
-486.432438941758
 30
0.0
  0
VERTEX
  5
509
  8
0
 10
821.8905841162689
 20
-486.8300055332905
 30
0.0
  0
VERTEX
  5
50A
  8
0
 10
821.4252610133382
 20
-487.3428604423803
 30
0.0
  0
VERTEX
  5
50B
  8
0
 10
821.079494755636
 20
-487.9512949424658
 30
0.0
  0
VERTEX
  5
50C
  8
0
 10
820.86657294655
 20
-488.6319272369019
 30
0.0
  0
VERTEX
  5
50D
  8
0
 10
820.7946780518027
 20
-489.3586010082929
 30
0.0
  0
VERTEX
  5
50E
  8
0
 10
820.8665729518825
 20
-490.1033905911025
 30
0.0
  0
VERTEX
  5
50F
  8
0
 10
821.079494766096
 20
-490.8376741393208
 30
0.0
  0
VERTEX
  5
510
  8
0
 10
821.4252610285239
 20
-491.5332335479552
 30
0.0
  0
VERTEX
  5
511
  8
0
 10
821.8905841355966
 20
-492.1633388589823
 30
0.0
  0
VERTEX
  5
512
  8
0
 10
822.4575819812499
 20
-492.7037754786448
 30
0.0
  0
VERTEX
  5
513
  8
0
 10
823.1044651562318
 20
-493.1337747307108
 30
0.0
  0
VERTEX
  5
514
  8
0
 10
823.8063743028817
 20
-493.436811985055
 30
0.0
  0
VERTEX
  5
515
  8
0
 10
824.536335446305
 20
-493.6012416899277
 30
0.0
  0
VERTEX
  5
516
  8
0
 10
825.2662965891017
 20
-493.6207449039784
 30
0.0
  0
VERTEX
  5
517
  8
0
 10
825.9682057338958
 20
-493.4945721296278
 30
0.0
  0
VERTEX
  5
518
  8
0
 10
826.6150889058644
 20
-493.2275721158401
 30
0.0
  0
VERTEX
  5
519
  8
0
 10
827.1820867474621
 20
-492.830005523419
 30
0.0
  0
SEQEND
  5
77A
  8
0
  0
POLYLINE
  5
225
  8
0
 66
     1
 10
0.0
 20
0.0
 30
0.0
  0
VERTEX
  5
51A
  8
0
 10
835.60081586
 20
-513.68965558
 30
0.0
  0
VERTEX
  5
51B
  8
0
 10
836.0661389637303
 20
-513.1768006716724
 30
0.0
  0
VERTEX
  5
51C
  8
0
 10
836.4119052223447
 20
-512.5683661721932
 30
0.0
  0
VERTEX
  5
51D
  8
0
 10
836.6248270324206
 20
-511.8877338781845
 30
0.0
  0
VERTEX
  5
51E
  8
0
 10
836.6967219281973
 20
-511.1610601070253
 30
0.0
  0
VERTEX
  5
51F
  8
0
 10
836.6248270291468
 20
-510.4162705242431
 30
0.0
  0
VERTEX
  5
520
  8
0
 10
836.4119052159231
 20
-509.6819869758471
 30
0.0
  0
VERTEX
  5
521
  8
0
 10
836.0661389544077
 20
-508.9864275668361
 30
0.0
  0
VERTEX
  5
522
  8
0
 10
835.6008158481345
 20
-508.3563222552483
 30
0.0
  0
VERTEX
  5
523
  8
0
 10
835.0338180031373
 20
-507.8158856348626
 30
0.0
  0
VERTEX
  5
524
  8
0
 10
834.386934828643
 20
-507.3858863819386
 30
0.0
  0
VERTEX
  5
525
  8
0
 10
833.6850256822934
 20
-507.0828491266345
 30
0.0
  0
VERTEX
  5
526
  8
0
 10
832.9550645389716
 20
-506.9184194207371
 30
0.0
  0
VERTEX
  5
527
  8
0
 10
832.2251033960735
 20
-506.8989162056361
 30
0.0
  0
VERTEX
  5
528
  8
0
 10
831.523194250979
 20
-507.0250889789513
 30
0.0
  0
VERTEX
  5
529
  8
0
 10
830.8763110785229
 20
-507.292088991758
 30
0.0
  0
VERTEX
  5
52A
  8
0
 10
830.3093132362688
 20
-507.6896555832905
 30
0.0
  0
VERTEX
  5
52B
  8
0
 10
829.8439901333381
 20
-508.2025104923803
 30
0.0
  0
VERTEX
  5
52C
  8
0
 10
829.498223875636
 20
-508.8109449924659
 30
0.0
  0
VERTEX
  5
52D
  8
0
 10
829.28530206655
 20
-509.4915772869019
 30
0.0
  0
VERTEX
  5
52E
  8
0
 10
829.2134071718027
 20
-510.2182510582929
 30
0.0
  0
VERTEX
  5
52F
  8
0
 10
829.2853020718825
 20
-510.9630406411026
 30
0.0
  0
VERTEX
  5
530
  8
0
 10
829.498223886096
 20
-511.6973241893208
 30
0.0
  0
VERTEX
  5
531
  8
0
 10
829.8439901485239
 20
-512.3928835979552
 30
0.0
  0
VERTEX
  5
532
  8
0
 10
830.3093132555965
 20
-513.0229889089824
 30
0.0
  0
VERTEX
  5
533
  8
0
 10
830.8763111012498
 20
-513.5634255286449
 30
0.0
  0
VERTEX
  5
534
  8
0
 10
831.5231942762317
 20
-513.9934247807108
 30
0.0
  0
VERTEX
  5
535
  8
0
 10
832.2251034228817
 20
-514.296462035055
 30
0.0
  0
VERTEX
  5
536
  8
0
 10
832.9550645663049
 20
-514.4608917399277
 30
0.0
  0
VERTEX
  5
537
  8
0
 10
833.6850257091016
 20
-514.4803949539785
 30
0.0
  0
VERTEX
  5
538
  8
0
 10
834.3869348538958
 20
-514.3542221796278
 30
0.0
  0
VERTEX
  5
539
  8
0
 10
835.0338180258643
 20
-514.0872221658402
 30
0.0
  0
VERTEX
  5
53A
  8
0
 10
835.6008158674621
 20
-513.689655573419
 30
0.0
  0
SEQEND
  5
77B
  8
0
  0
LINE
  5
226
  8
0
 10
850.45560449
 20
-521.37979773
 30
0.0
 11
825.47174978
 21
-518.23212791
 31
0.0
  0
POLYLINE
  5
227
  8
0
 66
     1
 10
0.0
 20
0.0
 30
0.0
  0
VERTEX
  5
53B
  8
0
 10
816.1176063309712
 20
-507.6255262006353
 30
0.0
  0
VERTEX
  5
53C
  8
0
 10
816.2973435824988
 20
-509.4875001493843
 30
0.0
  0
VERTEX
  5
53D
  8
0
 10
816.8296481160895
 20
-511.32320901165
 30
0.0
  0
VERTEX
  5
53E
  8
0
 10
817.6940637672138
 20
-513.0621075259411
 30
0.0
  0
VERTEX
  5
53F
  8
0
 10
818.8573715274555
 20
-514.6373707981154
 30
0.0
  0
VERTEX
  5
540
  8
0
 10
820.2748661323643
 20
-515.988462344563
 30
0.0
  0
VERTEX
  5
541
  8
0
 10
821.8920740596836
 20
-517.0634604753026
 30
0.0
  0
VERTEX
  5
542
  8
0
 10
823.646846916243
 20
-517.8210536153919
 30
0.0
  0
VERTEX
  5
543
  8
0
 10
825.4717497658345
 20
-518.2321278855717
 30
0.0
  0
SEQEND
  5
77C
  8
0
  0
LINE
  5
228
  8
0
 10
816.11760631
 20
-507.62552619
 30
0.0
 11
816.11760631
 21
-442.57170232
 31
0.0
  0
POLYLINE
  5
229
  8
0
 66
     1
 10
0.0
 20
0.0
 30
0.0
  0
VERTEX
  5
544
  8
0
 10
818.8573715237443
 20
-436.2502135990596
 30
0.0
  0
VERTEX
  5
545
  8
0
 10
817.6940637513057
 20
-437.5323508771146
 30
0.0
  0
VERTEX
  5
546
  8
0
 10
816.8296480961826
 20
-439.0534371373657
 30
0.0
  0
VERTEX
  5
547
  8
0
 10
816.297343567788
 20
-440.7550178868868
 30
0.0
  0
VERTEX
  5
548
  8
0
 10
816.1176063309712
 20
-442.5717023306353
 30
0.0
  0
SEQEND
  5
77D
  8
0
  0
POLYLINE
  5
22A
  8
0
 66
     1
 10
0.0
 20
0.0
 30
0.0
  0
VERTEX
  5
549
  8
0
 10
825.471749760586
 20
-434.3221232201977
 30
0.0
  0
VERTEX
  5
54A
  8
0
 10
823.6468469110953
 20
-434.2733651801453
 30
0.0
  0
VERTEX
  5
54B
  8
0
 10
821.8920740548346
 20
-434.5887971078182
 30
0.0
  0
VERTEX
  5
54C
  8
0
 10
820.2748661280003
 20
-435.2562971312363
 30
0.0
  0
VERTEX
  5
54D
  8
0
 10
818.8573715237443
 20
-436.2502135990596
 30
0.0
  0
SEQEND
  5
77E
  8
0
  0
LINE
  5
22B
  8
0
 10
825.47174978
 20
-434.32212321
 30
0.0
 11
850.45560449
 21
-437.46979303
 31
0.0
  0
POLYLINE
  5
22C
  8
0
 66
     1
 10
0.0
 20
0.0
 30
0.0
  0
VERTEX
  5
54E
  8
0
 10
850.4556044927014
 20
-521.3797977295281
 30
0.0
  0
VERTEX
  5
54F
  8
0
 10
850.5971196247086
 20
-521.3937467355483
 30
0.0
  0
VERTEX
  5
550
  8
0
 10
850.7432524634035
 20
-521.4006015715476
 30
0.0
  0
SEQEND
  5
77F
  8
0
  0
LINE
  5
22D
  8
0
 10
850.74325247
 20
-507.82415138
 30
0.0
 11
850.74325247
 21
-521.40060158
 31
0.0
  0
LINE
  5
22E
  8
0
 10
850.7432524634035
 20
-507.8241513715476
 30
0.0
 11
850.8255060113237
 21
-507.8248315334575
 31
0.0
  0
LINE
  5
22F
  8
0
 10
850.7432524634035
 20
-488.2137233115476
 30
0.0
 11
850.8255060113237
 21
-488.2144034734575
 31
0.0
  0
LINE
  5
230
  8
0
 10
850.74325247
 20
-470.67747514
 30
0.0
 11
850.74325247
 21
-488.21372331
 31
0.0
  0
LINE
  5
231
  8
0
 10
850.7432524634035
 20
-470.6774751415476
 30
0.0
 11
850.8255060113237
 21
-470.6781553034575
 31
0.0
  0
LINE
  5
232
  8
0
 10
850.7432524634035
 20
-451.0670470715476
 30
0.0
 11
850.8255060113237
 21
-451.0677272334576
 31
0.0
  0
LINE
  5
233
  8
0
 10
850.74325247
 20
-437.49059688
 30
0.0
 11
850.74325247
 21
-451.06704708
 31
0.0
  0
POLYLINE
  5
234
  8
0
 66
     1
 10
0.0
 20
0.0
 30
0.0
  0
VERTEX
  5
551
  8
0
 10
850.4556044927014
 20
-437.4697930295282
 30
0.0
  0
VERTEX
  5
552
  8
0
 10
850.5971196247086
 20
-437.4837420355485
 30
0.0
  0
VERTEX
  5
553
  8
0
 10
850.7432524634035
 20
-437.4905968715476
 30
0.0
  0
SEQEND
  5
780
  8
0
  0
LINE
  5
235
  8
0
 10
851.53887219
 20
-436.78892624
 30
0.0
 11
850.74325247
 21
-437.49059688
 31
0.0
  0
LINE
  5
236
  8
0
 10
863.4783797
 20
-452.19829098
 30
0.0
 11
863.434907876491
 21
-451.9579735805574
 31
0.0
  0
POLYLINE
  5
237
  8
0
 66
     1
 10
0.0
 20
0.0
 30
0.0
  0
VERTEX
  5
554
  8
0
 10
851.4783797
 20
-452.1982909728204
 30
0.0
  0
VERTEX
  5
555
  8
0
 10
851.5936680136413
 20
-452.588471613529
 30
0.0
  0
VERTEX
  5
556
  8
0
 10
851.9351024977201
 20
-452.9636578312726
 30
0.0
  0
VERTEX
  5
557
  8
0
 10
852.4895620164622
 20
-453.3094314300775
 30
0.0
  0
VERTEX
  5
558
  8
0
 10
853.2357390014581
 20
-453.6125045244235
 30
0.0
  0
VERTEX
  5
559
  8
0
 10
854.1449582895701
 20
-453.8612301852335
 30
0.0
  0
VERTEX
  5
55A
  8
0
 10
855.1822790933725
 20
-454.0460500248278
 30
0.0
  0
VERTEX
  5
55B
  8
0
 10
856.3078377560205
 20
-454.1598615204029
 30
0.0
  0
VERTEX
  5
55C
  8
0
 10
857.4783796892307
 20
-454.19829096
 30
0.0
  0
VERTEX
  5
55D
  8
0
 10
858.6489216228547
 20
-454.1598615218036
 30
0.0
  0
VERTEX
  5
55E
  8
0
 10
859.7744802867284
 20
-454.0460500275753
 30
0.0
  0
VERTEX
  5
55F
  8
0
 10
860.8118010925211
 20
-453.8612301892222
 30
0.0
  0
VERTEX
  5
560
  8
0
 10
861.7210203833117
 20
-453.6125045295001
 30
0.0
  0
VERTEX
  5
561
  8
0
 10
862.4671973715716
 20
-453.3094314360471
 30
0.0
  0
VERTEX
  5
562
  8
0
 10
863.0216568940374
 20
-452.9636578379057
 30
0.0
  0
VERTEX
  5
563
  8
0
 10
863.3630913821568
 20
-452.5884716205706
 30
0.0
  0
VERTEX
  5
564
  8
0
 10
863.4783797
 20
-452.19829098
 30
0.0
  0
SEQEND
  5
781
  8
0
  0
LINE
  5
238
  8
0
 10
851.520192056516
 20
-451.962588720775
 30
0.0
 11
851.4783797
 21
-452.1982909728204
 31
0.0
  0
LINE
  5
239
  8
0
 10
851.4783797
 20
-470.67459707
 30
0.0
 11
850.82550601
 21
-470.6781553
 31
0.0
  0
LINE
  5
23A
  8
0
 10
850.82550601
 20
-451.06772724
 30
0.0
 11
851.4783797
 21
-451.06416901
 31
0.0
  0
LINE
  5
23B
  8
0
 10
851.4783797
 20
-471.80871905
 30
0.0
 11
851.4783797
 21
-452.19829098
 31
0.0
  0
POLYLINE
  5
23C
  8
0
 66
     1
 10
0.0
 20
0.0
 30
0.0
  0
VERTEX
  5
565
  8
0
 10
851.4783797
 20
-471.8087190428204
 30
0.0
  0
VERTEX
  5
566
  8
0
 10
851.5936680136413
 20
-472.1988996835289
 30
0.0
  0
VERTEX
  5
567
  8
0
 10
851.9351024977201
 20
-472.5740859012726
 30
0.0
  0
VERTEX
  5
568
  8
0
 10
852.4895620164622
 20
-472.9198595000775
 30
0.0
  0
VERTEX
  5
569
  8
0
 10
853.2357390014581
 20
-473.2229325944234
 30
0.0
  0
VERTEX
  5
56A
  8
0
 10
854.1449582895701
 20
-473.4716582552334
 30
0.0
  0
VERTEX
  5
56B
  8
0
 10
855.1822790933725
 20
-473.6564780948278
 30
0.0
  0
VERTEX
  5
56C
  8
0
 10
856.3078377560205
 20
-473.7702895904029
 30
0.0
  0
VERTEX
  5
56D
  8
0
 10
857.4783796892307
 20
-473.80871903
 30
0.0
  0
VERTEX
  5
56E
  8
0
 10
858.6489216228547
 20
-473.7702895918035
 30
0.0
  0
VERTEX
  5
56F
  8
0
 10
859.7744802867284
 20
-473.6564780975753
 30
0.0
  0
VERTEX
  5
570
  8
0
 10
860.8118010925211
 20
-473.4716582592222
 30
0.0
  0
VERTEX
  5
571
  8
0
 10
861.7210203833117
 20
-473.2229325995001
 30
0.0
  0
VERTEX
  5
572
  8
0
 10
862.4671973715716
 20
-472.9198595060471
 30
0.0
  0
VERTEX
  5
573
  8
0
 10
863.0216568940374
 20
-472.5740859079056
 30
0.0
  0
VERTEX
  5
574
  8
0
 10
863.3630913821568
 20
-472.1988996905706
 30
0.0
  0
VERTEX
  5
575
  8
0
 10
863.4783797
 20
-471.80871905
 30
0.0
  0
SEQEND
  5
782
  8
0
  0
LINE
  5
23D
  8
0
 10
863.4783797
 20
-471.80871905
 30
0.0
 11
863.4783797
 21
-452.19829098
 31
0.0
  0
LINE
  5
23E
  8
0
 10
851.4783797
 20
-450.41872579
 30
0.0
 11
850.74325247
 21
-451.06704708
 31
0.0
  0
LINE
  5
23F
  8
0
 10
851.3246522627013
 20
-436.6884119495282
 30
0.0
 11
851.5664171295329
 21
-436.7078511732064
 31
0.0
  0
LINE
  5
240
  8
0
 10
826.35563326
 20
-433.54261125
 30
0.0
 11
851.32465226
 21
-436.68841195
 31
0.0
  0
POLYLINE
  5
241
  8
0
 66
     1
 10
0.0
 20
0.0
 30
0.0
  0
VERTEX
  5
576
  8
0
 10
826.355633240586
 20
-433.5426112701977
 30
0.0
  0
VERTEX
  5
577
  8
0
 10
824.5307303910953
 20
-433.4938532301453
 30
0.0
  0
VERTEX
  5
578
  8
0
 10
822.7759575348346
 20
-433.8092851578181
 30
0.0
  0
VERTEX
  5
579
  8
0
 10
821.1587496080003
 20
-434.4767851812363
 30
0.0
  0
VERTEX
  5
57A
  8
0
 10
819.7412550037443
 20
-435.4707016490595
 30
0.0
  0
SEQEND
  5
783
  8
0
  0
LINE
  5
242
  8
0
 10
819.74125498
 20
-435.47070167
 30
0.0
 11
818.8573715
 21
-436.25021362
 31
0.0
  0
LINE
  5
243
  8
0
 10
863.4783797
 20
-489.34496722
 30
0.0
 11
863.434907876491
 21
-489.1046498205574
 31
0.0
  0
POLYLINE
  5
244
  8
0
 66
     1
 10
0.0
 20
0.0
 30
0.0
  0
VERTEX
  5
57B
  8
0
 10
851.4783797
 20
-489.3449672128204
 30
0.0
  0
VERTEX
  5
57C
  8
0
 10
851.5936680136413
 20
-489.7351478535289
 30
0.0
  0
VERTEX
  5
57D
  8
0
 10
851.9351024977201
 20
-490.1103340712726
 30
0.0
  0
VERTEX
  5
57E
  8
0
 10
852.4895620164622
 20
-490.4561076700775
 30
0.0
  0
VERTEX
  5
57F
  8
0
 10
853.2357390014581
 20
-490.7591807644234
 30
0.0
  0
VERTEX
  5
580
  8
0
 10
854.1449582895701
 20
-491.0079064252334
 30
0.0
  0
VERTEX
  5
581
  8
0
 10
855.1822790933725
 20
-491.1927262648278
 30
0.0
  0
VERTEX
  5
582
  8
0
 10
856.3078377560205
 20
-491.3065377604029
 30
0.0
  0
VERTEX
  5
583
  8
0
 10
857.4783796892307
 20
-491.3449672
 30
0.0
  0
VERTEX
  5
584
  8
0
 10
858.6489216228547
 20
-491.3065377618036
 30
0.0
  0
VERTEX
  5
585
  8
0
 10
859.7744802867284
 20
-491.1927262675753
 30
0.0
  0
VERTEX
  5
586
  8
0
 10
860.8118010925211
 20
-491.0079064292222
 30
0.0
  0
VERTEX
  5
587
  8
0
 10
861.7210203833117
 20
-490.7591807695001
 30
0.0
  0
VERTEX
  5
588
  8
0
 10
862.4671973715716
 20
-490.4561076760471
 30
0.0
  0
VERTEX
  5
589
  8
0
 10
863.0216568940374
 20
-490.1103340779056
 30
0.0
  0
VERTEX
  5
58A
  8
0
 10
863.3630913821568
 20
-489.7351478605706
 30
0.0
  0
VERTEX
  5
58B
  8
0
 10
863.4783797
 20
-489.34496722
 30
0.0
  0
SEQEND
  5
784
  8
0
  0
LINE
  5
245
  8
0
 10
851.520192056516
 20
-489.109264960775
 30
0.0
 11
851.4783797
 21
-489.3449672128204
 31
0.0
  0
LINE
  5
246
  8
0
 10
851.4783797
 20
-507.82127331
 30
0.0
 11
850.82550601
 21
-507.82483154
 31
0.0
  0
LINE
  5
247
  8
0
 10
850.82550601
 20
-488.21440348
 30
0.0
 11
851.4783797
 21
-488.21084525
 31
0.0
  0
LINE
  5
248
  8
0
 10
851.4783797
 20
-508.95539529
 30
0.0
 11
851.4783797
 21
-489.34496722
 31
0.0
  0
POLYLINE
  5
249
  8
0
 66
     1
 10
0.0
 20
0.0
 30
0.0
  0
VERTEX
  5
58C
  8
0
 10
851.4783797
 20
-508.9553952828204
 30
0.0
  0
VERTEX
  5
58D
  8
0
 10
851.5936680136413
 20
-509.3455759235289
 30
0.0
  0
VERTEX
  5
58E
  8
0
 10
851.9351024977201
 20
-509.7207621412726
 30
0.0
  0
VERTEX
  5
58F
  8
0
 10
852.4895620164622
 20
-510.0665357400775
 30
0.0
  0
VERTEX
  5
590
  8
0
 10
853.2357390014581
 20
-510.3696088344234
 30
0.0
  0
VERTEX
  5
591
  8
0
 10
854.1449582895701
 20
-510.6183344952335
 30
0.0
  0
VERTEX
  5
592
  8
0
 10
855.1822790933725
 20
-510.8031543348278
 30
0.0
  0
VERTEX
  5
593
  8
0
 10
856.3078377560205
 20
-510.9169658304029
 30
0.0
  0
VERTEX
  5
594
  8
0
 10
857.4783796892307
 20
-510.95539527
 30
0.0
  0
VERTEX
  5
595
  8
0
 10
858.6489216228547
 20
-510.9169658318036
 30
0.0
  0
VERTEX
  5
596
  8
0
 10
859.7744802867284
 20
-510.8031543375753
 30
0.0
  0
VERTEX
  5
597
  8
0
 10
860.8118010925211
 20
-510.6183344992222
 30
0.0
  0
VERTEX
  5
598
  8
0
 10
861.7210203833117
 20
-510.3696088395001
 30
0.0
  0
VERTEX
  5
599
  8
0
 10
862.4671973715716
 20
-510.0665357460471
 30
0.0
  0
VERTEX
  5
59A
  8
0
 10
863.0216568940374
 20
-509.7207621479056
 30
0.0
  0
VERTEX
  5
59B
  8
0
 10
863.3630913821568
 20
-509.3455759305706
 30
0.0
  0
VERTEX
  5
59C
  8
0
 10
863.4783797
 20
-508.95539529
 30
0.0
  0
SEQEND
  5
785
  8
0
  0
LINE
  5
24A
  8
0
 10
863.4783797
 20
-508.95539529
 30
0.0
 11
863.4783797
 21
-489.34496722
 31
0.0
  0
LINE
  5
24B
  8
0
 10
851.4783797
 20
-487.56540203
 30
0.0
 11
850.74325247
 21
-488.21372331
 31
0.0
  0
LINE
  5
24C
  8
0
 10
851.4783797
 20
-520.7522803
 30
0.0
 11
850.74325247
 21
-521.40060158
 31
0.0
  0
POLYLINE
  5
24D
  8
0
 66
     1
 10
0.0
 20
0.0
 30
0.0
  0
VERTEX
  5
59D
  8
0
 10
880.9012648471233
 20
-447.4345187337178
 30
0.0
  0
VERTEX
  5
59E
  8
0
 10
880.5522725175385
 20
-447.819159913372
 30
0.0
  0
VERTEX
  5
59F
  8
0
 10
880.2929478216137
 20
-448.2754857867916
 30
0.0
  0
VERTEX
  5
5A0
  8
0
 10
880.1332564620047
 20
-448.7859600065315
 30
0.0
  0
VERTEX
  5
5A1
  8
0
 10
880.0793352881199
 20
-449.3309653345597
 30
0.0
  0
VERTEX
  5
5A2
  8
0
 10
880.1332564604363
 20
-449.8895575217149
 30
0.0
  0
VERTEX
  5
5A3
  8
0
 10
880.292947818537
 20
-450.4402701834579
 30
0.0
  0
VERTEX
  5
5A4
  8
0
 10
880.5522725130719
 20
-450.9619397409929
 30
0.0
  0
VERTEX
  5
5A5
  8
0
 10
880.9012648414384
 20
-451.434518725734
 30
0.0
  0
VERTEX
  5
5A6
  8
0
 10
881.3265132241439
 20
-451.8398461922814
 30
0.0
  0
VERTEX
  5
5A7
  8
0
 10
881.8116756042858
 20
-452.1623456333704
 30
0.0
  0
VERTEX
  5
5A8
  8
0
 10
882.338107463635
 20
-452.3896235763117
 30
0.0
  0
VERTEX
  5
5A9
  8
0
 10
882.8855783210171
 20
-452.512945857197
 30
0.0
  0
VERTEX
  5
5AA
  8
0
 10
883.4330491783601
 20
-452.5275732699209
 30
0.0
  0
VERTEX
  5
5AB
  8
0
 10
883.9594810375936
 20
-452.4329436912145
 30
0.0
  0
VERTEX
  5
5AC
  8
0
 10
884.4446434175476
 20
-452.2326936827268
 30
0.0
  0
VERTEX
  5
5AD
  8
0
 10
884.8698918
 20
-451.93451874
 30
0.0
  0
SEQEND
  5
786
  8
0
  0
POLYLINE
  5
24E
  8
0
 66
     1
 10
0.0
 20
0.0
 30
0.0
  0
VERTEX
  5
5AE
  8
0
 10
884.8698918055966
 20
-451.9345187350643
 30
0.0
  0
VERTEX
  5
5AF
  8
0
 10
885.218884131481
 20
-451.5498775541589
 30
0.0
  0
VERTEX
  5
5B0
  8
0
 10
885.478208823928
 20
-451.0935516804223
 30
0.0
  0
VERTEX
  5
5B1
  8
0
 10
885.637900180478
 20
-450.5830774612003
 30
0.0
  0
VERTEX
  5
5B2
  8
0
 10
885.6918213518802
 20
-450.0380721343806
 30
0.0
  0
VERTEX
  5
5B3
  8
0
 10
885.6379001777651
 20
-449.4794799489451
 30
0.0
  0
VERTEX
  5
5B4
  8
0
 10
885.4782088186062
 20
-448.9287672892307
 30
0.0
  0
VERTEX
  5
5B5
  8
0
 10
885.2188841237552
 20
-448.407097733821
 30
0.0
  0
VERTEX
  5
5B6
  8
0
 10
884.8698917957635
 20
-447.934518751093
 30
0.0
  0
VERTEX
  5
5B7
  8
0
 10
884.4446434140241
 20
-447.5291912862539
 30
0.0
  0
VERTEX
  5
5B8
  8
0
 10
883.959481035299
 20
-447.2066918464038
 30
0.0
  0
VERTEX
  5
5B9
  8
0
 10
883.4330491776443
 20
-446.979413904106
 30
0.0
  0
VERTEX
  5
5BA
  8
0
 10
882.8855783220412
 20
-446.8560916231883
 30
0.0
  0
VERTEX
  5
5BB
  8
0
 10
882.3381074663596
 20
-446.8414642097275
 30
0.0
  0
VERTEX
  5
5BC
  8
0
 10
881.8116756084727
 20
-446.9360937870171
 30
0.0
  0
VERTEX
  5
5BD
  8
0
 10
881.3265132293703
 20
-447.1363437934859
 30
0.0
  0
VERTEX
  5
5BE
  8
0
 10
880.9012648471233
 20
-447.4345187337178
 30
0.0
  0
SEQEND
  5
787
  8
0
  0
POLYLINE
  5
24F
  8
0
 66
     1
 10
0.0
 20
0.0
 30
0.0
  0
VERTEX
  5
5BF
  8
0
 10
881.1842266024737
 20
-447.2208451488053
 30
0.0
  0
VERTEX
  5
5C0
  8
0
 10
880.9011155705952
 20
-447.6448148749893
 30
0.0
  0
VERTEX
  5
5C1
  8
0
 10
880.7100118610734
 20
-448.1262983670767
 30
0.0
  0
VERTEX
  5
5C2
  8
0
 10
880.6179072786922
 20
-448.6476798572114
 30
0.0
  0
VERTEX
  5
5C3
  8
0
 10
880.6281716024127
 20
-449.1898838517453
 30
0.0
  0
VERTEX
  5
5C4
  8
0
 10
880.7404292971506
 20
-449.7330730356812
 30
0.0
  0
VERTEX
  5
5C5
  8
0
 10
880.9505732532682
 20
-450.2573740494472
 30
0.0
  0
VERTEX
  5
5C6
  8
0
 10
881.250915051104
 20
-450.7436045844132
 30
0.0
  0
VERTEX
  5
5C7
  8
0
 10
881.6304662528917
 20
-451.1739751953139
 30
0.0
  0
VERTEX
  5
5C8
  8
0
 10
882.0753404306016
 20
-451.532740152756
 30
0.0
  0
VERTEX
  5
5C9
  8
0
 10
882.5692612209345
 20
-451.806773523433
 30
0.0
  0
VERTEX
  5
5CA
  8
0
 10
883.0941578195434
 20
-451.9860494013229
 30
0.0
  0
VERTEX
  5
5CB
  8
0
 10
883.6308261274678
 20
-452.0640087199177
 30
0.0
  0
VERTEX
  5
5CC
  8
0
 10
884.1596313607877
 20
-452.0377992251293
 30
0.0
  0
VERTEX
  5
5CD
  8
0
 10
884.6612264175058
 20
-451.9083798291188
 30
0.0
  0
VERTEX
  5
5CE
  8
0
 10
885.1172597191728
 20
-451.6804855271115
 30
0.0
  0
SEQEND
  5
788
  8
0
  0
POLYLINE
  5
250
  8
0
 66
     1
 10
0.0
 20
0.0
 30
0.0
  0
VERTEX
  5
5CF
  8
0
 10
889.3199939671233
 20
-468.2941687837179
 30
0.0
  0
VERTEX
  5
5D0
  8
0
 10
888.9710016375385
 20
-468.678809963372
 30
0.0
  0
VERTEX
  5
5D1
  8
0
 10
888.7116769416136
 20
-469.1351358367916
 30
0.0
  0
VERTEX
  5
5D2
  8
0
 10
888.5519855820048
 20
-469.6456100565315
 30
0.0
  0
VERTEX
  5
5D3
  8
0
 10
888.4980644081198
 20
-470.1906153845597
 30
0.0
  0
VERTEX
  5
5D4
  8
0
 10
888.5519855804363
 20
-470.7492075717149
 30
0.0
  0
VERTEX
  5
5D5
  8
0
 10
888.7116769385369
 20
-471.299920233458
 30
0.0
  0
VERTEX
  5
5D6
  8
0
 10
888.9710016330719
 20
-471.821589790993
 30
0.0
  0
VERTEX
  5
5D7
  8
0
 10
889.3199939614384
 20
-472.294168775734
 30
0.0
  0
VERTEX
  5
5D8
  8
0
 10
889.7452423441439
 20
-472.6994962422814
 30
0.0
  0
VERTEX
  5
5D9
  8
0
 10
890.2304047242858
 20
-473.0219956833704
 30
0.0
  0
VERTEX
  5
5DA
  8
0
 10
890.7568365836349
 20
-473.2492736263117
 30
0.0
  0
VERTEX
  5
5DB
  8
0
 10
891.304307441017
 20
-473.372595907197
 30
0.0
  0
VERTEX
  5
5DC
  8
0
 10
891.85177829836
 20
-473.387223319921
 30
0.0
  0
VERTEX
  5
5DD
  8
0
 10
892.3782101575936
 20
-473.2925937412145
 30
0.0
  0
VERTEX
  5
5DE
  8
0
 10
892.8633725375475
 20
-473.0923437327268
 30
0.0
  0
VERTEX
  5
5DF
  8
0
 10
893.28862092
 20
-472.79416879
 30
0.0
  0
SEQEND
  5
789
  8
0
  0
POLYLINE
  5
251
  8
0
 66
     1
 10
0.0
 20
0.0
 30
0.0
  0
VERTEX
  5
5E0
  8
0
 10
893.2886209255965
 20
-472.7941687850643
 30
0.0
  0
VERTEX
  5
5E1
  8
0
 10
893.637613251481
 20
-472.4095276041589
 30
0.0
  0
VERTEX
  5
5E2
  8
0
 10
893.8969379439279
 20
-471.9532017304223
 30
0.0
  0
VERTEX
  5
5E3
  8
0
 10
894.056629300478
 20
-471.4427275112004
 30
0.0
  0
VERTEX
  5
5E4
  8
0
 10
894.1105504718802
 20
-470.8977221843806
 30
0.0
  0
VERTEX
  5
5E5
  8
0
 10
894.0566292977651
 20
-470.3391299989451
 30
0.0
  0
VERTEX
  5
5E6
  8
0
 10
893.8969379386061
 20
-469.7884173392307
 30
0.0
  0
VERTEX
  5
5E7
  8
0
 10
893.6376132437551
 20
-469.266747783821
 30
0.0
  0
VERTEX
  5
5E8
  8
0
 10
893.2886209157634
 20
-468.7941688010931
 30
0.0
  0
VERTEX
  5
5E9
  8
0
 10
892.863372534024
 20
-468.388841336254
 30
0.0
  0
VERTEX
  5
5EA
  8
0
 10
892.3782101552989
 20
-468.0663418964039
 30
0.0
  0
VERTEX
  5
5EB
  8
0
 10
891.8517782976443
 20
-467.839063954106
 30
0.0
  0
VERTEX
  5
5EC
  8
0
 10
891.3043074420411
 20
-467.7157416731883
 30
0.0
  0
VERTEX
  5
5ED
  8
0
 10
890.7568365863596
 20
-467.7011142597275
 30
0.0
  0
VERTEX
  5
5EE
  8
0
 10
890.2304047284726
 20
-467.7957438370171
 30
0.0
  0
VERTEX
  5
5EF
  8
0
 10
889.7452423493703
 20
-467.9959938434859
 30
0.0
  0
VERTEX
  5
5F0
  8
0
 10
889.3199939671233
 20
-468.2941687837179
 30
0.0
  0
SEQEND
  5
78A
  8
0
  0
POLYLINE
  5
252
  8
0
 66
     1
 10
0.0
 20
0.0
 30
0.0
  0
VERTEX
  5
5F1
  8
0
 10
889.6029557224737
 20
-468.0804951888053
 30
0.0
  0
VERTEX
  5
5F2
  8
0
 10
889.3198446905951
 20
-468.5044649149893
 30
0.0
  0
VERTEX
  5
5F3
  8
0
 10
889.1287409810734
 20
-468.9859484070768
 30
0.0
  0
VERTEX
  5
5F4
  8
0
 10
889.0366363986922
 20
-469.5073298972114
 30
0.0
  0
VERTEX
  5
5F5
  8
0
 10
889.0469007224127
 20
-470.0495338917453
 30
0.0
  0
VERTEX
  5
5F6
  8
0
 10
889.1591584171506
 20
-470.5927230756812
 30
0.0
  0
VERTEX
  5
5F7
  8
0
 10
889.3693023732682
 20
-471.1170240894472
 30
0.0
  0
VERTEX
  5
5F8
  8
0
 10
889.669644171104
 20
-471.6032546244132
 30
0.0
  0
VERTEX
  5
5F9
  8
0
 10
890.0491953728916
 20
-472.0336252353139
 30
0.0
  0
VERTEX
  5
5FA
  8
0
 10
890.4940695506016
 20
-472.3923901927561
 30
0.0
  0
VERTEX
  5
5FB
  8
0
 10
890.9879903409345
 20
-472.666423563433
 30
0.0
  0
VERTEX
  5
5FC
  8
0
 10
891.5128869395434
 20
-472.8456994413229
 30
0.0
  0
VERTEX
  5
5FD
  8
0
 10
892.0495552474678
 20
-472.9236587599177
 30
0.0
  0
VERTEX
  5
5FE
  8
0
 10
892.5783604807876
 20
-472.8974492651294
 30
0.0
  0
VERTEX
  5
5FF
  8
0
 10
893.0799555375057
 20
-472.7680298691188
 30
0.0
  0
VERTEX
  5
600
  8
0
 10
893.5359888391728
 20
-472.5401355671115
 30
0.0
  0
SEQEND
  5
78B
  8
0
  0
POLYLINE
  5
253
  8
0
 66
     1
 10
0.0
 20
0.0
 30
0.0
  0
VERTEX
  5
601
  8
0
 10
880.9012648471233
 20
-494.5749708137178
 30
0.0
  0
VERTEX
  5
602
  8
0
 10
880.5522725172638
 20
-494.959611993752
 30
0.0
  0
VERTEX
  5
603
  8
0
 10
880.2929478212351
 20
-495.4159378676651
 30
0.0
  0
VERTEX
  5
604
  8
0
 10
880.1332564617154
 20
-495.926412087962
 30
0.0
  0
VERTEX
  5
605
  8
0
 10
880.0793352881198
 20
-496.471417416554
 30
0.0
  0
VERTEX
  5
606
  8
0
 10
880.1332564609189
 20
-497.0300096042207
 30
0.0
  0
VERTEX
  5
607
  8
0
 10
880.2929478196729
 20
-497.5807222663648
 30
0.0
  0
VERTEX
  5
608
  8
0
 10
880.5522725149958
 20
-498.1023918241372
 30
0.0
  0
VERTEX
  5
609
  8
0
 10
880.9012648442367
 20
-498.5749708089069
 30
0.0
  0
VERTEX
  5
60A
  8
0
 10
881.3265132278457
 20
-498.9802982752407
 30
0.0
  0
VERTEX
  5
60B
  8
0
 10
881.811675608856
 20
-499.3027977158542
 30
0.0
  0
VERTEX
  5
60C
  8
0
 10
882.3381074689719
 20
-499.530075658054
 30
0.0
  0
VERTEX
  5
60D
  8
0
 10
882.8855783269532
 20
-499.6533979379448
 30
0.0
  0
VERTEX
  5
60E
  8
0
 10
883.4330491846673
 20
-499.6680253494511
 30
0.0
  0
VERTEX
  5
60F
  8
0
 10
883.9594810439918
 20
-499.5733957693494
 30
0.0
  0
VERTEX
  5
610
  8
0
 10
884.4446434237171
 20
-499.3731457593491
 30
0.0
  0
VERTEX
  5
611
  8
0
 10
884.8698918055966
 20
-499.0749708150643
 30
0.0
  0
SEQEND
  5
78C
  8
0
  0
POLYLINE
  5
254
  8
0
 66
     1
 10
0.0
 20
0.0
 30
0.0
  0
VERTEX
  5
612
  8
0
 10
884.8698918
 20
-499.07497082
 30
0.0
  0
VERTEX
  5
613
  8
0
 10
885.2188841273587
 20
-498.6903296398579
 30
0.0
  0
VERTEX
  5
614
  8
0
 10
885.4782088212777
 20
-498.2340037665372
 30
0.0
  0
VERTEX
  5
615
  8
0
 10
885.6379001792235
 20
-497.7235295473993
 30
0.0
  0
VERTEX
  5
616
  8
0
 10
885.6918213518802
 20
-497.1785242203636
 30
0.0
  0
VERTEX
  5
617
  8
0
 10
885.6379001788266
 20
-496.6199320344578
 30
0.0
  0
VERTEX
  5
618
  8
0
 10
885.4782088204993
 20
-496.0692193740755
 30
0.0
  0
VERTEX
  5
619
  8
0
 10
885.2188841262285
 20
-495.5475498178636
 30
0.0
  0
VERTEX
  5
61A
  8
0
 10
884.8698917985616
 20
-495.074970834266
 30
0.0
  0
VERTEX
  5
61B
  8
0
 10
884.4446434169032
 20
-494.6696433685557
 30
0.0
  0
VERTEX
  5
61C
  8
0
 10
883.9594810380411
 20
-494.3471439278941
 30
0.0
  0
VERTEX
  5
61D
  8
0
 10
883.4330491800702
 20
-494.1198659848979
 30
0.0
  0
VERTEX
  5
61E
  8
0
 10
882.8855783240199
 20
-493.9965437034376
 30
0.0
  0
VERTEX
  5
61F
  8
0
 10
882.3381074678151
 20
-493.981916289619
 30
0.0
  0
VERTEX
  5
620
  8
0
 10
881.8116756093867
 20
-494.0765458667507
 30
0.0
  0
VERTEX
  5
621
  8
0
 10
881.3265132297817
 20
-494.2767958732607
 30
0.0
  0
VERTEX
  5
622
  8
0
 10
880.9012648471233
 20
-494.5749708137178
 30
0.0
  0
SEQEND
  5
78D
  8
0
  0
POLYLINE
  5
255
  8
0
 66
     1
 10
0.0
 20
0.0
 30
0.0
  0
VERTEX
  5
623
  8
0
 10
881.1842266024737
 20
-494.3612972288053
 30
0.0
  0
VERTEX
  5
624
  8
0
 10
880.9011155705952
 20
-494.7852669549893
 30
0.0
  0
VERTEX
  5
625
  8
0
 10
880.7100118610734
 20
-495.2667504470767
 30
0.0
  0
VERTEX
  5
626
  8
0
 10
880.6179072786922
 20
-495.7881319372113
 30
0.0
  0
VERTEX
  5
627
  8
0
 10
880.6281716024127
 20
-496.3303359317453
 30
0.0
  0
VERTEX
  5
628
  8
0
 10
880.7404292971506
 20
-496.8735251156812
 30
0.0
  0
VERTEX
  5
629
  8
0
 10
880.9505732532682
 20
-497.3978261294471
 30
0.0
  0
VERTEX
  5
62A
  8
0
 10
881.250915051104
 20
-497.8840566644132
 30
0.0
  0
VERTEX
  5
62B
  8
0
 10
881.6304662528917
 20
-498.3144272753139
 30
0.0
  0
VERTEX
  5
62C
  8
0
 10
882.0753404306016
 20
-498.673192232756
 30
0.0
  0
VERTEX
  5
62D
  8
0
 10
882.5692612209345
 20
-498.947225603433
 30
0.0
  0
VERTEX
  5
62E
  8
0
 10
883.0941578195434
 20
-499.1265014813229
 30
0.0
  0
VERTEX
  5
62F
  8
0
 10
883.6308261274678
 20
-499.2044607999177
 30
0.0
  0
VERTEX
  5
630
  8
0
 10
884.1596313607877
 20
-499.1782513051293
 30
0.0
  0
VERTEX
  5
631
  8
0
 10
884.6612264175058
 20
-499.0488319091187
 30
0.0
  0
VERTEX
  5
632
  8
0
 10
885.1172597191728
 20
-498.8209376071115
 30
0.0
  0
SEQEND
  5
78E
  8
0
  0
POLYLINE
  5
256
  8
0
 66
     1
 10
0.0
 20
0.0
 30
0.0
  0
VERTEX
  5
633
  8
0
 10
889.3199939671233
 20
-515.4346208637179
 30
0.0
  0
VERTEX
  5
634
  8
0
 10
888.9710016375385
 20
-515.8192620433721
 30
0.0
  0
VERTEX
  5
635
  8
0
 10
888.7116769416136
 20
-516.2755879167917
 30
0.0
  0
VERTEX
  5
636
  8
0
 10
888.5519855820048
 20
-516.7860621365315
 30
0.0
  0
VERTEX
  5
637
  8
0
 10
888.4980644081198
 20
-517.3310674645596
 30
0.0
  0
VERTEX
  5
638
  8
0
 10
888.5519855804363
 20
-517.8896596517149
 30
0.0
  0
VERTEX
  5
639
  8
0
 10
888.7116769385369
 20
-518.4403723134578
 30
0.0
  0
VERTEX
  5
63A
  8
0
 10
888.9710016330719
 20
-518.962041870993
 30
0.0
  0
VERTEX
  5
63B
  8
0
 10
889.3199939614384
 20
-519.434620855734
 30
0.0
  0
VERTEX
  5
63C
  8
0
 10
889.7452423441439
 20
-519.8399483222814
 30
0.0
  0
VERTEX
  5
63D
  8
0
 10
890.2304047242858
 20
-520.1624477633704
 30
0.0
  0
VERTEX
  5
63E
  8
0
 10
890.7568365836349
 20
-520.3897257063118
 30
0.0
  0
VERTEX
  5
63F
  8
0
 10
891.304307441017
 20
-520.513047987197
 30
0.0
  0
VERTEX
  5
640
  8
0
 10
891.85177829836
 20
-520.5276753999209
 30
0.0
  0
VERTEX
  5
641
  8
0
 10
892.3782101575936
 20
-520.4330458212146
 30
0.0
  0
VERTEX
  5
642
  8
0
 10
892.8633725375475
 20
-520.2327958127269
 30
0.0
  0
VERTEX
  5
643
  8
0
 10
893.28862092
 20
-519.93462087
 30
0.0
  0
SEQEND
  5
78F
  8
0
  0
POLYLINE
  5
257
  8
0
 66
     1
 10
0.0
 20
0.0
 30
0.0
  0
VERTEX
  5
644
  8
0
 10
893.2886209255965
 20
-519.9346208650643
 30
0.0
  0
VERTEX
  5
645
  8
0
 10
893.637613251481
 20
-519.5499796841589
 30
0.0
  0
VERTEX
  5
646
  8
0
 10
893.8969379439279
 20
-519.0936538104223
 30
0.0
  0
VERTEX
  5
647
  8
0
 10
894.056629300478
 20
-518.5831795912003
 30
0.0
  0
VERTEX
  5
648
  8
0
 10
894.1105504718802
 20
-518.0381742643806
 30
0.0
  0
VERTEX
  5
649
  8
0
 10
894.0566292977651
 20
-517.4795820789451
 30
0.0
  0
VERTEX
  5
64A
  8
0
 10
893.8969379386061
 20
-516.9288694192308
 30
0.0
  0
VERTEX
  5
64B
  8
0
 10
893.6376132437551
 20
-516.407199863821
 30
0.0
  0
VERTEX
  5
64C
  8
0
 10
893.2886209157634
 20
-515.9346208810931
 30
0.0
  0
VERTEX
  5
64D
  8
0
 10
892.863372534024
 20
-515.529293416254
 30
0.0
  0
VERTEX
  5
64E
  8
0
 10
892.3782101552989
 20
-515.2067939764038
 30
0.0
  0
VERTEX
  5
64F
  8
0
 10
891.8517782976443
 20
-514.9795160341059
 30
0.0
  0
VERTEX
  5
650
  8
0
 10
891.3043074420411
 20
-514.8561937531883
 30
0.0
  0
VERTEX
  5
651
  8
0
 10
890.7568365863596
 20
-514.8415663397275
 30
0.0
  0
VERTEX
  5
652
  8
0
 10
890.2304047284726
 20
-514.9361959170171
 30
0.0
  0
VERTEX
  5
653
  8
0
 10
889.7452423493703
 20
-515.1364459234859
 30
0.0
  0
VERTEX
  5
654
  8
0
 10
889.3199939671233
 20
-515.4346208637179
 30
0.0
  0
SEQEND
  5
790
  8
0
  0
POLYLINE
  5
258
  8
0
 66
     1
 10
0.0
 20
0.0
 30
0.0
  0
VERTEX
  5
655
  8
0
 10
889.6029557224737
 20
-515.2209472688053
 30
0.0
  0
VERTEX
  5
656
  8
0
 10
889.3198446905951
 20
-515.6449169949892
 30
0.0
  0
VERTEX
  5
657
  8
0
 10
889.1287409810734
 20
-516.1264004870768
 30
0.0
  0
VERTEX
  5
658
  8
0
 10
889.0366363986922
 20
-516.6477819772114
 30
0.0
  0
VERTEX
  5
659
  8
0
 10
889.0469007224127
 20
-517.1899859717452
 30
0.0
  0
VERTEX
  5
65A
  8
0
 10
889.1591584171506
 20
-517.7331751556812
 30
0.0
  0
VERTEX
  5
65B
  8
0
 10
889.3693023732682
 20
-518.257476169447
 30
0.0
  0
VERTEX
  5
65C
  8
0
 10
889.669644171104
 20
-518.7437067044131
 30
0.0
  0
VERTEX
  5
65D
  8
0
 10
890.0491953728916
 20
-519.1740773153139
 30
0.0
  0
VERTEX
  5
65E
  8
0
 10
890.4940695506016
 20
-519.532842272756
 30
0.0
  0
VERTEX
  5
65F
  8
0
 10
890.9879903409345
 20
-519.8068756434329
 30
0.0
  0
VERTEX
  5
660
  8
0
 10
891.5128869395434
 20
-519.9861515213228
 30
0.0
  0
VERTEX
  5
661
  8
0
 10
892.0495552474678
 20
-520.0641108399176
 30
0.0
  0
VERTEX
  5
662
  8
0
 10
892.5783604807876
 20
-520.0379013451293
 30
0.0
  0
VERTEX
  5
663
  8
0
 10
893.0799555375057
 20
-519.9084819491186
 30
0.0
  0
VERTEX
  5
664
  8
0
 10
893.5359888391728
 20
-519.6805876471115
 30
0.0
  0
SEQEND
  5
791
  8
0
  0
POLYLINE
  5
259
  8
0
 66
     1
 10
0.0
 20
0.0
 30
0.0
  0
VERTEX
  5
665
  8
0
 10
885.1777762400001
 20
-452.99632352
 30
0.0
  0
VERTEX
  5
666
  8
0
 10
885.6430993437303
 20
-452.4834686116723
 30
0.0
  0
VERTEX
  5
667
  8
0
 10
885.9888656023447
 20
-451.8750341121931
 30
0.0
  0
VERTEX
  5
668
  8
0
 10
886.2017874124207
 20
-451.1944018181844
 30
0.0
  0
VERTEX
  5
669
  8
0
 10
886.2736823081974
 20
-450.4677280470253
 30
0.0
  0
VERTEX
  5
66A
  8
0
 10
886.2017874091468
 20
-449.7229384642432
 30
0.0
  0
VERTEX
  5
66B
  8
0
 10
885.9888655959231
 20
-448.988654915847
 30
0.0
  0
VERTEX
  5
66C
  8
0
 10
885.6430993344078
 20
-448.293095506836
 30
0.0
  0
VERTEX
  5
66D
  8
0
 10
885.1777762281346
 20
-447.6629901952483
 30
0.0
  0
VERTEX
  5
66E
  8
0
 10
884.6107783831374
 20
-447.1225535748625
 30
0.0
  0
VERTEX
  5
66F
  8
0
 10
883.9638952086431
 20
-446.6925543219385
 30
0.0
  0
VERTEX
  5
670
  8
0
 10
883.2619860622934
 20
-446.3895170666345
 30
0.0
  0
VERTEX
  5
671
  8
0
 10
882.5320249189716
 20
-446.225087360737
 30
0.0
  0
VERTEX
  5
672
  8
0
 10
881.8020637760735
 20
-446.2055841456361
 30
0.0
  0
VERTEX
  5
673
  8
0
 10
881.1001546309791
 20
-446.3317569189512
 30
0.0
  0
VERTEX
  5
674
  8
0
 10
880.453271458523
 20
-446.598756931758
 30
0.0
  0
VERTEX
  5
675
  8
0
 10
879.8862736162689
 20
-446.9963235232905
 30
0.0
  0
VERTEX
  5
676
  8
0
 10
879.4209505133382
 20
-447.5091784323803
 30
0.0
  0
VERTEX
  5
677
  8
0
 10
879.075184255636
 20
-448.1176129324658
 30
0.0
  0
VERTEX
  5
678
  8
0
 10
878.8622624465501
 20
-448.7982452269019
 30
0.0
  0
VERTEX
  5
679
  8
0
 10
878.7903675518028
 20
-449.5249189982928
 30
0.0
  0
VERTEX
  5
67A
  8
0
 10
878.8622624518825
 20
-450.2697085811025
 30
0.0
  0
VERTEX
  5
67B
  8
0
 10
879.075184266096
 20
-451.0039921293207
 30
0.0
  0
VERTEX
  5
67C
  8
0
 10
879.4209505285239
 20
-451.6995515379552
 30
0.0
  0
VERTEX
  5
67D
  8
0
 10
879.8862736355966
 20
-452.3296568489823
 30
0.0
  0
VERTEX
  5
67E
  8
0
 10
880.4532714812499
 20
-452.8700934686448
 30
0.0
  0
VERTEX
  5
67F
  8
0
 10
881.1001546562318
 20
-453.3000927207108
 30
0.0
  0
VERTEX
  5
680
  8
0
 10
881.8020638028818
 20
-453.603129975055
 30
0.0
  0
VERTEX
  5
681
  8
0
 10
882.532024946305
 20
-453.7675596799277
 30
0.0
  0
VERTEX
  5
682
  8
0
 10
883.2619860891017
 20
-453.7870628939784
 30
0.0
  0
VERTEX
  5
683
  8
0
 10
883.9638952338959
 20
-453.6608901196278
 30
0.0
  0
VERTEX
  5
684
  8
0
 10
884.6107784058644
 20
-453.3938901058401
 30
0.0
  0
VERTEX
  5
685
  8
0
 10
885.1777762474621
 20
-452.996323513419
 30
0.0
  0
SEQEND
  5
792
  8
0
  0
POLYLINE
  5
25A
  8
0
 66
     1
 10
0.0
 20
0.0
 30
0.0
  0
VERTEX
  5
686
  8
0
 10
893.59650536
 20
-473.85597357
 30
0.0
  0
VERTEX
  5
687
  8
0
 10
894.0618284637303
 20
-473.3431186616723
 30
0.0
  0
VERTEX
  5
688
  8
0
 10
894.4075947223447
 20
-472.7346841621932
 30
0.0
  0
VERTEX
  5
689
  8
0
 10
894.6205165324207
 20
-472.0540518681844
 30
0.0
  0
VERTEX
  5
68A
  8
0
 10
894.6924114281974
 20
-471.3273780970254
 30
0.0
  0
VERTEX
  5
68B
  8
0
 10
894.6205165291468
 20
-470.5825885142432
 30
0.0
  0
VERTEX
  5
68C
  8
0
 10
894.4075947159231
 20
-469.848304965847
 30
0.0
  0
VERTEX
  5
68D
  8
0
 10
894.0618284544078
 20
-469.1527455568361
 30
0.0
  0
VERTEX
  5
68E
  8
0
 10
893.5965053481345
 20
-468.5226402452483
 30
0.0
  0
VERTEX
  5
68F
  8
0
 10
893.0295075031373
 20
-467.9822036248626
 30
0.0
  0
VERTEX
  5
690
  8
0
 10
892.382624328643
 20
-467.5522043719386
 30
0.0
  0
VERTEX
  5
691
  8
0
 10
891.6807151822934
 20
-467.2491671166345
 30
0.0
  0
VERTEX
  5
692
  8
0
 10
890.9507540389716
 20
-467.084737410737
 30
0.0
  0
VERTEX
  5
693
  8
0
 10
890.2207928960735
 20
-467.0652341956361
 30
0.0
  0
VERTEX
  5
694
  8
0
 10
889.5188837509791
 20
-467.1914069689512
 30
0.0
  0
VERTEX
  5
695
  8
0
 10
888.872000578523
 20
-467.458406981758
 30
0.0
  0
VERTEX
  5
696
  8
0
 10
888.3050027362689
 20
-467.8559735732905
 30
0.0
  0
VERTEX
  5
697
  8
0
 10
887.8396796333382
 20
-468.3688284823803
 30
0.0
  0
VERTEX
  5
698
  8
0
 10
887.493913375636
 20
-468.9772629824658
 30
0.0
  0
VERTEX
  5
699
  8
0
 10
887.28099156655
 20
-469.6578952769019
 30
0.0
  0
VERTEX
  5
69A
  8
0
 10
887.2090966718027
 20
-470.3845690482929
 30
0.0
  0
VERTEX
  5
69B
  8
0
 10
887.2809915718825
 20
-471.1293586311025
 30
0.0
  0
VERTEX
  5
69C
  8
0
 10
887.493913386096
 20
-471.8636421793208
 30
0.0
  0
VERTEX
  5
69D
  8
0
 10
887.8396796485239
 20
-472.5592015879552
 30
0.0
  0
VERTEX
  5
69E
  8
0
 10
888.3050027555965
 20
-473.1893068989824
 30
0.0
  0
VERTEX
  5
69F
  8
0
 10
888.8720006012499
 20
-473.7297435186448
 30
0.0
  0
VERTEX
  5
6A0
  8
0
 10
889.5188837762317
 20
-474.1597427707108
 30
0.0
  0
VERTEX
  5
6A1
  8
0
 10
890.2207929228817
 20
-474.462780025055
 30
0.0
  0
VERTEX
  5
6A2
  8
0
 10
890.950754066305
 20
-474.6272097299278
 30
0.0
  0
VERTEX
  5
6A3
  8
0
 10
891.6807152091017
 20
-474.6467129439784
 30
0.0
  0
VERTEX
  5
6A4
  8
0
 10
892.3826243538958
 20
-474.5205401696278
 30
0.0
  0
VERTEX
  5
6A5
  8
0
 10
893.0295075258643
 20
-474.2535401558401
 30
0.0
  0
VERTEX
  5
6A6
  8
0
 10
893.5965053674621
 20
-473.855973563419
 30
0.0
  0
SEQEND
  5
793
  8
0
  0
POLYLINE
  5
25B
  8
0
 66
     1
 10
0.0
 20
0.0
 30
0.0
  0
VERTEX
  5
6A7
  8
0
 10
885.1777762400001
 20
-500.1367756
 30
0.0
  0
VERTEX
  5
6A8
  8
0
 10
885.6430993437303
 20
-499.6239206916724
 30
0.0
  0
VERTEX
  5
6A9
  8
0
 10
885.9888656023447
 20
-499.0154861921932
 30
0.0
  0
VERTEX
  5
6AA
  8
0
 10
886.2017874124207
 20
-498.3348538981845
 30
0.0
  0
VERTEX
  5
6AB
  8
0
 10
886.2736823081974
 20
-497.6081801270254
 30
0.0
  0
VERTEX
  5
6AC
  8
0
 10
886.2017874091468
 20
-496.8633905442432
 30
0.0
  0
VERTEX
  5
6AD
  8
0
 10
885.9888655959231
 20
-496.1291069958471
 30
0.0
  0
VERTEX
  5
6AE
  8
0
 10
885.6430993344078
 20
-495.4335475868361
 30
0.0
  0
VERTEX
  5
6AF
  8
0
 10
885.1777762281346
 20
-494.8034422752483
 30
0.0
  0
VERTEX
  5
6B0
  8
0
 10
884.6107783831374
 20
-494.2630056548626
 30
0.0
  0
VERTEX
  5
6B1
  8
0
 10
883.9638952086431
 20
-493.8330064019386
 30
0.0
  0
VERTEX
  5
6B2
  8
0
 10
883.2619860622934
 20
-493.5299691466345
 30
0.0
  0
VERTEX
  5
6B3
  8
0
 10
882.5320249189716
 20
-493.3655394407371
 30
0.0
  0
VERTEX
  5
6B4
  8
0
 10
881.8020637760735
 20
-493.3460362256361
 30
0.0
  0
VERTEX
  5
6B5
  8
0
 10
881.1001546309791
 20
-493.4722089989513
 30
0.0
  0
VERTEX
  5
6B6
  8
0
 10
880.453271458523
 20
-493.739209011758
 30
0.0
  0
VERTEX
  5
6B7
  8
0
 10
879.8862736162689
 20
-494.1367756032905
 30
0.0
  0
VERTEX
  5
6B8
  8
0
 10
879.4209505133382
 20
-494.6496305123803
 30
0.0
  0
VERTEX
  5
6B9
  8
0
 10
879.075184255636
 20
-495.2580650124659
 30
0.0
  0
VERTEX
  5
6BA
  8
0
 10
878.8622624465501
 20
-495.9386973069019
 30
0.0
  0
VERTEX
  5
6BB
  8
0
 10
878.7903675518028
 20
-496.6653710782929
 30
0.0
  0
VERTEX
  5
6BC
  8
0
 10
878.8622624518825
 20
-497.4101606611026
 30
0.0
  0
VERTEX
  5
6BD
  8
0
 10
879.075184266096
 20
-498.1444442093208
 30
0.0
  0
VERTEX
  5
6BE
  8
0
 10
879.4209505285239
 20
-498.8400036179552
 30
0.0
  0
VERTEX
  5
6BF
  8
0
 10
879.8862736355966
 20
-499.4701089289824
 30
0.0
  0
VERTEX
  5
6C0
  8
0
 10
880.4532714812499
 20
-500.0105455486448
 30
0.0
  0
VERTEX
  5
6C1
  8
0
 10
881.1001546562318
 20
-500.4405448007108
 30
0.0
  0
VERTEX
  5
6C2
  8
0
 10
881.8020638028818
 20
-500.743582055055
 30
0.0
  0
VERTEX
  5
6C3
  8
0
 10
882.532024946305
 20
-500.9080117599278
 30
0.0
  0
VERTEX
  5
6C4
  8
0
 10
883.2619860891017
 20
-500.9275149739784
 30
0.0
  0
VERTEX
  5
6C5
  8
0
 10
883.9638952338959
 20
-500.8013421996278
 30
0.0
  0
VERTEX
  5
6C6
  8
0
 10
884.6107784058644
 20
-500.5343421858401
 30
0.0
  0
VERTEX
  5
6C7
  8
0
 10
885.1777762474621
 20
-500.136775593419
 30
0.0
  0
SEQEND
  5
794
  8
0
  0
POLYLINE
  5
25C
  8
0
 66
     1
 10
0.0
 20
0.0
 30
0.0
  0
VERTEX
  5
6C8
  8
0
 10
893.59650536
 20
-520.99642565
 30
0.0
  0
VERTEX
  5
6C9
  8
0
 10
894.0618284637303
 20
-520.4835707416723
 30
0.0
  0
VERTEX
  5
6CA
  8
0
 10
894.4075947223447
 20
-519.8751362421932
 30
0.0
  0
VERTEX
  5
6CB
  8
0
 10
894.6205165324207
 20
-519.1945039481844
 30
0.0
  0
VERTEX
  5
6CC
  8
0
 10
894.6924114281974
 20
-518.4678301770252
 30
0.0
  0
VERTEX
  5
6CD
  8
0
 10
894.6205165291468
 20
-517.7230405942431
 30
0.0
  0
VERTEX
  5
6CE
  8
0
 10
894.4075947159231
 20
-516.988757045847
 30
0.0
  0
VERTEX
  5
6CF
  8
0
 10
894.0618284544078
 20
-516.293197636836
 30
0.0
  0
VERTEX
  5
6D0
  8
0
 10
893.5965053481345
 20
-515.6630923252484
 30
0.0
  0
VERTEX
  5
6D1
  8
0
 10
893.0295075031373
 20
-515.1226557048626
 30
0.0
  0
VERTEX
  5
6D2
  8
0
 10
892.382624328643
 20
-514.6926564519385
 30
0.0
  0
VERTEX
  5
6D3
  8
0
 10
891.6807151822934
 20
-514.3896191966345
 30
0.0
  0
VERTEX
  5
6D4
  8
0
 10
890.9507540389716
 20
-514.2251894907371
 30
0.0
  0
VERTEX
  5
6D5
  8
0
 10
890.2207928960735
 20
-514.2056862756361
 30
0.0
  0
VERTEX
  5
6D6
  8
0
 10
889.5188837509791
 20
-514.3318590489512
 30
0.0
  0
VERTEX
  5
6D7
  8
0
 10
888.872000578523
 20
-514.5988590617579
 30
0.0
  0
VERTEX
  5
6D8
  8
0
 10
888.3050027362689
 20
-514.9964256532904
 30
0.0
  0
VERTEX
  5
6D9
  8
0
 10
887.8396796333382
 20
-515.5092805623802
 30
0.0
  0
VERTEX
  5
6DA
  8
0
 10
887.493913375636
 20
-516.1177150624659
 30
0.0
  0
VERTEX
  5
6DB
  8
0
 10
887.28099156655
 20
-516.7983473569019
 30
0.0
  0
VERTEX
  5
6DC
  8
0
 10
887.2090966718027
 20
-517.5250211282929
 30
0.0
  0
VERTEX
  5
6DD
  8
0
 10
887.2809915718825
 20
-518.2698107111025
 30
0.0
  0
VERTEX
  5
6DE
  8
0
 10
887.493913386096
 20
-519.0040942593207
 30
0.0
  0
VERTEX
  5
6DF
  8
0
 10
887.8396796485239
 20
-519.6996536679552
 30
0.0
  0
VERTEX
  5
6E0
  8
0
 10
888.3050027555965
 20
-520.3297589789822
 30
0.0
  0
VERTEX
  5
6E1
  8
0
 10
888.8720006012499
 20
-520.8701955986448
 30
0.0
  0
VERTEX
  5
6E2
  8
0
 10
889.5188837762317
 20
-521.3001948507108
 30
0.0
  0
VERTEX
  5
6E3
  8
0
 10
890.2207929228817
 20
-521.603232105055
 30
0.0
  0
VERTEX
  5
6E4
  8
0
 10
890.950754066305
 20
-521.7676618099276
 30
0.0
  0
VERTEX
  5
6E5
  8
0
 10
891.6807152091017
 20
-521.7871650239784
 30
0.0
  0
VERTEX
  5
6E6
  8
0
 10
892.3826243538958
 20
-521.6609922496277
 30
0.0
  0
VERTEX
  5
6E7
  8
0
 10
893.0295075258643
 20
-521.3939922358402
 30
0.0
  0
VERTEX
  5
6E8
  8
0
 10
893.5965053674621
 20
-520.996425643419
 30
0.0
  0
SEQEND
  5
795
  8
0
  0
POLYLINE
  5
25D
  8
0
 66
     1
 10
0.0
 20
0.0
 30
0.0
  0
VERTEX
  5
6E9
  8
0
 10
900.2533666290288
 20
-452.2809409998006
 30
0.0
  0
VERTEX
  5
6EA
  8
0
 10
900.0736293869182
 20
-450.4189670395181
 30
0.0
  0
VERTEX
  5
6EB
  8
0
 10
899.5413248579079
 20
-448.5832581641731
 30
0.0
  0
VERTEX
  5
6EC
  8
0
 10
898.676909206611
 20
-446.8443596366544
 30
0.0
  0
VERTEX
  5
6ED
  8
0
 10
897.5136014418721
 20
-445.2690963524611
 30
0.0
  0
VERTEX
  5
6EE
  8
0
 10
896.0961068288817
 20
-443.9180047964331
 30
0.0
  0
VERTEX
  5
6EF
  8
0
 10
894.4788988908983
 20
-442.8430066595789
 30
0.0
  0
VERTEX
  5
6F0
  8
0
 10
892.7241260222908
 20
-442.0854135175999
 30
0.0
  0
VERTEX
  5
6F1
  8
0
 10
890.8992231605861
 20
-441.6743392501976
 30
0.0
  0
SEQEND
  5
796
  8
0
  0
POLYLINE
  5
25E
  8
0
 66
     1
 10
0.0
 20
0.0
 30
0.0
  0
VERTEX
  5
6F2
  8
0
 10
899.3694831490288
 20
-453.0604529598007
 30
0.0
  0
VERTEX
  5
6F3
  8
0
 10
899.1897459069182
 20
-451.1984789995182
 30
0.0
  0
VERTEX
  5
6F4
  8
0
 10
898.6574413779078
 20
-449.3627701241731
 30
0.0
  0
VERTEX
  5
6F5
  8
0
 10
897.793025726611
 20
-447.6238715966544
 30
0.0
  0
VERTEX
  5
6F6
  8
0
 10
896.6297179618721
 20
-446.0486083124611
 30
0.0
  0
VERTEX
  5
6F7
  8
0
 10
895.2122233488817
 20
-444.6975167564331
 30
0.0
  0
VERTEX
  5
6F8
  8
0
 10
893.5950154108983
 20
-443.622518619579
 30
0.0
  0
VERTEX
  5
6F9
  8
0
 10
891.8402425422908
 20
-442.8649254775999
 30
0.0
  0
VERTEX
  5
6FA
  8
0
 10
890.0153396805861
 20
-442.4538512101977
 30
0.0
  0
SEQEND
  5
797
  8
0
  0
LINE
  5
25F
  8
0
 10
900.25336665
 20
-517.33476482
 30
0.0
 11
900.25336665
 21
-452.28094095
 31
0.0
  0
POLYLINE
  5
260
  8
0
 66
     1
 10
0.0
 20
0.0
 30
0.0
  0
VERTEX
  5
6FB
  8
0
 10
897.51360146
 20
-523.65625352
 30
0.0
  0
VERTEX
  5
6FC
  8
0
 10
898.6769092143578
 20
-522.3741162550558
 30
0.0
  0
VERTEX
  5
6FD
  8
0
 10
899.5413248587694
 20
-520.8530300142818
 30
0.0
  0
VERTEX
  5
6FE
  8
0
 10
900.0736293850764
 20
-519.1514492883716
 30
0.0
  0
VERTEX
  5
6FF
  8
0
 10
900.2533666290288
 20
-517.3347648698006
 30
0.0
  0
SEQEND
  5
798
  8
0
  0
POLYLINE
  5
261
  8
0
 66
     1
 10
0.0
 20
0.0
 30
0.0
  0
VERTEX
  5
262
  8
0
 10
897.51360146
 20
-523.65625352
 30
0.0
  0
VERTEX
  5
263
  8
0
 10
896.62971798
 20
-524.43576548
 30
0.0
  0
SEQEND
  5
264
  8
0
  0
POLYLINE
  5
265
  8
0
 66
     1
 10
0.0
 20
0.0
 30
0.0
  0
VERTEX
  5
700
  8
0
 10
890.0153396858345
 20
-526.3638558755717
 30
0.0
  0
VERTEX
  5
701
  8
0
 10
891.8402425589064
 20
-526.4126139205995
 30
0.0
  0
VERTEX
  5
702
  8
0
 10
893.5950154373526
 20
-526.0971819886294
 30
0.0
  0
VERTEX
  5
703
  8
0
 10
895.212223382412
 20
-525.4296819521137
 30
0.0
  0
VERTEX
  5
704
  8
0
 10
896.6297179986553
 20
-524.4357654635476
 30
0.0
  0
SEQEND
  5
799
  8
0
  0
LINE
  5
266
  8
0
 10
865.03148499
 20
-523.21618606
 30
0.0
 11
890.0153397
 21
-526.36385589
 31
0.0
  0
POLYLINE
  5
267
  8
0
 66
     1
 10
0.0
 20
0.0
 30
0.0
  0
VERTEX
  5
705
  8
0
 10
864.7114278532529
 20
-523.150743445054
 30
0.0
  0
VERTEX
  5
706
  8
0
 10
864.8621592521913
 20
-523.1885168898709
 30
0.0
  0
VERTEX
  5
707
  8
0
 10
865.0314849927013
 20
-523.2161860595282
 30
0.0
  0
SEQEND
  5
79A
  8
0
  0
LINE
  5
268
  8
0
 10
864.7114278532529
 20
-510.0456977650539
 30
0.0
 11
864.7744676611082
 21
-510.0633228439443
 31
0.0
  0
LINE
  5
269
  8
0
 10
864.77446767
 20
-489.51008575
 30
0.0
 11
864.77446767
 21
-510.06332285
 31
0.0
  0
LINE
  5
26A
  8
0
 10
864.7114278532529
 20
-489.492460665054
 30
0.0
 11
864.7744676611082
 21
-489.5100857439443
 31
0.0
  0
LINE
  5
26B
  8
0
 10
864.7114278532529
 20
-472.8990215350539
 30
0.0
 11
864.7744676611082
 21
-472.9166466139443
 31
0.0
  0
LINE
  5
26C
  8
0
 10
864.77446767
 20
-452.36340951
 30
0.0
 11
864.77446767
 21
-472.91664661
 31
0.0
  0
LINE
  5
26D
  8
0
 10
864.7114278532529
 20
-452.3457844250539
 30
0.0
 11
864.7744676611082
 21
-452.3634095039443
 31
0.0
  0
LINE
  5
26E
  8
0
 10
863.35906912
 20
-451.93493352
 30
0.0
 11
864.71142785
 21
-452.34578443
 31
0.0
  0
POLYLINE
  5
26F
  8
0
 66
     1
 10
0.0
 20
0.0
 30
0.0
  0
VERTEX
  5
708
  8
0
 10
853.6393330214196
 20
-440.158855218272
 30
0.0
  0
VERTEX
  5
709
  8
0
 10
854.6233203769907
 20
-440.3809010095846
 30
0.0
  0
VERTEX
  5
70A
  8
0
 10
855.7192871345438
 20
-440.5339540098012
 30
0.0
  0
VERTEX
  5
70B
  8
0
 10
856.884247951843
 20
-440.6120112671449
 30
0.0
  0
VERTEX
  5
70C
  8
0
 10
858.0725114435634
 20
-440.6120112672972
 30
0.0
  0
VERTEX
  5
70D
  8
0
 10
859.2374722610429
 20
-440.5339540102523
 30
0.0
  0
VERTEX
  5
70E
  8
0
 10
860.3334390189491
 20
-440.3809010103168
 30
0.0
  0
VERTEX
  5
70F
  8
0
 10
861.3174263750328
 20
-440.1588552192566
 30
0.0
  0
SEQEND
  5
79B
  8
0
  0
POLYLINE
  5
270
  8
0
 66
     1
 10
0.0
 20
0.0
 30
0.0
  0
VERTEX
  5
271
  8
0
 10
863.65439711
 20
-437.83168285
 30
0.0
  0
VERTEX
  5
272
  8
0
 10
865.58791415
 20
-438.45613159
 30
0.0
  0
SEQEND
  5
273
  8
0
  0
POLYLINE
  5
274
  8
0
 66
     1
 10
0.0
 20
0.0
 30
0.0
  0
VERTEX
  5
710
  8
0
 10
865.5879141474717
 20
-438.4561315874097
 30
0.0
  0
VERTEX
  5
711
  8
0
 10
865.747936108872
 20
-438.4981775173333
 30
0.0
  0
VERTEX
  5
712
  8
0
 10
865.9302041827013
 20
-438.5285385295282
 30
0.0
  0
SEQEND
  5
79C
  8
0
  0
LINE
  5
275
  8
0
 10
890.89922318
 20
-441.67433924
 30
0.0
 11
865.93020418
 21
-438.52853853
 31
0.0
  0
LINE
  5
276
  8
0
 10
851.4783797
 20
-451.72688646
 30
0.0
 11
851.4783797
 21
-439.07410458
 31
0.0
  0
POLYLINE
  5
277
  8
0
 66
     1
 10
0.0
 20
0.0
 30
0.0
  0
VERTEX
  5
713
  8
0
 10
851.4783797
 20
-451.7268864528204
 30
0.0
  0
VERTEX
  5
714
  8
0
 10
851.5934022911993
 20
-452.1166215367671
 30
0.0
  0
VERTEX
  5
715
  8
0
 10
851.9340600075351
 20
-452.4914138406982
 30
0.0
  0
VERTEX
  5
716
  8
0
 10
852.4872917374491
 20
-452.8368935034361
 30
0.0
  0
VERTEX
  5
717
  8
0
 10
853.2318860977982
 20
-453.1398145358258
 30
0.0
  0
VERTEX
  5
718
  8
0
 10
854.1392946966337
 20
-453.388562683419
 30
0.0
  0
VERTEX
  5
719
  8
0
 10
855.1747267032481
 20
-453.5736007270367
 30
0.0
  0
VERTEX
  5
71A
  8
0
 10
856.2984827587222
 20
-453.6878341480044
 30
0.0
  0
VERTEX
  5
71B
  8
0
 10
857.4674770836917
 20
-453.726883138135
 30
0.0
  0
VERTEX
  5
71C
  8
0
 10
858.6368894244026
 20
-453.6892505253646
 30
0.0
  0
VERTEX
  5
71D
  8
0
 10
859.761883500016
 20
-453.5763791766238
 30
0.0
  0
VERTEX
  5
71E
  8
0
 10
860.7993260644042
 20
-453.392596677072
 30
0.0
  0
VERTEX
  5
71F
  8
0
 10
861.7094406721236
 20
-453.1449494067383
 30
0.0
  0
VERTEX
  5
720
  8
0
 10
862.4573327417451
 20
-452.8429323762148
 30
0.0
  0
VERTEX
  5
721
  8
0
 10
863.0143274442936
 20
-452.4981251797364
 30
0.0
  0
VERTEX
  5
722
  8
0
 10
863.3590691209995
 20
-452.1237480235199
 30
0.0
  0
SEQEND
  5
79D
  8
0
  0
LINE
  5
278
  8
0
 10
863.35906912
 20
-452.12374803
 30
0.0
 11
863.35906912
 21
-439.20299323
 31
0.0
  0
LINE
  5
279
  8
0
 10
863.59615133
 20
-438.90191417
 30
0.0
 11
864.71142785
 21
-439.24073875
 31
0.0
  0
POLYLINE
  5
27A
  8
0
 66
     1
 10
0.0
 20
0.0
 30
0.0
  0
VERTEX
  5
723
  8
0
 10
864.7114278532529
 20
-439.2407387450539
 30
0.0
  0
VERTEX
  5
724
  8
0
 10
864.8621592521913
 20
-439.2785121898709
 30
0.0
  0
VERTEX
  5
725
  8
0
 10
865.0314849927013
 20
-439.3061813595282
 30
0.0
  0
SEQEND
  5
79E
  8
0
  0
LINE
  5
27B
  8
0
 10
890.0153397
 20
-442.45385119
 30
0.0
 11
865.03148499
 21
-439.30618136
 31
0.0
  0
LINE
  5
27C
  8
0
 10
863.4783797
 20
-471.43311905
 30
0.0
 11
864.77446767
 21
-471.85170367
 31
0.0
  0
LINE
  5
27D
  8
0
 10
851.520192056516
 20
-472.044421310775
 30
0.0
 11
851.4783797
 21
-472.2801235628204
 31
0.0
  0
POLYLINE
  5
27E
  8
0
 66
     1
 10
0.0
 20
0.0
 30
0.0
  0
VERTEX
  5
726
  8
0
 10
851.4783797
 20
-472.2801235628204
 30
0.0
  0
VERTEX
  5
727
  8
0
 10
851.5934022911993
 20
-472.6698586467671
 30
0.0
  0
VERTEX
  5
728
  8
0
 10
851.9340600075351
 20
-473.0446509506982
 30
0.0
  0
VERTEX
  5
729
  8
0
 10
852.4872917374491
 20
-473.3901306134361
 30
0.0
  0
VERTEX
  5
72A
  8
0
 10
853.2318860977982
 20
-473.6930516458258
 30
0.0
  0
VERTEX
  5
72B
  8
0
 10
854.1392946966337
 20
-473.941799793419
 30
0.0
  0
VERTEX
  5
72C
  8
0
 10
855.1747267032481
 20
-474.1268378370367
 30
0.0
  0
VERTEX
  5
72D
  8
0
 10
856.2984827587222
 20
-474.2410712580044
 30
0.0
  0
VERTEX
  5
72E
  8
0
 10
857.4674770836917
 20
-474.280120248135
 30
0.0
  0
VERTEX
  5
72F
  8
0
 10
858.6368894244026
 20
-474.2424876353646
 30
0.0
  0
VERTEX
  5
730
  8
0
 10
859.761883500016
 20
-474.1296162866238
 30
0.0
  0
VERTEX
  5
731
  8
0
 10
860.7993260644042
 20
-473.945833787072
 30
0.0
  0
VERTEX
  5
732
  8
0
 10
861.7094406721236
 20
-473.6981865167383
 30
0.0
  0
VERTEX
  5
733
  8
0
 10
862.4573327417451
 20
-473.3961694862148
 30
0.0
  0
VERTEX
  5
734
  8
0
 10
863.0143274442936
 20
-473.0513622897364
 30
0.0
  0
VERTEX
  5
735
  8
0
 10
863.3590691209995
 20
-472.6769851335199
 30
0.0
  0
SEQEND
  5
79F
  8
0
  0
LINE
  5
27F
  8
0
 10
862.90509425
 20
-472.66186806
 30
0.0
 11
863.35906912
 21
-472.67698513
 31
0.0
  0
LINE
  5
280
  8
0
 10
864.71142785
 20
-472.89902153
 30
0.0
 11
863.17833588
 21
-472.43326329
 31
0.0
  0
LINE
  5
281
  8
0
 10
863.35906912
 20
-489.08160976
 30
0.0
 11
864.71142785
 21
-489.49246067
 31
0.0
  0
LINE
  5
282
  8
0
 10
863.35906912
 20
-489.27042426
 30
0.0
 11
863.35906912
 21
-472.67698513
 31
0.0
  0
POLYLINE
  5
283
  8
0
 66
     1
 10
0.0
 20
0.0
 30
0.0
  0
VERTEX
  5
736
  8
0
 10
851.4783797
 20
-488.8735626928204
 30
0.0
  0
VERTEX
  5
737
  8
0
 10
851.5934022911993
 20
-489.2632977767671
 30
0.0
  0
VERTEX
  5
738
  8
0
 10
851.9340600075351
 20
-489.6380900806982
 30
0.0
  0
VERTEX
  5
739
  8
0
 10
852.4872917374491
 20
-489.9835697434361
 30
0.0
  0
VERTEX
  5
73A
  8
0
 10
853.2318860977982
 20
-490.2864907758258
 30
0.0
  0
VERTEX
  5
73B
  8
0
 10
854.1392946966337
 20
-490.535238923419
 30
0.0
  0
VERTEX
  5
73C
  8
0
 10
855.1747267032481
 20
-490.7202769670367
 30
0.0
  0
VERTEX
  5
73D
  8
0
 10
856.2984827587222
 20
-490.8345103880043
 30
0.0
  0
VERTEX
  5
73E
  8
0
 10
857.4674770836917
 20
-490.873559378135
 30
0.0
  0
VERTEX
  5
73F
  8
0
 10
858.6368894244026
 20
-490.8359267653645
 30
0.0
  0
VERTEX
  5
740
  8
0
 10
859.761883500016
 20
-490.7230554166238
 30
0.0
  0
VERTEX
  5
741
  8
0
 10
860.7993260644042
 20
-490.539272917072
 30
0.0
  0
VERTEX
  5
742
  8
0
 10
861.7094406721236
 20
-490.2916256467383
 30
0.0
  0
VERTEX
  5
743
  8
0
 10
862.4573327417451
 20
-489.9896086162148
 30
0.0
  0
VERTEX
  5
744
  8
0
 10
863.0143274442936
 20
-489.6448014197364
 30
0.0
  0
VERTEX
  5
745
  8
0
 10
863.3590691209995
 20
-489.2704242635199
 30
0.0
  0
SEQEND
  5
7A0
  8
0
  0
LINE
  5
284
  8
0
 10
851.4783797
 20
-488.8735627
 30
0.0
 11
851.4783797
 21
-472.28012357
 31
0.0
  0
LINE
  5
285
  8
0
 10
863.4783797
 20
-508.57979529
 30
0.0
 11
864.77446767
 21
-508.99837991
 31
0.0
  0
LINE
  5
286
  8
0
 10
851.520192056516
 20
-509.191097550775
 30
0.0
 11
851.4783797
 21
-509.4267998028204
 31
0.0
  0
POLYLINE
  5
287
  8
0
 66
     1
 10
0.0
 20
0.0
 30
0.0
  0
VERTEX
  5
746
  8
0
 10
851.4783797
 20
-509.4267998028204
 30
0.0
  0
VERTEX
  5
747
  8
0
 10
851.5934022911993
 20
-509.8165348867671
 30
0.0
  0
VERTEX
  5
748
  8
0
 10
851.9340600075351
 20
-510.1913271906982
 30
0.0
  0
VERTEX
  5
749
  8
0
 10
852.4872917374491
 20
-510.5368068534361
 30
0.0
  0
VERTEX
  5
74A
  8
0
 10
853.2318860977982
 20
-510.8397278858258
 30
0.0
  0
VERTEX
  5
74B
  8
0
 10
854.1392946966337
 20
-511.0884760334189
 30
0.0
  0
VERTEX
  5
74C
  8
0
 10
855.1747267032481
 20
-511.2735140770367
 30
0.0
  0
VERTEX
  5
74D
  8
0
 10
856.2984827587222
 20
-511.3877474980043
 30
0.0
  0
VERTEX
  5
74E
  8
0
 10
857.4674770836917
 20
-511.426796488135
 30
0.0
  0
VERTEX
  5
74F
  8
0
 10
858.6368894244026
 20
-511.3891638753645
 30
0.0
  0
VERTEX
  5
750
  8
0
 10
859.761883500016
 20
-511.2762925266238
 30
0.0
  0
VERTEX
  5
751
  8
0
 10
860.7993260644042
 20
-511.092510027072
 30
0.0
  0
VERTEX
  5
752
  8
0
 10
861.7094406721236
 20
-510.8448627567383
 30
0.0
  0
VERTEX
  5
753
  8
0
 10
862.4573327417451
 20
-510.5428457262148
 30
0.0
  0
VERTEX
  5
754
  8
0
 10
863.0143274442936
 20
-510.1980385297364
 30
0.0
  0
VERTEX
  5
755
  8
0
 10
863.3590691209995
 20
-509.8236613735199
 30
0.0
  0
SEQEND
  5
7A1
  8
0
  0
LINE
  5
288
  8
0
 10
862.90509425
 20
-509.8085443
 30
0.0
 11
863.35906912
 21
-509.82366137
 31
0.0
  0
LINE
  5
289
  8
0
 10
864.71142785
 20
-510.04569777
 30
0.0
 11
863.17833588
 21
-509.57993953
 31
0.0
  0
LINE
  5
28A
  8
0
 10
864.71142785
 20
-523.15074345
 30
0.0
 11
863.35906912
 21
-522.73989254
 31
0.0
  0
LINE
  5
28B
  8
0
 10
863.35906912
 20
-522.92870705
 30
0.0
 11
863.35906912
 21
-509.82366137
 31
0.0
  0
POLYLINE
  5
28C
  8
0
 66
     1
 10
0.0
 20
0.0
 30
0.0
  0
VERTEX
  5
756
  8
0
 10
851.4783797
 20
-522.5318454828205
 30
0.0
  0
VERTEX
  5
757
  8
0
 10
851.5934022911993
 20
-522.9215805667671
 30
0.0
  0
VERTEX
  5
758
  8
0
 10
851.9340600075351
 20
-523.2963728706982
 30
0.0
  0
VERTEX
  5
759
  8
0
 10
852.4872917374491
 20
-523.6418525334361
 30
0.0
  0
VERTEX
  5
75A
  8
0
 10
853.2318860977982
 20
-523.9447735658259
 30
0.0
  0
VERTEX
  5
75B
  8
0
 10
854.1392946966337
 20
-524.193521713419
 30
0.0
  0
VERTEX
  5
75C
  8
0
 10
855.1747267032481
 20
-524.3785597570368
 30
0.0
  0
VERTEX
  5
75D
  8
0
 10
856.2984827587222
 20
-524.4927931780044
 30
0.0
  0
VERTEX
  5
75E
  8
0
 10
857.4674770836917
 20
-524.5318421681351
 30
0.0
  0
VERTEX
  5
75F
  8
0
 10
858.6368894244026
 20
-524.4942095553646
 30
0.0
  0
VERTEX
  5
760
  8
0
 10
859.761883500016
 20
-524.3813382066238
 30
0.0
  0
VERTEX
  5
761
  8
0
 10
860.7993260644042
 20
-524.1975557070721
 30
0.0
  0
VERTEX
  5
762
  8
0
 10
861.7094406721236
 20
-523.9499084367384
 30
0.0
  0
VERTEX
  5
763
  8
0
 10
862.4573327417451
 20
-523.6478914062149
 30
0.0
  0
VERTEX
  5
764
  8
0
 10
863.0143274442936
 20
-523.3030842097364
 30
0.0
  0
VERTEX
  5
765
  8
0
 10
863.3590691209995
 20
-522.9287070535199
 30
0.0
  0
SEQEND
  5
7A2
  8
0
  0
LINE
  5
28D
  8
0
 10
851.4783797
 20
-522.53184549
 30
0.0
 11
851.4783797
 21
-509.42679981
 31
0.0
  0
POLYLINE
  5
28E
  8
0
 66
     1
 10
0.0
 20
0.0
 30
0.0
  0
VERTEX
  5
766
  8
0
 10
896.62971798
 20
-524.43576548
 30
0.0
  0
VERTEX
  5
767
  8
0
 10
897.7930257343578
 20
-523.1536282150558
 30
0.0
  0
VERTEX
  5
768
  8
0
 10
898.6574413787694
 20
-521.6325419742818
 30
0.0
  0
VERTEX
  5
769
  8
0
 10
899.1897459050764
 20
-519.9309612483717
 30
0.0
  0
VERTEX
  5
76A
  8
0
 10
899.3694831490288
 20
-518.1142768298006
 30
0.0
  0
SEQEND
  5
7A3
  8
0
  0
LINE
  5
28F
  8
0
 10
899.36948317
 20
-518.11427678
 30
0.0
 11
899.36948317
 21
-453.06045291
 31
0.0
  0
POLYLINE
  5
290
  8
0
 66
     1
 10
0.0
 20
0.0
 30
0.0
  0
VERTEX
  5
291
  8
0
 10
1012.18255509
 20
-432.82757472
 30
0.0
  0
VERTEX
  5
292
  8
0
 10
1010.62255509
 20
-432.82757472
 30
0.0
 42
0.414213562
  0
VERTEX
  5
293
  8
0
 10
1005.18255509
 20
-438.26757472
 30
0.0
  0
SEQEND
  5
294
  8
0
  0
LINE
  5
295
  8
0
 10
1017.62255509
 20
-438.26757472
 30
0.0
 11
1005.18255509
 21
-438.26757472
 31
0.0
  0
ARC
  5
296
  8
0
 10
1012.18255509
 20
-438.26757472
 30
0.0
 40
5.44
 50
0.0
 51
90.0
  0
LINE
  5
297
  8
0
 10
1007.96255509
 20
-438.26757472
 30
0.0
 11
1007.96255509
 21
-438.36757472
 31
0.0
  0
LINE
  5
298
  8
0
 10
1007.96255509
 20
-452.26757472
 30
0.0
 11
1007.96255509
 21
-452.76757472
 31
0.0
  0
LINE
  5
299
  8
0
 10
1007.96255509
 20
-473.56757472
 30
0.0
 11
1007.96255509
 21
-474.06757472
 31
0.0
  0
LINE
  5
29A
  8
0
 10
1007.96255509
 20
-491.66757472
 30
0.0
 11
1007.96255509
 21
-492.16757472
 31
0.0
  0
LINE
  5
29B
  8
0
 10
1007.96255509
 20
-512.96757472
 30
0.0
 11
1007.96255509
 21
-513.46757472
 31
0.0
  0
LINE
  5
29C
  8
0
 10
1014.84255509
 20
-438.26757472
 30
0.0
 11
1014.84255509
 21
-438.36757472
 31
0.0
  0
LINE
  5
29D
  8
0
 10
1014.84255509
 20
-452.26757472
 30
0.0
 11
1014.84255509
 21
-452.76757472
 31
0.0
  0
LINE
  5
29E
  8
0
 10
1014.84255509
 20
-473.56757472
 30
0.0
 11
1014.84255509
 21
-474.06757472
 31
0.0
  0
LINE
  5
29F
  8
0
 10
1014.84255509
 20
-491.66757472
 30
0.0
 11
1014.84255509
 21
-492.16757472
 31
0.0
  0
LINE
  5
2A0
  8
0
 10
1014.84255509
 20
-512.96757472
 30
0.0
 11
1014.84255509
 21
-513.46757472
 31
0.0
  0
LINE
  5
2A1
  8
0
 10
1005.40255509
 20
-452.76757472
 30
0.0
 11
1017.40255509
 21
-452.76757472
 31
0.0
  0
LINE
  5
2A2
  8
0
 10
1017.40255509
 20
-473.56757472
 30
0.0
 11
1017.40255509
 21
-452.76757472
 31
0.0
  0
POLYLINE
  5
2A3
  8
0
 66
     1
 10
0.0
 20
0.0
 30
0.0
  0
VERTEX
  5
2A4
  8
0
 10
1017.40255509
 20
-473.56757472
 30
0.0
  0
VERTEX
  5
2A5
  8
0
 10
1005.40255509
 20
-473.56757472
 30
0.0
  0
VERTEX
  5
2A6
  8
0
 10
1005.40255509
 20
-452.76757472
 30
0.0
  0
SEQEND
  5
2A7
  8
0
  0
LINE
  5
2A8
  8
0
 10
1005.40255509
 20
-492.16757472
 30
0.0
 11
1017.40255509
 21
-492.16757472
 31
0.0
  0
LINE
  5
2A9
  8
0
 10
1017.40255509
 20
-512.96757472
 30
0.0
 11
1017.40255509
 21
-492.16757472
 31
0.0
  0
POLYLINE
  5
2AA
  8
0
 66
     1
 10
0.0
 20
0.0
 30
0.0
  0
VERTEX
  5
2AB
  8
0
 10
1017.40255509
 20
-512.96757472
 30
0.0
  0
VERTEX
  5
2AC
  8
0
 10
1005.40255509
 20
-512.96757472
 30
0.0
  0
VERTEX
  5
2AD
  8
0
 10
1005.40255509
 20
-492.16757472
 30
0.0
  0
SEQEND
  5
2AE
  8
0
  0
CIRCLE
  5
2AF
  8
0
 10
975.90255509
 20
-447.36757472
 30
0.0
 40
3.0
  0
CIRCLE
  5
2B0
  8
0
 10
984.90255509
 20
-468.36757472
 30
0.0
 40
3.0
  0
CIRCLE
  5
2B1
  8
0
 10
975.90255509
 20
-497.36757472
 30
0.0
 40
3.0
  0
CIRCLE
  5
2B2
  8
0
 10
984.90255509
 20
-518.36757472
 30
0.0
 40
3.0
  0
CIRCLE
  5
2B3
  8
0
 10
975.90255509
 20
-447.36757472
 30
0.0
 40
4.0
  0
CIRCLE
  5
2B4
  8
0
 10
984.90255509
 20
-468.36757472
 30
0.0
 40
4.0
  0
CIRCLE
  5
2B5
  8
0
 10
975.90255509
 20
-497.36757472
 30
0.0
 40
4.0
  0
CIRCLE
  5
2B6
  8
0
 10
984.90255509
 20
-518.36757472
 30
0.0
 40
4.0
  0
LINE
  5
2B7
  8
0
 10
1003.61141924
 20
-527.36757472
 30
0.0
 11
976.90255509
 21
-527.36757472
 31
0.0
  0
ARC
  5
2B8
  8
0
 10
976.90255509
 20
-517.36757472
 30
0.0
 40
10.0
 50
180.0
 51
-90.0
  0
LINE
  5
2B9
  8
0
 10
966.90255509
 20
-517.36757472
 30
0.0
 11
966.90255509
 21
-448.36757472
 31
0.0
  0
ARC
  5
2BA
  8
0
 10
976.90255509
 20
-448.36757472
 30
0.0
 40
10.0
 50
90.0
 51
180.0
  0
LINE
  5
2BB
  8
0
 10
976.90255509
 20
-438.36757472
 30
0.0
 11
1003.61141924
 21
-438.36757472
 31
0.0
  0
LINE
  5
2BC
  8
0
 10
1003.90255509
 20
-527.36757472
 30
0.0
 11
1003.61141924
 21
-527.36757472
 31
0.0
  0
LINE
  5
2BD
  8
0
 10
1003.90255509
 20
-512.96757472
 30
0.0
 11
1003.90255509
 21
-527.36757472
 31
0.0
  0
LINE
  5
2BE
  8
0
 10
1003.98021765
 20
-512.96757472
 30
0.0
 11
1003.90255509
 21
-512.96757472
 31
0.0
  0
LINE
  5
2BF
  8
0
 10
1003.90255509
 20
-492.16757472
 30
0.0
 11
1003.98021765
 21
-492.16757472
 31
0.0
  0
LINE
  5
2C0
  8
0
 10
1003.90255509
 20
-473.56757472
 30
0.0
 11
1003.90255509
 21
-492.16757472
 31
0.0
  0
LINE
  5
2C1
  8
0
 10
1003.98021765
 20
-473.56757472
 30
0.0
 11
1003.90255509
 21
-473.56757472
 31
0.0
  0
LINE
  5
2C2
  8
0
 10
1003.90255509
 20
-452.76757472
 30
0.0
 11
1003.98021765
 21
-452.76757472
 31
0.0
  0
LINE
  5
2C3
  8
0
 10
1003.90255509
 20
-438.36757472
 30
0.0
 11
1003.90255509
 21
-452.76757472
 31
0.0
  0
LINE
  5
2C4
  8
0
 10
1003.61141924
 20
-438.36757472
 30
0.0
 11
1003.90255509
 21
-438.36757472
 31
0.0
  0
LINE
  5
2C5
  8
0
 10
1003.98021765
 20
-452.76757472
 30
0.0
 11
1005.40255509
 21
-452.76757472
 31
0.0
  0
LINE
  5
2C6
  8
0
 10
1005.40255509
 20
-473.56757472
 30
0.0
 11
1003.98021765
 21
-473.56757472
 31
0.0
  0
LINE
  5
2C7
  8
0
 10
1003.98021765
 20
-492.16757472
 30
0.0
 11
1005.40255509
 21
-492.16757472
 31
0.0
  0
LINE
  5
2C8
  8
0
 10
1005.40255509
 20
-512.96757472
 30
0.0
 11
1003.98021765
 21
-512.96757472
 31
0.0
  0
LINE
  5
2C9
  8
0
 10
1005.40255509
 20
-438.36757472
 30
0.0
 11
1017.40255509
 21
-438.36757472
 31
0.0
  0
LINE
  5
2CA
  8
0
 10
1017.40255509
 20
-452.26757472
 30
0.0
 11
1017.40255509
 21
-438.36757472
 31
0.0
  0
LINE
  5
2CB
  8
0
 10
1005.40255509
 20
-452.26757472
 30
0.0
 11
1017.40255509
 21
-452.26757472
 31
0.0
  0
LINE
  5
2CC
  8
0
 10
1005.40255509
 20
-452.26757472
 30
0.0
 11
1005.40255509
 21
-438.36757472
 31
0.0
  0
LINE
  5
2CD
  8
0
 10
1017.40255509
 20
-513.46757472
 30
0.0
 11
1005.40255509
 21
-513.46757472
 31
0.0
  0
LINE
  5
2CE
  8
0
 10
1005.40255509
 20
-527.36757472
 30
0.0
 11
1005.40255509
 21
-513.46757472
 31
0.0
  0
LINE
  5
2CF
  8
0
 10
1017.40255509
 20
-527.36757472
 30
0.0
 11
1005.40255509
 21
-527.36757472
 31
0.0
  0
LINE
  5
2D0
  8
0
 10
1017.40255509
 20
-527.36757472
 30
0.0
 11
1017.40255509
 21
-513.46757472
 31
0.0
  0
LINE
  5
2D1
  8
0
 10
1017.40255509
 20
-474.06757472
 30
0.0
 11
1005.40255509
 21
-474.06757472
 31
0.0
  0
LINE
  5
2D2
  8
0
 10
1005.40255509
 20
-491.66757472
 30
0.0
 11
1005.40255509
 21
-474.06757472
 31
0.0
  0
POLYLINE
  5
2D3
  8
0
 66
     1
 10
0.0
 20
0.0
 30
0.0
  0
VERTEX
  5
2D4
  8
0
 10
1005.40255509
 20
-491.66757472
 30
0.0
  0
VERTEX
  5
2D5
  8
0
 10
1017.40255509
 20
-491.66757472
 30
0.0
  0
VERTEX
  5
2D6
  8
0
 10
1017.40255509
 20
-474.06757472
 30
0.0
  0
SEQEND
  5
2D7
  8
0
  0
CIRCLE
  5
2D8
  8
0
 10
1037.90255509
 20
-447.36757472
 30
0.0
 40
3.0
  0
CIRCLE
  5
2D9
  8
0
 10
1046.90255509
 20
-468.36757472
 30
0.0
 40
3.0
  0
CIRCLE
  5
2DA
  8
0
 10
1037.90255509
 20
-497.36757472
 30
0.0
 40
3.0
  0
CIRCLE
  5
2DB
  8
0
 10
1046.90255509
 20
-518.36757472
 30
0.0
 40
3.0
  0
CIRCLE
  5
2DC
  8
0
 10
1037.90255509
 20
-447.36757472
 30
0.0
 40
4.0
  0
CIRCLE
  5
2DD
  8
0
 10
1046.90255509
 20
-468.36757472
 30
0.0
 40
4.0
  0
CIRCLE
  5
2DE
  8
0
 10
1037.90255509
 20
-497.36757472
 30
0.0
 40
4.0
  0
CIRCLE
  5
2DF
  8
0
 10
1046.90255509
 20
-518.36757472
 30
0.0
 40
4.0
  0
ARC
  5
2E0
  8
0
 10
1045.90255509
 20
-448.36757472
 30
0.0
 40
10.0
 50
0.0
 51
90.0
  0
LINE
  5
2E1
  8
0
 10
1055.90255509
 20
-517.36757472
 30
0.0
 11
1055.90255509
 21
-448.36757472
 31
0.0
  0
ARC
  5
2E2
  8
0
 10
1045.90255509
 20
-517.36757472
 30
0.0
 40
10.0
 50
-90.0
 51
0.0
  0
LINE
  5
2E3
  8
0
 10
1019.19369093
 20
-527.36757472
 30
0.0
 11
1045.90255509
 21
-527.36757472
 31
0.0
  0
POLYLINE
  5
2E4
  8
0
 66
     1
 10
0.0
 20
0.0
 30
0.0
  0
VERTEX
  5
2E5
  8
0
 10
1045.90255509
 20
-438.36757472
 30
0.0
  0
VERTEX
  5
2E6
  8
0
 10
1019.19369093
 20
-438.36757472
 30
0.0
  0
VERTEX
  5
2E7
  8
0
 10
1018.82489252
 20
-438.36757472
 30
0.0
  0
SEQEND
  5
2E8
  8
0
  0
POLYLINE
  5
2E9
  8
0
 66
     1
 10
0.0
 20
0.0
 30
0.0
  0
VERTEX
  5
2EA
  8
0
 10
1018.82489252
 20
-452.26757472
 30
0.0
  0
VERTEX
  5
2EB
  8
0
 10
1018.90255509
 20
-452.26757472
 30
0.0
  0
VERTEX
  5
2EC
  8
0
 10
1018.90255509
 20
-474.06757472
 30
0.0
  0
VERTEX
  5
2ED
  8
0
 10
1018.82489252
 20
-474.06757472
 30
0.0
  0
SEQEND
  5
2EE
  8
0
  0
POLYLINE
  5
2EF
  8
0
 66
     1
 10
0.0
 20
0.0
 30
0.0
  0
VERTEX
  5
2F0
  8
0
 10
1018.82489252
 20
-491.66757472
 30
0.0
  0
VERTEX
  5
2F1
  8
0
 10
1018.90255509
 20
-491.66757472
 30
0.0
  0
VERTEX
  5
2F2
  8
0
 10
1018.90255509
 20
-513.46757472
 30
0.0
  0
VERTEX
  5
2F3
  8
0
 10
1018.82489252
 20
-513.46757472
 30
0.0
  0
SEQEND
  5
2F4
  8
0
  0
LINE
  5
2F5
  8
0
 10
1018.82489252
 20
-527.36757472
 30
0.0
 11
1019.19369093
 21
-527.36757472
 31
0.0
  0
LINE
  5
2F6
  8
0
 10
1018.82489252
 20
-527.36757472
 30
0.0
 11
1017.40255509
 21
-527.36757472
 31
0.0
  0
LINE
  5
2F7
  8
0
 10
1018.82489252
 20
-513.46757472
 30
0.0
 11
1017.40255509
 21
-513.46757472
 31
0.0
  0
LINE
  5
2F8
  8
0
 10
1017.40255509
 20
-491.66757472
 30
0.0
 11
1018.82489252
 21
-491.66757472
 31
0.0
  0
LINE
  5
2F9
  8
0
 10
1018.82489252
 20
-474.06757472
 30
0.0
 11
1017.40255509
 21
-474.06757472
 31
0.0
  0
LINE
  5
2FA
  8
0
 10
1017.40255509
 20
-452.26757472
 30
0.0
 11
1018.82489252
 21
-452.26757472
 31
0.0
  0
LINE
  5
2FB
  8
0
 10
1017.40255509
 20
-438.36757472
 30
0.0
 11
1018.82489252
 21
-438.36757472
 31
0.0
  0
CIRCLE
  5
2FC
  8
0
 10
1011.40255509
 20
-404.63084934
 30
0.0
 40
6.22
  0
POLYLINE
  5
2FD
  8
0
 66
     1
 10
0.0
 20
0.0
 30
0.0
  0
VERTEX
  5
2FE
  8
0
 10
976.90255509
 20
-403.88084934
 30
0.0
  0
VERTEX
  5
2FF
  8
0
 10
1003.61141924
 20
-403.88084934
 30
0.0
 42
0.073988043
  0
VERTEX
  5
300
  8
0
 10
1003.90255509
 20
-403.83753106
 30
0.0
  0
SEQEND
  5
301
  8
0
  0
LINE
  5
302
  8
0
 10
1003.90255509
 20
-401.33256018
 30
0.0
 11
1003.90255509
 21
-403.83753106
 31
0.0
  0
ARC
  5
303
  8
0
 10
1003.5955592
 20
-400.38084934
 30
0.0
 40
1.0
 50
-90.0
 51
-72.121718287
  0
LINE
  5
304
  8
0
 10
976.90255509
 20
-401.38084934
 30
0.0
 11
1003.5955592
 21
-401.38084934
 31
0.0
  0
LINE
  5
305
  8
0
 10
976.90255509
 20
-403.88084934
 30
0.0
 11
966.90255509
 21
-403.88084934
 31
0.0
  0
LINE
  5
306
  8
0
 10
966.90255509
 20
-401.38084934
 30
0.0
 11
966.90255509
 21
-403.88084934
 31
0.0
  0
LINE
  5
307
  8
0
 10
966.90255509
 20
-401.38084934
 30
0.0
 11
976.90255509
 21
-401.38084934
 31
0.0
  0
LINE
  5
308
  8
0
 10
1007.51576276
 20
-399.77479689
 30
0.0
 11
1003.99254136
 21
-401.29867566
 31
0.0
  0
LINE
  5
309
  8
0
 10
1003.90255509
 20
-401.33256018
 30
0.0
 11
1003.99254136
 21
-401.29867566
 31
0.0
  0
POLYLINE
  5
30A
  8
0
 66
     1
 10
0.0
 20
0.0
 30
0.0
  0
VERTEX
  5
30B
  8
0
 10
1003.90255509
 20
-403.83753106
 30
0.0
 42
0.020578423
  0
VERTEX
  5
30C
  8
0
 10
1003.98021765
 20
-403.81035874
 30
0.0
  0
VERTEX
  5
30D
  8
0
 10
1005.33238273
 20
-403.27386462
 30
0.0
  0
SEQEND
  5
30E
  8
0
  0
LINE
  5
30F
  8
0
 10
1055.90255509
 20
-401.38084934
 30
0.0
 11
1045.90255509
 21
-401.38084934
 31
0.0
  0
LINE
  5
310
  8
0
 10
1045.90255509
 20
-403.88084934
 30
0.0
 11
1055.90255509
 21
-403.88084934
 31
0.0
  0
LINE
  5
311
  8
0
 10
1055.90255509
 20
-401.38084934
 30
0.0
 11
1055.90255509
 21
-403.88084934
 31
0.0
  0
POLYLINE
  5
312
  8
0
 66
     1
 10
0.0
 20
0.0
 30
0.0
  0
VERTEX
  5
313
  8
0
 10
1045.90255509
 20
-403.88084934
 30
0.0
  0
VERTEX
  5
314
  8
0
 10
1019.19369093
 20
-403.88084934
 30
0.0
 42
-0.094710669
  0
VERTEX
  5
315
  8
0
 10
1018.82489252
 20
-403.81035874
 30
0.0
  0
SEQEND
  5
316
  8
0
  0
LINE
  5
317
  8
0
 10
1017.47272744
 20
-403.27386462
 30
0.0
 11
1018.82489252
 21
-403.81035874
 31
0.0
  0
POLYLINE
  5
318
  8
0
 66
     1
 10
0.0
 20
0.0
 30
0.0
  0
VERTEX
  5
319
  8
0
 10
1015.28934741
 20
-399.77479689
 30
0.0
  0
VERTEX
  5
31A
  8
0
 10
1018.81256881
 20
-401.29867566
 30
0.0
 42
0.102412426
  0
VERTEX
  5
31B
  8
0
 10
1019.20955097
 20
-401.38084934
 30
0.0
  0
SEQEND
  5
31C
  8
0
  0
LINE
  5
31D
  8
0
 10
1045.90255509
 20
-401.38084934
 30
0.0
 11
1019.20955097
 21
-401.38084934
 31
0.0
  0
TEXT
  5
31E
  8
TXT_DIM49
 10
956.26505792
 20
-484.72247901
 30
0.0
 40
2.5
  1
89
 50
90.00020741
  7
ARIAL
  0
LINE
  5
31F
  8
0
 62
     4
 10
956.76505792
 20
-526.36757472
 30
0.0
 11
958.76505792
 21
-528.36757472
 31
0.0
  0
LINE
  5
320
  8
0
 62
     4
 10
958.51505792
 20
-439.11757472
 30
0.0
 11
957.01505792
 21
-437.61757472
 31
0.0
  0
LINE
  5
321
  8
0
 62
     4
 10
957.76505792
 20
-527.36757472
 30
0.0
 11
957.76505792
 21
-438.36757472
 31
0.0
  0
LINE
  5
322
  8
0
 62
     4
 10
959.76505792
 20
-527.36757472
 30
0.0
 11
955.76505792
 21
-527.36757472
 31
0.0
  0
LINE
  5
323
  8
0
 62
     4
 10
959.76505792
 20
-438.36757472
 30
0.0
 11
955.76505792
 21
-438.36757472
 31
0.0
  0
TEXT
  5
324
  8
TXT_DIM49
 10
975.01901815
 20
-457.37367796
 30
0.0
 40
2.5
  1
18
  7
ARIAL
  0
LINE
  5
325
  8
0
 62
     4
 10
967.90255509
 20
-457.87367796
 30
0.0
 11
965.90255509
 21
-459.87367796
 31
0.0
  0
LINE
  5
326
  8
0
 62
     4
 10
984.15255509
 20
-459.62367796
 30
0.0
 11
985.65255509
 21
-458.12367796
 31
0.0
  0
LINE
  5
327
  8
0
 62
     4
 10
966.90255509
 20
-458.87367796
 30
0.0
 11
984.90255509
 21
-458.87367796
 31
0.0
  0
LINE
  5
328
  8
0
 62
     4
 10
966.90255509
 20
-460.87367796
 30
0.0
 11
966.90255509
 21
-456.87367796
 31
0.0
  0
LINE
  5
329
  8
0
 62
     4
 10
984.90255509
 20
-460.87367796
 30
0.0
 11
984.90255509
 21
-456.87367796
 31
0.0
  0
TEXT
  5
32A
  8
TXT_DIM49
 10
1050.47510294
 20
-537.51334121
 30
0.0
 40
2.5
  1
9
  7
ARIAL
  0
LINE
  5
32B
  8
0
 62
     4
 10
1054.90255509
 20
-540.01334121
 30
0.0
 11
1056.90255509
 21
-538.01334121
 31
0.0
  0
LINE
  5
32C
  8
0
 62
     4
 10
1047.65255509
 20
-538.26334121
 30
0.0
 11
1046.15255509
 21
-539.76334121
 31
0.0
  0
LINE
  5
32D
  8
0
 62
     4
 10
1055.90255509
 20
-539.01334121
 30
0.0
 11
1046.90255509
 21
-539.01334121
 31
0.0
  0
LINE
  5
32E
  8
0
 62
     4
 10
1055.90255509
 20
-537.01334121
 30
0.0
 11
1055.90255509
 21
-541.01334121
 31
0.0
  0
LINE
  5
32F
  8
0
 62
     4
 10
1046.90255509
 20
-537.01334121
 30
0.0
 11
1046.90255509
 21
-541.01334121
 31
0.0
  0
TEXT
  5
330
  8
TXT_DIM49
 10
1041.47510294
 20
-537.51334121
 30
0.0
 40
2.5
  1
9
  7
ARIAL
  0
LINE
  5
331
  8
0
 62
     4
 10
1045.90255509
 20
-540.01334121
 30
0.0
 11
1047.90255509
 21
-538.01334121
 31
0.0
  0
LINE
  5
332
  8
0
 62
     4
 10
1038.65255509
 20
-538.26334121
 30
0.0
 11
1037.15255509
 21
-539.76334121
 31
0.0
  0
LINE
  5
333
  8
0
 62
     4
 10
1046.90255509
 20
-539.01334121
 30
0.0
 11
1037.90255509
 21
-539.01334121
 31
0.0
  0
LINE
  5
334
  8
0
 62
     4
 10
1046.90255509
 20
-537.01334121
 30
0.0
 11
1046.90255509
 21
-541.01334121
 31
0.0
  0
LINE
  5
335
  8
0
 62
     4
 10
1037.90255509
 20
-537.01334121
 30
0.0
 11
1037.90255509
 21
-541.01334121
 31
0.0
  0
TEXT
  5
336
  8
TXT_DIM49
 10
1009.54765079
 20
-537.51334121
 30
0.0
 40
2.5
  1
53
  7
ARIAL
  0
LINE
  5
337
  8
0
 62
     4
 10
1036.90255509
 20
-540.01334121
 30
0.0
 11
1038.90255509
 21
-538.01334121
 31
0.0
  0
LINE
  5
338
  8
0
 62
     4
 10
985.65255509
 20
-538.26334121
 30
0.0
 11
984.15255509
 21
-539.76334121
 31
0.0
  0
LINE
  5
339
  8
0
 62
     4
 10
1037.90255509
 20
-539.01334121
 30
0.0
 11
984.90255509
 21
-539.01334121
 31
0.0
  0
LINE
  5
33A
  8
0
 62
     4
 10
1037.90255509
 20
-537.01334121
 30
0.0
 11
1037.90255509
 21
-541.01334121
 31
0.0
  0
LINE
  5
33B
  8
0
 62
     4
 10
984.90255509
 20
-537.01334121
 30
0.0
 11
984.90255509
 21
-541.01334121
 31
0.0
  0
TEXT
  5
33C
  8
TXT_DIM49
 10
979.47510294
 20
-537.51334121
 30
0.0
 40
2.5
  1
9
  7
ARIAL
  0
LINE
  5
33D
  8
0
 62
     4
 10
983.90255509
 20
-540.01334121
 30
0.0
 11
985.90255509
 21
-538.01334121
 31
0.0
  0
LINE
  5
33E
  8
0
 62
     4
 10
976.65255509
 20
-538.26334121
 30
0.0
 11
975.15255509
 21
-539.76334121
 31
0.0
  0
LINE
  5
33F
  8
0
 62
     4
 10
984.90255509
 20
-539.01334121
 30
0.0
 11
975.90255509
 21
-539.01334121
 31
0.0
  0
LINE
  5
340
  8
0
 62
     4
 10
984.90255509
 20
-537.01334121
 30
0.0
 11
984.90255509
 21
-541.01334121
 31
0.0
  0
LINE
  5
341
  8
0
 62
     4
 10
975.90255509
 20
-537.01334121
 30
0.0
 11
975.90255509
 21
-541.01334121
 31
0.0
  0
TEXT
  5
342
  8
TXT_DIM49
 10
970.47510294
 20
-537.51334121
 30
0.0
 40
2.5
  1
9
  7
ARIAL
  0
LINE
  5
343
  8
0
 62
     4
 10
974.90255509
 20
-540.01334121
 30
0.0
 11
976.90255509
 21
-538.01334121
 31
0.0
  0
LINE
  5
344
  8
0
 62
     4
 10
967.65255509
 20
-538.26334121
 30
0.0
 11
966.15255509
 21
-539.76334121
 31
0.0
  0
LINE
  5
345
  8
0
 62
     4
 10
975.90255509
 20
-539.01334121
 30
0.0
 11
966.90255509
 21
-539.01334121
 31
0.0
  0
LINE
  5
346
  8
0
 62
     4
 10
975.90255509
 20
-537.01334121
 30
0.0
 11
975.90255509
 21
-541.01334121
 31
0.0
  0
LINE
  5
347
  8
0
 62
     4
 10
966.90255509
 20
-537.01334121
 30
0.0
 11
966.90255509
 21
-541.01334121
 31
0.0
  0
TEXT
  5
348
  8
TXT_DIM49
 10
1064.08634947
 20
-443.79502686
 30
0.0
 40
2.5
  1
9
 50
90.00020741
  7
ARIAL
  0
LINE
  5
349
  8
0
 62
     4
 10
1066.58634947
 20
-439.36757472
 30
0.0
 11
1064.58634947
 21
-437.36757472
 31
0.0
  0
LINE
  5
34A
  8
0
 62
     4
 10
1064.83634947
 20
-446.61757472
 30
0.0
 11
1066.33634947
 21
-448.11757472
 31
0.0
  0
LINE
  5
34B
  8
0
 62
     4
 10
1065.58634947
 20
-438.36757472
 30
0.0
 11
1065.58634947
 21
-447.36757472
 31
0.0
  0
LINE
  5
34C
  8
0
 62
     4
 10
1063.58634947
 20
-438.36757472
 30
0.0
 11
1067.58634947
 21
-438.36757472
 31
0.0
  0
LINE
  5
34D
  8
0
 62
     4
 10
1063.58634947
 20
-447.36757472
 30
0.0
 11
1067.58634947
 21
-447.36757472
 31
0.0
  0
TEXT
  5
34E
  8
TXT_DIM49
 10
1064.08634947
 20
-459.72247901
 30
0.0
 40
2.5
  1
21
 50
90.00020741
  7
ARIAL
  0
LINE
  5
34F
  8
0
 62
     4
 10
1066.58634947
 20
-448.36757472
 30
0.0
 11
1064.58634947
 21
-446.36757472
 31
0.0
  0
LINE
  5
350
  8
0
 62
     4
 10
1064.83634947
 20
-467.61757472
 30
0.0
 11
1066.33634947
 21
-469.11757472
 31
0.0
  0
LINE
  5
351
  8
0
 62
     4
 10
1065.58634947
 20
-447.36757472
 30
0.0
 11
1065.58634947
 21
-468.36757472
 31
0.0
  0
LINE
  5
352
  8
0
 62
     4
 10
1063.58634947
 20
-447.36757472
 30
0.0
 11
1067.58634947
 21
-447.36757472
 31
0.0
  0
LINE
  5
353
  8
0
 62
     4
 10
1063.58634947
 20
-468.36757472
 30
0.0
 11
1067.58634947
 21
-468.36757472
 31
0.0
  0
TEXT
  5
354
  8
TXT_DIM49
 10
1064.08634947
 20
-484.72247901
 30
0.0
 40
2.5
  1
29
 50
90.00020741
  7
ARIAL
  0
LINE
  5
355
  8
0
 62
     4
 10
1066.58634947
 20
-469.36757472
 30
0.0
 11
1064.58634947
 21
-467.36757472
 31
0.0
  0
LINE
  5
356
  8
0
 62
     4
 10
1064.83634947
 20
-496.61757472
 30
0.0
 11
1066.33634947
 21
-498.11757472
 31
0.0
  0
LINE
  5
357
  8
0
 62
     4
 10
1065.58634947
 20
-468.36757472
 30
0.0
 11
1065.58634947
 21
-497.36757472
 31
0.0
  0
LINE
  5
358
  8
0
 62
     4
 10
1063.58634947
 20
-468.36757472
 30
0.0
 11
1067.58634947
 21
-468.36757472
 31
0.0
  0
LINE
  5
359
  8
0
 62
     4
 10
1063.58634947
 20
-497.36757472
 30
0.0
 11
1067.58634947
 21
-497.36757472
 31
0.0
  0
TEXT
  5
35A
  8
TXT_DIM49
 10
1064.08634947
 20
-509.72247901
 30
0.0
 40
2.5
  1
21
 50
90.00020741
  7
ARIAL
  0
LINE
  5
35B
  8
0
 62
     4
 10
1066.58634947
 20
-498.36757472
 30
0.0
 11
1064.58634947
 21
-496.36757472
 31
0.0
  0
LINE
  5
35C
  8
0
 62
     4
 10
1064.83634947
 20
-517.61757472
 30
0.0
 11
1066.33634947
 21
-519.11757472
 31
0.0
  0
LINE
  5
35D
  8
0
 62
     4
 10
1065.58634947
 20
-497.36757472
 30
0.0
 11
1065.58634947
 21
-518.36757472
 31
0.0
  0
LINE
  5
35E
  8
0
 62
     4
 10
1063.58634947
 20
-497.36757472
 30
0.0
 11
1067.58634947
 21
-497.36757472
 31
0.0
  0
LINE
  5
35F
  8
0
 62
     4
 10
1063.58634947
 20
-518.36757472
 30
0.0
 11
1067.58634947
 21
-518.36757472
 31
0.0
  0
TEXT
  5
360
  8
TXT_DIM49
 10
1064.08634947
 20
-523.79502686
 30
0.0
 40
2.5
  1
9
 50
90.00020741
  7
ARIAL
  0
LINE
  5
361
  8
0
 62
     4
 10
1066.58634947
 20
-519.36757472
 30
0.0
 11
1064.58634947
 21
-517.36757472
 31
0.0
  0
LINE
  5
362
  8
0
 62
     4
 10
1064.83634947
 20
-526.61757472
 30
0.0
 11
1066.33634947
 21
-528.11757472
 31
0.0
  0
LINE
  5
363
  8
0
 62
     4
 10
1065.58634947
 20
-518.36757472
 30
0.0
 11
1065.58634947
 21
-527.36757472
 31
0.0
  0
LINE
  5
364
  8
0
 62
     4
 10
1063.58634947
 20
-518.36757472
 30
0.0
 11
1067.58634947
 21
-518.36757472
 31
0.0
  0
LINE
  5
365
  8
0
 62
     4
 10
1063.58634947
 20
-527.36757472
 30
0.0
 11
1067.58634947
 21
-527.36757472
 31
0.0
  0
LINE
  5
366
  8
0
 62
     5
 10
1046.90255509
 20
-468.36757472
 30
0.0
 11
1043.1510404
 21
-476.37075445
 31
0.0
  0
TEXT
  5
367
  8
TXT_DIM49
 10
1038.71168537
 20
-477.62075445
 30
0.0
 40
2.5
  1
Ø6
  7
ARIAL
  0
LINE
  5
368
  8
0
 62
     5
 10
975.90255509
 20
-497.36757472
 30
0.0
 11
980.53462873
 21
-488.82120547
 31
0.0
  0
TEXT
  5
369
  8
TXT_DIM49
 10
980.53462873
 20
-490.07120547
 30
0.0
 40
2.5
  1
Ø6
  7
ARIAL
  0
TEXT
  5
36A
  8
TXT_DIM49
 10
1009.54765079
 20
-387.4330888
 30
0.0
 40
2.5
  1
89
  7
ARIAL
  0
LINE
  5
36B
  8
0
 62
     4
 10
967.90255509
 20
-387.9330888
 30
0.0
 11
965.90255509
 21
-389.9330888
 31
0.0
  0
LINE
  5
36C
  8
0
 62
     4
 10
1055.15255509
 20
-389.6830888
 30
0.0
 11
1056.65255509
 21
-388.1830888
 31
0.0
  0
LINE
  5
36D
  8
0
 62
     4
 10
966.90255509
 20
-388.9330888
 30
0.0
 11
1055.90255509
 21
-388.9330888
 31
0.0
  0
LINE
  5
36E
  8
0
 62
     4
 10
966.90255509
 20
-390.9330888
 30
0.0
 11
966.90255509
 21
-386.9330888
 31
0.0
  0
LINE
  5
36F
  8
0
 62
     4
 10
1055.90255509
 20
-390.9330888
 30
0.0
 11
1055.90255509
 21
-386.9330888
 31
0.0
  0
TEXT
  5
370
  8
TXT_DIM49
 10
959.24065688
 20
-404.94776533
 30
0.0
 40
2.5
  1
2,5
 50
90.00020741
  7
ARIAL
  0
LINE
  5
371
  8
0
 62
     4
 10
959.74065688
 20
-402.88084934
 30
0.0
 11
961.74065688
 21
-404.88084934
 31
0.0
  0
LINE
  5
372
  8
0
 62
     4
 10
961.49065688
 20
-402.13084934
 30
0.0
 11
959.99065688
 21
-400.63084934
 31
0.0
  0
LINE
  5
373
  8
0
 62
     4
 10
960.74065688
 20
-403.88084934
 30
0.0
 11
960.74065688
 21
-401.38084934
 31
0.0
  0
LINE
  5
374
  8
0
 62
     4
 10
962.74065688
 20
-403.88084934
 30
0.0
 11
960.24065688
 21
-403.88084934
 31
0.0
  0
LINE
  5
375
  8
0
 62
     4
 10
962.74065688
 20
-401.38084934
 30
0.0
 11
960.24065688
 21
-401.38084934
 31
0.0
  0
POINT
  5
376
  8
0
 10
955.0379509
 20
-442.77249154
 30
0.0
  0
POINT
  5
377
  8
0
 62
     3
 10
1093.70731822
 20
-613.10980948
 30
0.0
  0
POINT
  5
378
  8
0
 62
     3
 10
1159.57173192
 20
-595.19081458
 30
0.0
  0
POINT
  5
379
  8
0
 62
     3
 10
1093.70731822
 20
-595.19081458
 30
0.0
  0
POINT
  5
37A
  8
0
 62
     3
 10
1159.57173192
 20
-613.10980948
 30
0.0
  0
POINT
  5
37B
  8
0
 62
     3
 10
1141.88037698
 20
-618.79249154
 30
0.0
  0
POINT
  5
37C
  8
0
 62
     3
 10
1159.57240895
 20
-613.97921814
 30
0.0
  0
POINT
  5
37D
  8
0
 62
     3
 10
1141.88037698
 20
-613.97921814
 30
0.0
  0
POINT
  5
37E
  8
0
 62
     3
 10
1159.57240895
 20
-618.79249154
 30
0.0
  0
ENDSEC
  0
EOF
