  0
SECTION
  2
HEADER
  9
$ACADVER
  1
AC1018
  9
$ACADMAINTVER
 70
     0
  9
$DWGCODEPAGE
  3
ANSI_1252
  9
$LASTSAVEDBY
  1
cloudconvert
  9
$INSBASE
 10
0.0
 20
0.0
 30
0.0
  9
$EXTMIN
 10
319.14546602
 20
308.41913171
 30
0.0
  9
$EXTMAX
 10
1460.1733162
 20
857.94884149
 30
0.0
  9
$LIMMIN
 10
319.14546602
 20
308.41913171
  9
$LIMMAX
 10
1460.1733162
 20
857.94884149
  9
$ORTHOMODE
 70
     0
  9
$REGENMODE
 70
     1
  9
$FILLMODE
 70
     1
  9
$QTEXTMODE
 70
     0
  9
$MIRRTEXT
 70
     1
  9
$LTSCALE
 40
1.0
  9
$ATTMODE
 70
     1
  9
$TEXTSIZE
 40
1.0
  9
$TRACEWID
 40
0.05
  9
$TEXTSTYLE
  7
STANDARD
  9
$CLAYER
  8
0
  9
$CELTYPE
  6
ByBlock
  9
$CECOLOR
 62
   256
  9
$CELTSCALE
 40
1.0
  9
$DISPSILH
 70
     0
  9
$DIMSCALE
 40
1.0
  9
$DIMASZ
 40
0.18
  9
$DIMEXO
 40
0.0625
  9
$DIMDLI
 40
0.38
  9
$DIMRND
 40
0.0
  9
$DIMDLE
 40
0.0
  9
$DIMEXE
 40
0.18
  9
$DIMTP
 40
0.0
  9
$DIMTM
 40
0.0
  9
$DIMTXT
 40
0.18
  9
$DIMCEN
 40
0.09
  9
$DIMTSZ
 40
0.0
  9
$DIMTOL
 70
     0
  9
$DIMLIM
 70
     0
  9
$DIMTIH
 70
     1
  9
$DIMTOH
 70
     1
  9
$DIMSE1
 70
     0
  9
$DIMSE2
 70
     0
  9
$DIMTAD
 70
     0
  9
$DIMZIN
 70
     0
  9
$DIMBLK
  1

  9
$DIMASO
 70
     1
  9
$DIMSHO
 70
     1
  9
$DIMPOST
  1

  9
$DIMAPOST
  1

  9
$DIMALT
 70
     0
  9
$DIMALTD
 70
     2
  9
$DIMALTF
 40
25.4
  9
$DIMLFAC
 40
1.0
  9
$DIMTOFL
 70
     0
  9
$DIMTVP
 40
0.0
  9
$DIMTIX
 70
     0
  9
$DIMSOXD
 70
     0
  9
$DIMSAH
 70
     0
  9
$DIMBLK1
  1

  9
$DIMBLK2
  1

  9
$DIMSTYLE
  2
ISO-25
  9
$DIMCLRD
 70
     0
  9
$DIMCLRE
 70
     0
  9
$DIMCLRT
 70
     0
  9
$DIMTFAC
 40
1.0
  9
$DIMGAP
 40
0.09
  9
$DIMJUST
 70
     0
  9
$DIMSD1
 70
     0
  9
$DIMSD2
 70
     0
  9
$DIMTOLJ
 70
     1
  9
$DIMTZIN
 70
     0
  9
$DIMALTZ
 70
     0
  9
$DIMALTTZ
 70
     0
  9
$DIMUPT
 70
     0
  9
$DIMDEC
 70
     4
  9
$DIMTDEC
 70
     4
  9
$DIMALTU
 70
     2
  9
$DIMALTTD
 70
     2
  9
$DIMTXSTY
  7
STANDARD
  9
$DIMAUNIT
 70
     0
  9
$DIMADEC
 70
     0
  9
$DIMALTRND
 40
0.0
  9
$DIMAZIN
 70
     0
  9
$DIMDSEP
 70
    46
  9
$DIMATFIT
 70
     3
  9
$DIMFRAC
 70
     0
  9
$DIMLDRBLK
  1

  9
$DIMLUNIT
 70
     2
  9
$DIMLWD
 70
    -2
  9
$DIMLWE
 70
    -2
  9
$DIMTMOVE
 70
     0
  9
$LUNITS
 70
     2
  9
$LUPREC
 70
     4
  9
$SKETCHINC
 40
0.1
  9
$FILLETRAD
 40
0.0
  9
$AUNITS
 70
     0
  9
$AUPREC
 70
     0
  9
$MENU
  1
.
  9
$ELEVATION
 40
0.0
  9
$PELEVATION
 40
0.0
  9
$THICKNESS
 40
0.0
  9
$LIMCHECK
 70
     0
  9
$CHAMFERA
 40
0.0
  9
$CHAMFERB
 40
0.0
  9
$CHAMFERC
 40
0.0
  9
$CHAMFERD
 40
0.0
  9
$SKPOLY
 70
     0
  9
$TDCREATE
 40
2447893.0
  9
$TDUCREATE
 40
0.0
  9
$TDUPDATE
 40
2460790.419724745
  9
$TDUUPDATE
 40
2460790.419724745
  9
$TDINDWG
 40
0.0
  9
$TDUSRTIMER
 40
0.0
  9
$USRTIMER
 70
     1
  9
$ANGBASE
 50
0.0
  9
$ANGDIR
 70
     0
  9
$PDMODE
 70
     0
  9
$PDSIZE
 40
0.0
  9
$PLINEWID
 40
0.0
  9
$SPLFRAME
 70
     0
  9
$SPLINETYPE
 70
     6
  9
$SPLINESEGS
 70
     8
  9
$HANDSEED
  5
4A2
  9
$SURFTAB1
 70
     6
  9
$SURFTAB2
 70
     6
  9
$SURFTYPE
 70
     6
  9
$SURFU
 70
     6
  9
$SURFV
 70
     6
  9
$UCSBASE
  2

  9
$UCSNAME
  2

  9
$UCSORG
 10
0.0
 20
0.0
 30
0.0
  9
$UCSXDIR
 10
1.0
 20
0.0
 30
0.0
  9
$UCSYDIR
 10
0.0
 20
1.0
 30
0.0
  9
$UCSORTHOREF
  2

  9
$UCSORTHOVIEW
 70
     0
  9
$UCSORGTOP
 10
0.0
 20
0.0
 30
0.0
  9
$UCSORGBOTTOM
 10
0.0
 20
0.0
 30
0.0
  9
$UCSORGLEFT
 10
0.0
 20
0.0
 30
0.0
  9
$UCSORGRIGHT
 10
0.0
 20
0.0
 30
0.0
  9
$UCSORGFRONT
 10
0.0
 20
0.0
 30
0.0
  9
$UCSORGBACK
 10
0.0
 20
0.0
 30
0.0
  9
$PUCSBASE
  2

  9
$PUCSNAME
  2

  9
$PUCSORG
 10
0.0
 20
0.0
 30
0.0
  9
$PUCSXDIR
 10
1.0
 20
0.0
 30
0.0
  9
$PUCSYDIR
 10
0.0
 20
1.0
 30
0.0
  9
$PUCSORTHOREF
  2

  9
$PUCSORTHOVIEW
 70
     0
  9
$PUCSORGTOP
 10
0.0
 20
0.0
 30
0.0
  9
$PUCSORGBOTTOM
 10
0.0
 20
0.0
 30
0.0
  9
$PUCSORGLEFT
 10
0.0
 20
0.0
 30
0.0
  9
$PUCSORGRIGHT
 10
0.0
 20
0.0
 30
0.0
  9
$PUCSORGFRONT
 10
0.0
 20
0.0
 30
0.0
  9
$PUCSORGBACK
 10
0.0
 20
0.0
 30
0.0
  9
$USERI1
 70
     0
  9
$USERI2
 70
     0
  9
$USERI3
 70
     0
  9
$USERI4
 70
     0
  9
$USERI5
 70
     0
  9
$USERR1
 40
0.0
  9
$USERR2
 40
0.0
  9
$USERR3
 40
0.0
  9
$USERR4
 40
0.0
  9
$USERR5
 40
0.0
  9
$WORLDVIEW
 70
     1
  9
$SHADEDGE
 70
     3
  9
$SHADEDIF
 70
    70
  9
$TILEMODE
 70
     1
  9
$MAXACTVP
 70
    64
  9
$PINSBASE
 10
0.0
 20
0.0
 30
0.0
  9
$PLIMCHECK
 70
     0
  9
$PEXTMIN
 10
1.000000000000000E+20
 20
1.000000000000000E+20
 30
1.000000000000000E+20
  9
$PEXTMAX
 10
-1.000000000000000E+20
 20
-1.000000000000000E+20
 30
-1.000000000000000E+20
  9
$PLIMMIN
 10
0.0
 20
0.0
  9
$PLIMMAX
 10
12.0
 20
9.0
  9
$UNITMODE
 70
     0
  9
$VISRETAIN
 70
     0
  9
$PLINEGEN
 70
     0
  9
$PSLTSCALE
 70
     1
  9
$TREEDEPTH
 70
  3020
  9
$CMLSTYLE
  2
Standard
  9
$CMLJUST
 70
     0
  9
$CMLSCALE
 40
1.0
  9
$PROXYGRAPHICS
 70
     1
  9
$MEASUREMENT
 70
     1
  9
$CELWEIGHT
370
    -1
  9
$ENDCAPS
280
     0
  9
$JOINSTYLE
280
     0
  9
$LWDISPLAY
290
     0
  9
$INSUNITS
 70
     4
  9
$HYPERLINKBASE
  1

  9
$STYLESHEET
  1

  9
$XEDIT
290
     1
  9
$CEPSNTYPE
380
     0
  9
$PSTYLEMODE
290
     1
  9
$FINGERPRINTGUID
  2
{0a14a039-2f36-43a3-8af5-53495102798d}
  9
$VERSIONGUID
  2
{FAEB1C32-E019-11D5-929B-00C0DF256EC4}
  9
$EXTNAMES
290
     1
  9
$PSVPSCALE
 40
0.0
  9
$OLESTARTUP
290
     0
  9
$SORTENTS
280
   127
  9
$INDEXCTL
280
     0
  9
$HIDETEXT
280
     1
  9
$XCLIPFRAME
290
     0
  9
$HALOGAP
280
     0
  9
$OBSCOLOR
 70
   257
  9
$OBSLTYPE
280
     0
  9
$INTERSECTIONDISPLAY
280
     0
  9
$INTERSECTIONCOLOR
 70
   257
  9
$DIMASSOC
280
     2
  9
$PROJECTNAME
  1

  0
ENDSEC
  0
SECTION
  2
CLASSES
  0
CLASS
  1
DICTIONARYVAR
  2
AcDbDictionaryVar
  3
ObjectDBX Classes
 90
        0
 91
        3
280
     0
281
     0
  0
CLASS
  1
ACDBDICTIONARYWDFLT
  2
AcDbDictionaryWithDefault
  3
ObjectDBX Classes
 90
        0
 91
        3
280
     0
281
     0
  0
CLASS
  1
SCALE
  2
AcDbScale
  3
ObjectDBX Classes
 90
     1153
 91
        3
280
     0
281
     0
  0
CLASS
  1
VISUALSTYLE
  2
AcDbVisualStyle
  3
ObjectDBX Classes
 90
     4095
 91
        3
280
     0
281
     0
  0
CLASS
  1
MATERIAL
  2
AcDbMaterial
  3
ObjectDBX Classes
 90
     1153
 91
        3
280
     0
281
     0
  0
CLASS
  1
TABLESTYLE
  2
AcDbTableStyle
  3
ObjectDBX Classes
 90
     4095
 91
        3
280
     0
281
     0
  0
CLASS
  1
MLEADERSTYLE
  2
AcDbMLeaderStyle
  3
ACDB_MLEADERSTYLE_CLASS
 90
     4095
 91
        3
280
     0
281
     0
  0
CLASS
  1
CELLSTYLEMAP
  2
AcDbCellStyleMap
  3
ObjectDBX Classes
 90
     1152
 91
        3
280
     0
281
     0
  0
ENDSEC
  0
SECTION
  2
TABLES
  0
TABLE
  2
VPORT
  5
1
102
{ACAD_XDICTIONARY
360
45B
102
}
330
0
100
AcDbSymbolTable
 70
     1
  0
VPORT
  5
2
330
1
100
AcDbSymbolTableRecord
100
AcDbViewportTableRecord
  2
*Active
 70
     0
 10
0.0
 20
0.0
 11
1.0
 21
1.0
 12
889.65939111
 22
583.1839866
 13
0.0
 23
0.0
 14
1.0
 24
1.0
 15
0.0
 25
0.0
 16
0.0
 26
0.0
 36
1.0
 17
0.0
 27
0.0
 37
0.0
 40
549.529709782
 41
2.076371541
 42
50.0
 43
0.0
 44
0.0
 50
0.0
 51
0.0
 71
     0
 72
   100
 73
     1
 74
     1
 75
     0
 76
     0
 77
     0
 78
     0
281
     0
 65
     1
110
0.0
120
0.0
130
0.0
111
1.0
121
0.0
131
0.0
112
0.0
122
1.0
132
0.0
 79
     0
146
0.0
  0
ENDTAB
  0
TABLE
  2
LTYPE
  5
3
330
0
100
AcDbSymbolTable
 70
    19
  0
LTYPE
  5
4
330
3
100
AcDbSymbolTableRecord
100
AcDbLinetypeTableRecord
  2
ByBlock
 70
     0
  3

 72
    65
 73
     0
 40
0.0
  0
LTYPE
  5
5
330
3
100
AcDbSymbolTableRecord
100
AcDbLinetypeTableRecord
  2
ByLayer
 70
     0
  3

 72
    65
 73
     0
 40
0.0
  0
LTYPE
  5
6
330
3
100
AcDbSymbolTableRecord
100
AcDbLinetypeTableRecord
  2
CONTINUOUS
 70
     0
  3
Solid line
 72
    65
 73
     0
 40
0.0
  0
LTYPE
  5
7
330
3
100
AcDbSymbolTableRecord
100
AcDbLinetypeTableRecord
  2
DOT
 70
     0
  3
..............
 72
    65
 73
     2
 40
2.0
 49
0.5
 74
     0
 49
-1.5
 74
     0
  0
LTYPE
  5
8
330
3
100
AcDbSymbolTableRecord
100
AcDbLinetypeTableRecord
  2
HIDDEN
 70
     0
  3
-- -- -- -- --
 72
    65
 73
     2
 40
7.0
 49
4.0
 74
     0
 49
-3.0
 74
     0
  0
LTYPE
  5
9
330
3
100
AcDbSymbolTableRecord
100
AcDbLinetypeTableRecord
  2
DASHDOT
 70
     0
  3
--.--.--.--.--
 72
    65
 73
     4
 40
8.5
 49
4.0
 74
     0
 49
-2.0
 74
     0
 49
0.5
 74
     0
 49
-2.0
 74
     0
  0
LTYPE
  5
A
330
3
100
AcDbSymbolTableRecord
100
AcDbLinetypeTableRecord
  2
STRICHPUNKT2
 70
     0
  3
--.--.--.--.--
 72
    65
 73
     4
 40
18.5
 49
10.0
 74
     0
 49
-4.0
 74
     0
 49
0.5
 74
     0
 49
-4.0
 74
     0
  0
LTYPE
  5
B
330
3
100
AcDbSymbolTableRecord
100
AcDbLinetypeTableRecord
  2
STRICHPUNKT3
 70
     0
  3
--.--.--.--.--
 72
    65
 73
     4
 40
35.5
 49
25.0
 74
     0
 49
-5.0
 74
     0
 49
0.5
 74
     0
 49
-5.0
 74
     0
  0
LTYPE
  5
13F
330
3
100
AcDbSymbolTableRecord
100
AcDbLinetypeTableRecord
  2
PHANTOM
 70
     0
  3
--..--..--..--
 72
    65
 73
     6
 40
23.0
 49
10.0
 74
     0
 49
-4.0
 74
     0
 49
0.5
 74
     0
 49
-4.0
 74
     0
 49
0.5
 74
     0
 49
-4.0
 74
     0
  0
LTYPE
  5
140
330
3
100
AcDbSymbolTableRecord
100
AcDbLinetypeTableRecord
  2
PHANTOM2
 70
     0
  3
--..--..--..--
 72
    65
 73
     6
 40
33.0
 49
20.0
 74
     0
 49
-4.0
 74
     0
 49
0.5
 74
     0
 49
-4.0
 74
     0
 49
0.5
 74
     0
 49
-4.0
 74
     0
  0
LTYPE
  5
141
330
3
100
AcDbSymbolTableRecord
100
AcDbLinetypeTableRecord
  2
PHANTOM3
 70
     0
  3
--..--..--..--
 72
    65
 73
     6
 40
50.0
 49
37.0
 74
     0
 49
-4.0
 74
     0
 49
0.5
 74
     0
 49
-4.0
 74
     0
 49
0.5
 74
     0
 49
-4.0
 74
     0
  0
LTYPE
  5
142
330
3
100
AcDbSymbolTableRecord
100
AcDbLinetypeTableRecord
  2
STR3PKT
 70
     0
  3
--...--...--...
 72
    65
 73
     8
 40
31.5
 49
20.0
 74
     0
 49
-2.5
 74
     0
 49
0.5
 74
     0
 49
-2.5
 74
     0
 49
0.5
 74
     0
 49
-2.5
 74
     0
 49
0.5
 74
     0
 49
-2.5
 74
     0
  0
LTYPE
  5
143
330
3
100
AcDbSymbolTableRecord
100
AcDbLinetypeTableRecord
  2
2STRPKT
 70
     0
  3
--.--.--.--.--
 72
    65
 73
     6
 40
28.0
 49
10.0
 74
     0
 49
-2.5
 74
     0
 49
10.0
 74
     0
 49
-2.5
 74
     0
 49
0.5
 74
     0
 49
-2.5
 74
     0
  0
LTYPE
  5
144
330
3
100
AcDbSymbolTableRecord
100
AcDbLinetypeTableRecord
  2
GESTRICHELT2
 70
     0
  3
-- -- -- -- --
 72
    65
 73
     2
 40
25.0
 49
10.0
 74
     0
 49
-15.0
 74
     0
  0
LTYPE
  5
145
330
3
100
AcDbSymbolTableRecord
100
AcDbLinetypeTableRecord
  2
2STR2PKT
 70
     0
  3
--..--..--..--
 72
    65
 73
     8
 40
31.0
 49
10.0
 74
     0
 49
-2.5
 74
     0
 49
10.0
 74
     0
 49
-2.5
 74
     0
 49
0.5
 74
     0
 49
-2.5
 74
     0
 49
0.5
 74
     0
 49
-2.5
 74
     0
  0
LTYPE
  5
146
330
3
100
AcDbSymbolTableRecord
100
AcDbLinetypeTableRecord
  2
STR3PKT2
 70
     0
  3
--...--...--...
 72
    65
 73
     8
 40
21.0
 49
10.0
 74
     0
 49
-2.5
 74
     0
 49
0.5
 74
     0
 49
-2.5
 74
     0
 49
0.5
 74
     0
 49
-2.5
 74
     0
 49
0.5
 74
     0
 49
-2.0
 74
     0
  0
LTYPE
  5
147
330
3
100
AcDbSymbolTableRecord
100
AcDbLinetypeTableRecord
  2
2STR3PKT
 70
     0
  3
--...--...--...
 72
    65
 73
    10
 40
34.0
 49
10.0
 74
     0
 49
-2.5
 74
     0
 49
10.0
 74
     0
 49
-2.5
 74
     0
 49
0.5
 74
     0
 49
-2.5
 74
     0
 49
0.5
 74
     0
 49
-2.5
 74
     0
 49
0.5
 74
     0
 49
-2.5
 74
     0
  0
LTYPE
  5
148
330
3
100
AcDbSymbolTableRecord
100
AcDbLinetypeTableRecord
  2
STRKSTR
 70
     0
  3
-- - -- - -- -
 72
    65
 73
     4
 40
30.0
 49
20.0
 74
     0
 49
-2.5
 74
     0
 49
5.0
 74
     0
 49
-2.5
 74
     0
  0
LTYPE
  5
149
330
3
100
AcDbSymbolTableRecord
100
AcDbLinetypeTableRecord
  2
STRKSTR2
 70
     0
  3
-- - -- - -- -
 72
    65
 73
     6
 40
37.5
 49
20.0
 74
     0
 49
-2.5
 74
     0
 49
5.0
 74
     0
 49
-2.5
 74
     0
 49
5.0
 74
     0
 49
-2.5
 74
     0
  0
LTYPE
  5
14A
330
3
100
AcDbSymbolTableRecord
100
AcDbLinetypeTableRecord
  2
STRKSTR3
 70
     0
  3
-- - -- - -- -
 72
    65
 73
     8
 40
45.0
 49
20.0
 74
     0
 49
-2.5
 74
     0
 49
5.0
 74
     0
 49
-2.5
 74
     0
 49
5.0
 74
     0
 49
-2.5
 74
     0
 49
5.0
 74
     0
 49
-2.5
 74
     0
  0
LTYPE
  5
14B
330
3
100
AcDbSymbolTableRecord
100
AcDbLinetypeTableRecord
  2
PUNKT2
 70
     0
  3
..............
 72
    65
 73
     2
 40
3.5
 49
0.5
 74
     0
 49
-3.0
 74
     0
  0
ENDTAB
  0
TABLE
  2
LAYER
  5
14C
330
0
100
AcDbSymbolTable
 70
    16
  0
LAYER
  5
14D
330
14C
100
AcDbSymbolTableRecord
100
AcDbLayerTableRecord
  2
0
 70
     0
 62
     7
  6
CONTINUOUS
370
    -3
390
427
  0
LAYER
  5
14E
330
14C
100
AcDbSymbolTableRecord
100
AcDbLayerTableRecord
  2
LE_GREEN
 70
     0
 62
     3
  6
CONTINUOUS
370
    -3
390
427
  0
LAYER
  5
14F
330
14C
100
AcDbSymbolTableRecord
100
AcDbLayerTableRecord
  2
LE_RED
 70
     0
 62
     1
  6
CONTINUOUS
370
    -3
390
427
  0
LAYER
  5
150
330
14C
100
AcDbSymbolTableRecord
100
AcDbLayerTableRecord
  2
LE_ALL
 70
     0
 62
     7
  6
CONTINUOUS
370
    50
390
427
  0
LAYER
  5
151
330
14C
100
AcDbSymbolTableRecord
100
AcDbLayerTableRecord
  2
LE_HIDDEN1
 70
     0
 62
     3
  6
HIDDEN
370
    -3
390
427
  0
LAYER
  5
152
330
14C
100
AcDbSymbolTableRecord
100
AcDbLayerTableRecord
  2
LE_HIDDEN
 70
     0
 62
     7
  6
CONTINUOUS
370
    -3
390
427
  0
LAYER
  5
153
330
14C
100
AcDbSymbolTableRecord
100
AcDbLayerTableRecord
  2
LE_MIDDLE
 70
     0
 62
     7
  6
CONTINUOUS
370
    -3
390
427
  0
LAYER
  5
154
330
14C
100
AcDbSymbolTableRecord
100
AcDbLayerTableRecord
  2
TXT_YELLOW
 70
     0
 62
     2
  6
CONTINUOUS
370
    -3
390
427
  0
LAYER
  5
155
330
14C
100
AcDbSymbolTableRecord
100
AcDbLayerTableRecord
  2
TXT_DIM49
 70
     0
 62
     2
  6
CONTINUOUS
370
    -3
390
427
  0
LAYER
  5
156
330
14C
100
AcDbSymbolTableRecord
100
AcDbLayerTableRecord
  2
TXT_ALL
 70
     0
 62
     7
  6
CONTINUOUS
370
    -3
390
427
  0
LAYER
  5
157
330
14C
100
AcDbSymbolTableRecord
100
AcDbLayerTableRecord
  2
DIM49
 70
     0
 62
     4
  6
CONTINUOUS
370
    -3
390
427
  0
LAYER
  5
158
330
14C
100
AcDbSymbolTableRecord
100
AcDbLayerTableRecord
  2
HATCH
 70
     0
 62
     3
  6
CONTINUOUS
370
    -3
390
427
  0
LAYER
  5
159
330
14C
100
AcDbSymbolTableRecord
100
AcDbLayerTableRecord
  2
APPLE
 70
     0
 62
     7
  6
CONTINUOUS
370
    -3
390
427
  0
LAYER
  5
15A
330
14C
100
AcDbSymbolTableRecord
100
AcDbLayerTableRecord
  2
10
 70
     0
 62
     7
  6
CONTINUOUS
370
    -3
390
427
  0
LAYER
  5
15B
330
14C
100
AcDbSymbolTableRecord
100
AcDbLayerTableRecord
  2
20
 70
     0
 62
     7
  6
CONTINUOUS
370
    -3
390
427
  0
LAYER
  5
15C
330
14C
100
AcDbSymbolTableRecord
100
AcDbLayerTableRecord
  2
49
 70
     0
 62
     7
  6
CONTINUOUS
370
    -3
390
427
  0
ENDTAB
  0
TABLE
  2
STYLE
  5
15D
330
0
100
AcDbSymbolTable
 70
     5
  0
STYLE
  5
15E
330
15D
100
AcDbSymbolTableRecord
100
AcDbTextStyleTableRecord
  2
MONOTXT
 70
     0
 40
0.0
 41
1.0
 50
0.0
 71
     0
 42
1.0
  3
monotxt.shx
  4

  0
STYLE
  5
15F
330
15D
100
AcDbSymbolTableRecord
100
AcDbTextStyleTableRecord
  2
STANDARD
 70
     0
 40
0.0
 41
1.0
 50
0.0
 71
     0
 42
1.0
  3
txt
  4

  0
STYLE
  5
160
330
15D
100
AcDbSymbolTableRecord
100
AcDbTextStyleTableRecord
  2
ARIAL
 70
     0
 40
0.0
 41
1.0
 50
0.0
 71
     0
 42
1.0
  3
arial.ttf
  4

  0
STYLE
  5
161
330
15D
100
AcDbSymbolTableRecord
100
AcDbTextStyleTableRecord
  2
ARIAL Narrow
 70
     0
 40
0.0
 41
1.0
 50
0.0
 71
     0
 42
1.0
  3
ArialN.ttf
  4

  0
STYLE
  5
162
330
15D
100
AcDbSymbolTableRecord
100
AcDbTextStyleTableRecord
  2
ISOCPEUR
 70
     0
 40
0.0
 41
1.0
 50
0.0
 71
     0
 42
1.0
  3
ISOCPEUR.ttf
  4

  0
ENDTAB
  0
TABLE
  2
VIEW
  5
163
330
0
100
AcDbSymbolTable
 70
     0
  0
ENDTAB
  0
TABLE
  2
UCS
  5
164
330
0
100
AcDbSymbolTable
 70
     0
  0
ENDTAB
  0
TABLE
  2
APPID
  5
165
330
0
100
AcDbSymbolTable
 70
     2
  0
APPID
  5
166
330
165
100
AcDbSymbolTableRecord
100
AcDbRegAppTableRecord
  2
ACAD
 70
     0
  0
APPID
  5
499
330
165
100
AcDbSymbolTableRecord
100
AcDbRegAppTableRecord
  2
ACAD_MLEADERVER
 70
     0
  0
ENDTAB
  0
TABLE
  2
DIMSTYLE
  5
167
330
0
100
AcDbSymbolTable
 70
     1
100
AcDbDimStyleTable
  0
DIMSTYLE
105
424
330
167
100
AcDbSymbolTableRecord
100
AcDbDimStyleTableRecord
  2
ISO-25
 70
     0
 41
2.5
 42
0.625
 43
3.75
 44
1.25
 73
     0
 74
     0
 77
     1
 78
     8
140
2.5
141
2.5
143
0.03937007874016
147
0.625
171
     3
172
     1
178
     0
271
     2
272
     2
274
     3
278
    44
283
     0
284
     8
340
15F
  0
ENDTAB
  0
TABLE
  2
BLOCK_RECORD
  5
168
330
0
100
AcDbSymbolTable
 70
     0
  0
BLOCK_RECORD
  5
1E
330
168
100
AcDbSymbolTableRecord
100
AcDbBlockTableRecord
  2
*Model_Space
340
21
  0
BLOCK_RECORD
  5
1A
330
168
100
AcDbSymbolTableRecord
100
AcDbBlockTableRecord
  2
*Paper_Space
340
1D
  0
ENDTAB
  0
ENDSEC
  0
SECTION
  2
BLOCKS
  0
BLOCK
  5
169
330
1E
100
AcDbEntity
  8
0
100
AcDbBlockBegin
  2
*Model_Space
 70
     0
 10
0.0
 20
0.0
 30
0.0
  3
*Model_Space
  1

  0
ENDBLK
  5
16A
330
1E
100
AcDbEntity
  8
0
100
AcDbBlockEnd
  0
BLOCK
  5
16B
330
1A
100
AcDbEntity
 67
     1
  8
0
100
AcDbBlockBegin
  2
*Paper_Space
 70
     0
 10
0.0
 20
0.0
 30
0.0
  3
*Paper_Space
  1

  0
ENDBLK
  5
16C
330
1A
100
AcDbEntity
 67
     1
  8
0
100
AcDbBlockEnd
  0
ENDSEC
  0
SECTION
  2
ENTITIES
  0
POLYLINE
  5
16D
330
1E
100
AcDbEntity
  8
0
100
AcDb2dPolyline
 66
     1
 10
0.0
 20
0.0
 30
0.0
 70
     1
  0
VERTEX
  5
16E
330
16D
100
AcDbEntity
  8
0
100
AcDbVertex
100
AcDb2dVertex
 10
528.11855359
 20
401.62920681
 30
0.0
  0
VERTEX
  5
16F
330
16D
100
AcDbEntity
  8
0
100
AcDbVertex
100
AcDb2dVertex
 10
948.11855359
 20
401.62920681
 30
0.0
  0
VERTEX
  5
170
330
16D
100
AcDbEntity
  8
0
100
AcDbVertex
100
AcDb2dVertex
 10
948.11855359
 20
698.62920681
 30
0.0
  0
VERTEX
  5
171
330
16D
100
AcDbEntity
  8
0
100
AcDbVertex
100
AcDb2dVertex
 10
528.11855359
 20
698.62920681
 30
0.0
  0
SEQEND
  5
172
330
16D
100
AcDbEntity
  8
0
  0
POLYLINE
  5
173
330
1E
100
AcDbEntity
  8
0
100
AcDb2dPolyline
 66
     1
 10
0.0
 20
0.0
 30
0.0
 70
     1
  0
VERTEX
  5
174
330
173
100
AcDbEntity
  8
0
100
AcDbVertex
100
AcDb2dVertex
 10
533.11855359
 20
406.62920681
 30
0.0
  0
VERTEX
  5
175
330
173
100
AcDbEntity
  8
0
100
AcDbVertex
100
AcDb2dVertex
 10
943.11855359
 20
406.62920681
 30
0.0
  0
VERTEX
  5
176
330
173
100
AcDbEntity
  8
0
100
AcDbVertex
100
AcDb2dVertex
 10
943.11855359
 20
693.62920681
 30
0.0
  0
VERTEX
  5
177
330
173
100
AcDbEntity
  8
0
100
AcDbVertex
100
AcDb2dVertex
 10
533.11855359
 20
693.62920681
 30
0.0
  0
SEQEND
  5
178
330
173
100
AcDbEntity
  8
0
  0
LINE
  5
179
330
1E
100
AcDbEntity
  8
0
100
AcDbLine
 10
758.11855359
 20
406.62920681
 30
0.0
 11
758.11855359
 21
401.62920681
 31
0.0
  0
LINE
  5
17A
330
1E
100
AcDbEntity
  8
0
100
AcDbLine
 10
758.11855359
 20
693.62920681
 30
0.0
 11
758.11855359
 21
698.62920681
 31
0.0
  0
LINE
  5
17B
330
1E
100
AcDbEntity
  8
0
100
AcDbLine
 10
548.11855359
 20
406.62920681
 30
0.0
 11
548.11855359
 21
401.62920681
 31
0.0
  0
LINE
  5
17C
330
1E
100
AcDbEntity
  8
0
100
AcDbLine
 10
548.11855359
 20
693.62920681
 30
0.0
 11
548.11855359
 21
698.62920681
 31
0.0
  0
TEXT
  5
17D
330
1E
100
AcDbEntity
  8
TXT_ALL
 62
     4
100
AcDbText
 10
947.11855359
 20
402.62920681
 30
0.0
 40
2.5
  1

 50
90.00020741
100
AcDbText
  0
POLYLINE
  5
17E
330
1E
100
AcDbEntity
  8
0
100
AcDb2dPolyline
 66
     1
 10
0.0
 20
0.0
 30
0.0
  0
VERTEX
  5
17F
330
17E
100
AcDbEntity
  8
0
100
AcDbVertex
100
AcDb2dVertex
 10
943.11855359
 20
683.62920681
 30
0.0
  0
VERTEX
  5
180
330
17E
100
AcDbEntity
  8
0
100
AcDbVertex
100
AcDb2dVertex
 10
874.12525359
 20
683.62920681
 30
0.0
  0
VERTEX
  5
181
330
17E
100
AcDbEntity
  8
0
100
AcDbVertex
100
AcDb2dVertex
 10
874.12525359
 20
693.62920681
 30
0.0
  0
SEQEND
  5
182
330
17E
100
AcDbEntity
  8
0
  0
LINE
  5
183
330
1E
100
AcDbEntity
  8
0
100
AcDbLine
 10
876.02855359
 20
426.12920681
 30
0.0
 11
736.13855359
 21
426.12920681
 31
0.0
  0
LINE
  5
184
330
1E
100
AcDbEntity
  8
0
100
AcDbLine
 10
736.13855359
 20
416.37920681
 30
0.0
 11
876.02855359
 21
416.37920681
 31
0.0
  0
POLYLINE
  5
185
330
1E
100
AcDbEntity
  8
0
100
AcDb2dPolyline
 66
     1
 10
0.0
 20
0.0
 30
0.0
  0
VERTEX
  5
186
330
185
100
AcDbEntity
  8
0
100
AcDbVertex
100
AcDb2dVertex
 10
736.13855359
 20
426.12920681
 30
0.0
  0
VERTEX
  5
187
330
185
100
AcDbEntity
  8
0
100
AcDbVertex
100
AcDb2dVertex
 10
736.13855359
 20
416.37920681
 30
0.0
  0
VERTEX
  5
188
330
185
100
AcDbEntity
  8
0
100
AcDbVertex
100
AcDb2dVertex
 10
736.13855359
 20
406.62920681
 30
0.0
  0
SEQEND
  5
189
330
185
100
AcDbEntity
  8
0
  0
POLYLINE
  5
18A
330
1E
100
AcDbEntity
  8
0
100
AcDb2dPolyline
 66
     1
 10
0.0
 20
0.0
 30
0.0
  0
VERTEX
  5
18B
330
18A
100
AcDbEntity
  8
0
100
AcDbVertex
100
AcDb2dVertex
 10
806.08355359
 20
426.12920681
 30
0.0
  0
VERTEX
  5
18C
330
18A
100
AcDbEntity
  8
0
100
AcDbVertex
100
AcDb2dVertex
 10
806.08355359
 20
416.37920681
 30
0.0
  0
VERTEX
  5
18D
330
18A
100
AcDbEntity
  8
0
100
AcDbVertex
100
AcDb2dVertex
 10
806.08355359
 20
406.62920681
 30
0.0
  0
SEQEND
  5
18E
330
18A
100
AcDbEntity
  8
0
  0
TEXT
  5
18F
330
1E
100
AcDbEntity
  8
TXT_ALL
100
AcDbText
 10
738.13855359
 20
419.9542068600001
 30
0.0
 40
2.5999999
  1
E-mail: verkoop@jonkers-bouwmetaal.nl
  7
ARIAL
 11
738.13855359
 21
421.25420681
 31
0.0
100
AcDbText
 73
     2
  0
TEXT
  5
190
330
1E
100
AcDbEntity
  8
TXT_ALL
100
AcDbText
 10
738.13855359
 20
410.2042068600001
 30
0.0
 40
2.5999999
  1
Telefoon: 0527-685156
  7
ARIAL
 11
738.13855359
 21
411.50420681
 31
0.0
100
AcDbText
 73
     2
  0
TEXT
  5
191
330
1E
100
AcDbEntity
  8
TXT_ALL
100
AcDbText
 10
808.08355359
 20
410.2042068600001
 30
0.0
 40
2.5999999
  1
Website: www.jonkers-bouwmetaal.nl
  7
ARIAL
 11
808.08355359
 21
411.50420681
 31
0.0
100
AcDbText
 73
     2
  0
TEXT
  5
192
330
1E
100
AcDbEntity
  8
TXT_ALL
100
AcDbText
 10
808.08355359
 20
419.9542068600001
 30
0.0
 40
2.5999999
  1
Adres: Hoornse Hop 10, 8321 WX Urk
  7
ARIAL
 11
808.08355359
 21
421.25420681
 31
0.0
100
AcDbText
 73
     2
  0
TEXT
  5
193
330
1E
100
AcDbEntity
  8
TXT_ALL
100
AcDbText
 10
536.56051384
 20
687.37920681
 30
0.0
 40
2.5
  1
Art. nr. 91003516
  7
ARIAL
 11
536.56051384
 21
688.62920681
 31
0.0
100
AcDbText
 73
     2
  0
TEXT
  5
194
330
1E
100
AcDbEntity
  8
TXT_ALL
100
AcDbText
 10
579.29855066
 20
687.37920681
 30
0.0
 40
2.5
  1
Omschrijving: F4-anker 400x275 80x8
  7
ARIAL
 11
579.29855066
 21
688.62920681
 31
0.0
100
AcDbText
 73
     2
  0
LINE
  5
195
330
1E
100
AcDbEntity
  8
0
100
AcDbLine
 10
943.11855359
 20
683.62920681
 30
0.0
 11
533.11855359
 21
683.62920681
 31
0.0
  0
LINE
  5
196
330
1E
100
AcDbEntity
  8
0
100
AcDbLine
 10
576.13855359
 20
683.62920681
 30
0.0
 11
576.13855359
 21
693.62920681
 31
0.0
  0
LINE
  5
197
330
1E
100
AcDbEntity
  8
0
100
AcDbLine
 10
736.13855359
 20
683.62920681
 30
0.0
 11
736.13855359
 21
693.62920681
 31
0.0
  0
TEXT
  5
198
330
1E
100
AcDbEntity
  8
TXT_ALL
100
AcDbText
 10
807.13225359
 20
687.37920681
 30
0.0
 40
2.5
  1
Behandeling: Thermisch Verzinkt
  7
ARIAL
 11
807.13225359
 21
688.62920681
 31
0.0
100
AcDbText
 73
     2
  0
LINE
  5
199
330
1E
100
AcDbEntity
  8
0
100
AcDbLine
 10
876.02855359
 20
426.12920681
 30
0.0
 11
943.11855359
 21
426.12920681
 31
0.0
  0
LINE
  5
19A
330
1E
100
AcDbEntity
  8
0
100
AcDbLine
 10
876.02855359
 20
406.62920681
 30
0.0
 11
876.02855359
 21
426.12920681
 31
0.0
  0
LINE
  5
19B
330
1E
100
AcDbEntity
  8
0
100
AcDbLine
 10
876.02855359
 20
406.62920681
 30
0.0
 11
876.02855359
 21
426.12920681
 31
0.0
  0
TEXT
  5
19C
330
1E
100
AcDbEntity
  8
TXT_ALL
100
AcDbText
 10
670.48375168
 20
407.78374022
 30
0.0
 40
2.5
  1

 11
670.48375168
 21
409.03374022
 31
0.0
100
AcDbText
 73
     2
  0
TEXT
  5
19D
330
1E
100
AcDbEntity
  8
TXT_ALL
100
AcDbText
 10
791.61893465
 20
417.87920681
 30
0.0
 40
2.5
  1

 11
791.61893465
 21
419.12920681
 31
0.0
100
AcDbText
 73
     2
  0
POLYLINE
  5
19E
330
1E
100
AcDbEntity
  8
0
100
AcDb2dPolyline
 66
     1
 10
0.0
 20
0.0
 30
0.0
  0
VERTEX
  5
19F
330
19E
100
AcDbEntity
  8
0
100
AcDbVertex
100
AcDb2dVertex
 10
874.12525359
 20
683.62920681
 30
0.0
  0
VERTEX
  5
1A0
330
19E
100
AcDbEntity
  8
0
100
AcDbVertex
100
AcDb2dVertex
 10
805.13225359
 20
683.62920681
 30
0.0
  0
VERTEX
  5
1A1
330
19E
100
AcDbEntity
  8
0
100
AcDbVertex
100
AcDb2dVertex
 10
805.13225359
 20
693.62920681
 30
0.0
  0
SEQEND
  5
1A2
330
19E
100
AcDbEntity
  8
0
  0
TEXT
  5
1A3
330
1E
100
AcDbEntity
  8
TXT_ALL
100
AcDbText
 10
876.12525359
 20
687.37920681
 30
0.0
 40
2.5
  1
Verpakkingshoeveelheid: 1 st.
  7
ARIAL
 11
876.12525359
 21
688.62920681
 31
0.0
100
AcDbText
 73
     2
  0
TEXT
  5
1A4
330
1E
100
AcDbEntity
  8
TXT_ALL
100
AcDbText
 10
738.13855359
 20
687.37920681
 30
0.0
 40
2.5
  1
Materiaal: S355
  7
ARIAL
 11
738.13855359
 21
688.62920681
 31
0.0
100
AcDbText
 73
     2
  0
TEXT
  5
1A5
330
1E
100
AcDbEntity
  8
TXT_ALL
100
AcDbText
 10
911.235039
 20
403.37969696
 30
0.0
 40
1.5
  1
Onderdeel van
  7
ARIAL
 11
911.235039
 21
404.12969696
 31
0.0
100
AcDbText
 73
     2
  0
ELLIPSE
  5
1A6
330
1E
100
AcDbEntity
  8
0
100
AcDbEllipse
 10
549.57957814
 20
466.37817696
 30
0.0
 11
-0.31249962
 21
-2.379568030000001
 31
0.0
210
0.0
220
0.0
230
1.0
 40
0.28543108
 41
0.0
 42
3.14159265
  0
ELLIPSE
  5
1A7
330
1E
100
AcDbEntity
  8
0
100
AcDbEllipse
 10
549.57957814
 20
466.37817696
 30
0.0
 11
-0.31249962
 21
-2.379568030000001
 31
0.0
210
0.0
220
0.0
230
1.0
 40
0.28543108
 41
3.14159265
 42
6.28318531
  0
ELLIPSE
  5
1A8
330
1E
100
AcDbEntity
  8
0
100
AcDbEllipse
 10
552.69476347
 20
534.32274877
 30
0.0
 11
-0.26041635
 21
-1.98297335
 31
0.0
210
0.0
220
0.0
230
1.0
 40
0.28543108
 41
0.0
 42
3.14159265
  0
ELLIPSE
  5
1A9
330
1E
100
AcDbEntity
  8
0
100
AcDbEllipse
 10
552.69476347
 20
534.32274877
 30
0.0
 11
-0.26041635
 21
-1.98297335
 31
0.0
210
0.0
220
0.0
230
1.0
 40
0.28543108
 41
3.14159265
 42
6.283185307179586
  0
ELLIPSE
  5
1AA
330
1E
100
AcDbEntity
  8
0
100
AcDbEllipse
 10
549.57957814
 20
525.01863299
 30
0.0
 11
-0.31249962
 21
-2.379568030000001
 31
0.0
210
0.0
220
0.0
230
1.0
 40
0.28543108
 41
0.0
 42
3.14159265
  0
ELLIPSE
  5
1AB
330
1E
100
AcDbEntity
  8
0
100
AcDbEllipse
 10
549.57957814
 20
525.01863299
 30
0.0
 11
-0.31249962
 21
-2.379568030000001
 31
0.0
210
0.0
220
0.0
230
1.0
 40
0.28543108
 41
3.14159265
 42
6.28318531
  0
POLYLINE
  5
1AC
330
1E
100
AcDbEntity
  8
0
100
AcDb2dPolyline
 66
     1
 10
0.0
 20
0.0
 30
0.0
  0
VERTEX
  5
1AD
330
1AC
100
AcDbEntity
  8
0
100
AcDbVertex
100
AcDb2dVertex
 10
554.56387466
 20
547.6017781
 30
0.0
  0
VERTEX
  5
1AE
330
1AC
100
AcDbEntity
  8
0
100
AcDbVertex
100
AcDb2dVertex
 10
544.59528162
 20
535.42074439
 30
0.0
  0
VERTEX
  5
1AF
330
1AC
100
AcDbEntity
  8
0
100
AcDbVertex
100
AcDb2dVertex
 10
541.55451337
 20
535.82007692
 30
0.0
  0
SEQEND
  5
1B0
330
1AC
100
AcDbEntity
  8
0
  0
LINE
  5
1B1
330
1E
100
AcDbEntity
  8
0
100
AcDbLine
 10
551.52310641
 20
548.00111063
 30
0.0
 11
541.55451337
 21
535.82007692
 31
0.0
  0
LINE
  5
1B2
330
1E
100
AcDbEntity
  8
0
100
AcDbLine
 10
554.56387466
 20
547.6017781
 30
0.0
 11
551.52310641
 21
548.00111063
 31
0.0
  0
LINE
  5
1B3
330
1E
100
AcDbEntity
  8
0
100
AcDbLine
 10
554.56387466
 20
498.19432766
 30
0.0
 11
554.56387466
 21
452.67753991
 31
0.0
  0
LINE
  5
1B4
330
1E
100
AcDbEntity
  8
0
100
AcDbLine
 10
554.56387466
 20
547.6017781
 30
0.0
 11
554.56387466
 21
514.61652158
 31
0.0
  0
POLYLINE
  5
1B5
330
1E
100
AcDbEntity
  8
0
100
AcDb2dPolyline
 66
     1
 10
0.0
 20
0.0
 30
0.0
  0
VERTEX
  5
1B6
330
1B5
100
AcDbEntity
  8
0
100
AcDbVertex
100
AcDb2dVertex
 10
554.56387466
 20
452.67753991
 30
0.0
  0
VERTEX
  5
1B7
330
1B5
100
AcDbEntity
  8
0
100
AcDbVertex
100
AcDb2dVertex
 10
544.59528162
 20
440.4965062
 30
0.0
  0
VERTEX
  5
1B8
330
1B5
100
AcDbEntity
  8
0
100
AcDbVertex
100
AcDb2dVertex
 10
544.59528162
 20
535.42074439
 30
0.0
  0
SEQEND
  5
1B9
330
1B5
100
AcDbEntity
  8
0
  0
POLYLINE
  5
1BA
330
1E
100
AcDbEntity
  8
0
100
AcDb2dPolyline
 66
     1
 10
0.0
 20
0.0
 30
0.0
  0
VERTEX
  5
1BB
330
1BA
100
AcDbEntity
  8
0
100
AcDbVertex
100
AcDb2dVertex
 10
544.59528162
 20
440.4965062
 30
0.0
  0
VERTEX
  5
1BC
330
1BA
100
AcDbEntity
  8
0
100
AcDbVertex
100
AcDb2dVertex
 10
541.55451337
 20
440.89583873
 30
0.0
  0
VERTEX
  5
1BD
330
1BA
100
AcDbEntity
  8
0
100
AcDbVertex
100
AcDb2dVertex
 10
541.55451337
 20
535.82007692
 30
0.0
  0
SEQEND
  5
1BE
330
1BA
100
AcDbEntity
  8
0
  0
LINE
  5
1BF
330
1E
100
AcDbEntity
  8
0
  6
STRICHPUNKT2
 62
     1
100
AcDbLine
 10
550.71986623
 20
524.86888329
 30
0.0
 11
548.90037548
 21
525.10783009
 31
0.0
  0
LINE
  5
1C0
330
1E
100
AcDbEntity
  8
0
  6
STRICHPUNKT2
 62
     1
100
AcDbLine
 10
549.57957814
 20
525.01863299
 30
0.0
 11
549.57957814
 21
521.72010733
 31
0.0
  0
LINE
  5
1C1
330
1E
100
AcDbEntity
  8
0
  6
STRICHPUNKT2
 62
     1
100
AcDbLine
 10
549.57957814
 20
525.01863299
 30
0.0
 11
549.57957814
 21
528.31715864
 31
0.0
  0
LINE
  5
1C2
330
1E
100
AcDbEntity
  8
0
  6
STRICHPUNKT2
 62
     1
100
AcDbLine
 10
549.57957814
 20
525.01863299
 30
0.0
 11
550.70104486
 21
526.38899928
 31
0.0
  0
LINE
  5
1C3
330
1E
100
AcDbEntity
  8
0
  6
STRICHPUNKT2
 62
     1
100
AcDbLine
 10
549.57957814
 20
525.01863299
 30
0.0
 11
548.45811142
 21
523.64826669
 31
0.0
  0
LINE
  5
1C4
330
1E
100
AcDbEntity
  8
0
  6
STRICHPUNKT2
 62
     1
100
AcDbLine
 10
553.64500354
 20
534.19795736
 30
0.0
 11
552.12876125
 21
534.39707969
 31
0.0
  0
LINE
  5
1C5
330
1E
100
AcDbEntity
  8
0
  6
STRICHPUNKT2
 62
     1
100
AcDbLine
 10
552.69476347
 20
534.32274877
 30
0.0
 11
552.69476347
 21
531.5739774
 31
0.0
  0
LINE
  5
1C6
330
1E
100
AcDbEntity
  8
0
  6
STRICHPUNKT2
 62
     1
100
AcDbLine
 10
552.69476347
 20
534.32274877
 30
0.0
 11
552.69476347
 21
537.07152015
 31
0.0
  0
LINE
  5
1C7
330
1E
100
AcDbEntity
  8
0
  6
STRICHPUNKT2
 62
     1
100
AcDbLine
 10
552.69476347
 20
534.32274877
 30
0.0
 11
553.62931906
 21
535.46472068
 31
0.0
  0
LINE
  5
1C8
330
1E
100
AcDbEntity
  8
0
  6
STRICHPUNKT2
 62
     1
100
AcDbLine
 10
552.69476347
 20
534.32274877
 30
0.0
 11
551.76020787
 21
533.18077686
 31
0.0
  0
LINE
  5
1C9
330
1E
100
AcDbEntity
  8
0
  6
STRICHPUNKT2
 62
     1
100
AcDbLine
 10
550.71986623
 20
466.22842726
 30
0.0
 11
548.90037548
 21
466.46737406
 31
0.0
  0
LINE
  5
1CA
330
1E
100
AcDbEntity
  8
0
  6
STRICHPUNKT2
 62
     1
100
AcDbLine
 10
549.57957814
 20
466.37817696
 30
0.0
 11
549.57957814
 21
463.07965131
 31
0.0
  0
LINE
  5
1CB
330
1E
100
AcDbEntity
  8
0
  6
STRICHPUNKT2
 62
     1
100
AcDbLine
 10
549.57957814
 20
466.37817696
 30
0.0
 11
549.57957814
 21
469.67670261
 31
0.0
  0
LINE
  5
1CC
330
1E
100
AcDbEntity
  8
0
  6
STRICHPUNKT2
 62
     1
100
AcDbLine
 10
549.57957814
 20
466.37817696
 30
0.0
 11
550.70104486
 21
467.74854325
 31
0.0
  0
LINE
  5
1CD
330
1E
100
AcDbEntity
  8
0
  6
STRICHPUNKT2
 62
     1
100
AcDbLine
 10
549.57957814
 20
466.37817696
 30
0.0
 11
548.45811142
 21
465.00781067
 31
0.0
  0
POLYLINE
  5
1CE
330
1E
100
AcDbEntity
  8
0
100
AcDb2dPolyline
 66
     1
 10
0.0
 20
0.0
 30
0.0
  0
VERTEX
  5
1CF
330
1CE
100
AcDbEntity
  8
0
100
AcDbVertex
100
AcDb2dVertex
 10
554.56387466
 20
452.67753991
 30
0.0
  0
VERTEX
  5
1D0
330
1CE
100
AcDbEntity
  8
0
100
AcDbVertex
100
AcDb2dVertex
 10
544.59528162
 20
440.4965062
 30
0.0
  0
VERTEX
  5
1D1
330
1CE
100
AcDbEntity
  8
0
100
AcDbVertex
100
AcDb2dVertex
 10
541.55451337
 20
440.89583873
 30
0.0
  0
SEQEND
  5
1D2
330
1CE
100
AcDbEntity
  8
0
  0
ELLIPSE
  5
1D3
330
1E
100
AcDbEntity
  8
0
100
AcDbEllipse
 10
557.60464291
 20
452.27820738
 30
0.0
 11
2.4764349
 21
-2.02664013
 31
0.0
210
0.0
220
0.0
230
1.0
 40
0.8706642400000001
 41
3.76067564
 42
5.33147197
  0
POLYLINE
  5
1D4
330
1E
100
AcDbEntity
  8
0
100
AcDb2dPolyline
 66
     1
 10
0.0
 20
0.0
 30
0.0
  0
VERTEX
  5
1D5
330
1D4
100
AcDbEntity
  8
0
100
AcDbVertex
100
AcDb2dVertex
 10
557.60464291
 20
449.34618457
 30
0.0
  0
VERTEX
  5
1D6
330
1D4
100
AcDbEntity
  8
0
100
AcDbVertex
100
AcDb2dVertex
 10
547.63604986
 20
437.16515086
 30
0.0
  0
SEQEND
  5
1D7
330
1D4
100
AcDbEntity
  8
0
  0
ELLIPSE
  5
1D8
330
1E
100
AcDbEntity
  8
0
100
AcDbEllipse
 10
547.63604986
 20
440.09717367
 30
0.0
 11
2.4764349
 21
-2.02664013
 31
0.0
210
0.0
220
0.0
230
1.0
 40
0.8706642400000001
 41
3.76067564
 42
5.33147197
  0
POLYLINE
  5
1D9
330
1E
100
AcDbEntity
  8
0
100
AcDb2dPolyline
 66
     1
 10
0.0
 20
0.0
 30
0.0
  0
VERTEX
  5
1DA
330
1D9
100
AcDbEntity
  8
0
100
AcDbVertex
100
AcDb2dVertex
 10
547.63604986
 20
437.16515086
 30
0.0
  0
VERTEX
  5
1DB
330
1D9
100
AcDbEntity
  8
0
100
AcDbVertex
100
AcDb2dVertex
 10
547.63604986
 20
434.23312806
 30
0.0
  0
SEQEND
  5
1DC
330
1D9
100
AcDbEntity
  8
0
  0
ELLIPSE
  5
1DD
330
1E
100
AcDbEntity
  8
0
100
AcDbEllipse
 10
547.63604986
 20
440.09717367
 30
0.0
 11
4.952869789999999
 21
-4.053280249999999
 31
0.0
210
0.0
220
0.0
230
0.9999999999999998
 40
0.87066424
 41
3.76067564
 42
5.33147197
  0
ELLIPSE
  5
1DE
330
1E
100
AcDbEntity
  8
0
100
AcDbEllipse
 10
587.20908519
 20
438.71326018
 30
0.0
 11
2.8
 21
0.0
 31
0.0
210
0.0
220
0.0
230
1.0
 40
0.4005906599999999
 41
3.14159265
 42
4.39559831
  0
ELLIPSE
  5
1DF
330
1E
100
AcDbEntity
  8
0
100
AcDbEllipse
 10
587.20908519
 20
438.71326018
 30
0.0
 11
2.8
 21
0.0
 31
0.0
210
0.0
220
0.0
230
1.0
 40
0.4005906599999999
 41
1.25400566
 42
3.14159265
  0
POLYLINE
  5
1E0
330
1E
100
AcDbEntity
  8
0
100
AcDb2dPolyline
 66
     1
 10
0.0
 20
0.0
 30
0.0
  0
VERTEX
  5
1E1
330
1E0
100
AcDbEntity
  8
0
100
AcDbVertex
100
AcDb2dVertex
 10
588.08133708
 20
439.77910063
 30
0.0
  0
VERTEX
  5
1E2
330
1E0
100
AcDbEntity
  8
0
100
AcDbVertex
100
AcDb2dVertex
 10
597.96383388
 20
438.48126991
 30
0.0
  0
SEQEND
  5
1E3
330
1E0
100
AcDbEntity
  8
0
  0
ELLIPSE
  5
1E4
330
1E
100
AcDbEntity
  8
0
100
AcDbEllipse
 10
597.09158199
 20
437.41542946
 30
0.0
 11
2.8
 21
0.0
 31
0.0
210
0.0
220
0.0
230
1.0
 40
0.4005906599999999
 41
0.0
 42
1.25400566
  0
ELLIPSE
  5
1E5
330
1E
100
AcDbEntity
  8
0
100
AcDbEllipse
 10
597.09158199
 20
437.41542946
 30
0.0
 11
2.8
 21
0.0
 31
0.0
210
0.0
220
0.0
230
1.0
 40
0.4005906599999999
 41
4.39559831
 42
6.283185307179586
  0
LINE
  5
1E6
330
1E
100
AcDbEntity
  8
0
100
AcDbLine
 10
596.2193301
 20
436.34958901
 30
0.0
 11
586.3368333
 21
437.64741973
 31
0.0
  0
ELLIPSE
  5
1E7
330
1E
100
AcDbEntity
  8
0
100
AcDbEllipse
 10
687.17434128
 20
425.58520324
 30
0.0
 11
2.8
 21
0.0
 31
0.0
210
0.0
220
0.0
230
1.0
 40
0.4005906599999999
 41
0.0
 42
3.14159265
  0
ELLIPSE
  5
1E8
330
1E
100
AcDbEntity
  8
0
100
AcDbEllipse
 10
687.17434128
 20
425.58520324
 30
0.0
 11
2.8
 21
0.0
 31
0.0
210
0.0
220
0.0
230
1.0
 40
0.4005906599999999
 41
3.14159265
 42
6.283185307179586
  0
ELLIPSE
  5
1E9
330
1E
100
AcDbEntity
  8
0
100
AcDbEllipse
 10
649.1647382
 20
430.57685987
 30
0.0
 11
2.8
 21
0.0
 31
0.0
210
0.0
220
0.0
230
1.0
 40
0.4005906599999999
 41
0.0
 42
3.14159265
  0
ELLIPSE
  5
1EA
330
1E
100
AcDbEntity
  8
0
100
AcDbEllipse
 10
649.1647382
 20
430.57685987
 30
0.0
 11
2.8
 21
0.0
 31
0.0
210
0.0
220
0.0
230
1.0
 40
0.4005906599999999
 41
3.14159265
 42
6.283185307179586
  0
ELLIPSE
  5
1EB
330
1E
100
AcDbEntity
  8
0
100
AcDbEllipse
 10
563.07298723
 20
441.88296214
 30
0.0
 11
2.8
 21
0.0
 31
0.0
210
0.0
220
0.0
230
1.0
 40
0.4005906599999999
 41
0.0
 42
3.14159265
  0
ELLIPSE
  5
1EC
330
1E
100
AcDbEntity
  8
0
100
AcDbEllipse
 10
563.07298723
 20
441.88296214
 30
0.0
 11
2.8
 21
0.0
 31
0.0
210
0.0
220
0.0
230
1.0
 40
0.4005906599999999
 41
3.14159265
 42
6.283185307179586
  0
LINE
  5
1ED
330
1E
100
AcDbEntity
  8
0
100
AcDbLine
 10
693.59292569
 20
417.99718939
 30
0.0
 11
547.63604986
 21
437.16515086
 31
0.0
  0
LINE
  5
1EE
330
1E
100
AcDbEntity
  8
0
100
AcDbLine
 10
557.60464291
 20
449.34618457
 30
0.0
 11
547.63604986
 21
437.16515086
 31
0.0
  0
LINE
  5
1EF
330
1E
100
AcDbEntity
  8
0
100
AcDbLine
 10
651.48679952
 20
437.01699795
 30
0.0
 11
703.56151873
 21
430.1782231
 31
0.0
  0
LINE
  5
1F0
330
1E
100
AcDbEntity
  8
0
100
AcDbLine
 10
557.60464291
 20
449.34618457
 30
0.0
 11
571.5820998
 21
447.51057831
 31
0.0
  0
LINE
  5
1F1
330
1E
100
AcDbEntity
  8
0
100
AcDbLine
 10
584.59146109
 20
445.80210836
 30
0.0
 11
625.43484818
 21
440.43830165
 31
0.0
  0
POLYLINE
  5
1F2
330
1E
100
AcDbEntity
  8
0
100
AcDb2dPolyline
 66
     1
 10
0.0
 20
0.0
 30
0.0
  0
VERTEX
  5
1F3
330
1F2
100
AcDbEntity
  8
0
100
AcDbVertex
100
AcDb2dVertex
 10
703.56151873
 20
430.1782231
 30
0.0
  0
VERTEX
  5
1F4
330
1F2
100
AcDbEntity
  8
0
100
AcDbVertex
100
AcDb2dVertex
 10
693.59292569
 20
417.99718939
 30
0.0
  0
VERTEX
  5
1F5
330
1F2
100
AcDbEntity
  8
0
100
AcDbVertex
100
AcDb2dVertex
 10
693.59292569
 20
415.06516659
 30
0.0
  0
VERTEX
  5
1F6
330
1F2
100
AcDbEntity
  8
0
100
AcDbVertex
100
AcDb2dVertex
 10
547.63604986
 20
434.23312806
 30
0.0
  0
SEQEND
  5
1F7
330
1F2
100
AcDbEntity
  8
0
  0
LINE
  5
1F8
330
1E
100
AcDbEntity
  8
0
100
AcDbLine
 10
547.63604986
 20
437.16515086
 30
0.0
 11
547.63604986
 21
434.23312806
 31
0.0
  0
LINE
  5
1F9
330
1E
100
AcDbEntity
  8
0
100
AcDbLine
 10
703.56151873
 20
427.2462003
 30
0.0
 11
693.59292569
 21
415.06516659
 31
0.0
  0
LINE
  5
1FA
330
1E
100
AcDbEntity
  8
0
100
AcDbLine
 10
703.56151873
 20
430.1782231
 30
0.0
 11
703.56151873
 21
427.2462003
 31
0.0
  0
LINE
  5
1FB
330
1E
100
AcDbEntity
  8
0
  6
STRICHPUNKT2
 62
     1
100
AcDbLine
 10
563.07298723
 20
442.9824707
 30
0.0
 11
563.07298723
 21
440.76130829
 31
0.0
  0
LINE
  5
1FC
330
1E
100
AcDbEntity
  8
0
  6
STRICHPUNKT2
 62
     1
100
AcDbLine
 10
563.07298723
 20
441.88296214
 30
0.0
 11
566.87394754
 21
441.38379648
 31
0.0
  0
LINE
  5
1FD
330
1E
100
AcDbEntity
  8
0
  6
STRICHPUNKT2
 62
     1
100
AcDbLine
 10
563.07298723
 20
441.88296214
 30
0.0
 11
559.27202692
 21
442.38212781
 31
0.0
  0
LINE
  5
1FE
330
1E
100
AcDbEntity
  8
0
  6
STRICHPUNKT2
 62
     1
100
AcDbLine
 10
563.07298723
 20
441.88296214
 30
0.0
 11
564.31906136
 21
443.40559136
 31
0.0
  0
LINE
  5
1FF
330
1E
100
AcDbEntity
  8
0
  6
STRICHPUNKT2
 62
     1
100
AcDbLine
 10
563.07298723
 20
441.88296214
 30
0.0
 11
561.8269131
 21
440.36033293
 31
0.0
  0
LINE
  5
200
330
1E
100
AcDbEntity
  8
0
  6
STRICHPUNKT2
 62
     1
100
AcDbLine
 10
649.1647382
 20
431.67636842
 30
0.0
 11
649.1647382
 21
429.45520601
 31
0.0
  0
LINE
  5
201
330
1E
100
AcDbEntity
  8
0
  6
STRICHPUNKT2
 62
     1
100
AcDbLine
 10
649.1647382
 20
430.57685987
 30
0.0
 11
652.96569851
 21
430.07769421
 31
0.0
  0
LINE
  5
202
330
1E
100
AcDbEntity
  8
0
  6
STRICHPUNKT2
 62
     1
100
AcDbLine
 10
649.1647382
 20
430.57685987
 30
0.0
 11
645.3637779
 21
431.07602553
 31
0.0
  0
LINE
  5
203
330
1E
100
AcDbEntity
  8
0
  6
STRICHPUNKT2
 62
     1
100
AcDbLine
 10
649.1647382
 20
430.57685987
 30
0.0
 11
650.41081233
 21
432.09948908
 31
0.0
  0
LINE
  5
204
330
1E
100
AcDbEntity
  8
0
  6
STRICHPUNKT2
 62
     1
100
AcDbLine
 10
649.1647382
 20
430.57685987
 30
0.0
 11
647.91866407
 21
429.05423066
 31
0.0
  0
LINE
  5
205
330
1E
100
AcDbEntity
  8
0
  6
STRICHPUNKT2
 62
     1
100
AcDbLine
 10
687.17434128
 20
426.68471179
 30
0.0
 11
687.17434128
 21
424.46354938
 31
0.0
  0
LINE
  5
206
330
1E
100
AcDbEntity
  8
0
  6
STRICHPUNKT2
 62
     1
100
AcDbLine
 10
687.17434128
 20
425.58520324
 30
0.0
 11
690.97530159
 21
425.08603757
 31
0.0
  0
LINE
  5
207
330
1E
100
AcDbEntity
  8
0
  6
STRICHPUNKT2
 62
     1
100
AcDbLine
 10
687.17434128
 20
425.58520324
 30
0.0
 11
683.37338098
 21
426.0843689
 31
0.0
  0
LINE
  5
208
330
1E
100
AcDbEntity
  8
0
  6
STRICHPUNKT2
 62
     1
100
AcDbLine
 10
687.17434128
 20
425.58520324
 30
0.0
 11
688.42041541
 21
427.10783245
 31
0.0
  0
LINE
  5
209
330
1E
100
AcDbEntity
  8
0
  6
STRICHPUNKT2
 62
     1
100
AcDbLine
 10
687.17434128
 20
425.58520324
 30
0.0
 11
685.92826715
 21
424.06257402
 31
0.0
  0
LINE
  5
20A
330
1E
100
AcDbEntity
  8
0
  6
STRICHPUNKT2
 62
     1
100
AcDbLine
 10
587.20908519
 20
439.81276873
 30
0.0
 11
587.20908519
 21
437.53287021
 31
0.0
  0
LINE
  5
20B
330
1E
100
AcDbEntity
  8
0
  6
STRICHPUNKT2
 62
     1
100
AcDbLine
 10
597.09158199
 20
438.51493801
 30
0.0
 11
597.09158199
 21
436.2937756
 31
0.0
  0
LINE
  5
20C
330
1E
100
AcDbEntity
  8
0
  6
STRICHPUNKT2
 62
     1
100
AcDbLine
 10
583.40812488
 20
439.21242585
 30
0.0
 11
600.8925423
 21
436.91626379
 31
0.0
  0
LINE
  5
20D
330
1E
100
AcDbEntity
  8
0
  6
STRICHPUNKT2
 62
     1
100
AcDbLine
 10
585.96301106
 20
437.19063097
 30
0.0
 11
588.45515932
 21
440.2358894
 31
0.0
  0
LINE
  5
20E
330
1E
100
AcDbEntity
  8
0
  6
STRICHPUNKT2
 62
     1
100
AcDbLine
 10
595.84550786
 20
435.89280024
 30
0.0
 11
598.33765612
 21
438.93805867
 31
0.0
  0
ELLIPSE
  5
20F
330
1E
100
AcDbEntity
  8
0
100
AcDbEllipse
 10
576.49197925
 20
526.43122247
 30
0.0
 11
-0.26041635
 21
-1.98297335
 31
0.0
210
0.0
220
0.0
230
1.0
 40
0.28543108
 41
0.0
 42
3.14159265
  0
ELLIPSE
  5
210
330
1E
100
AcDbEntity
  8
0
100
AcDbEllipse
 10
576.49197925
 20
526.43122247
 30
0.0
 11
-0.26041635
 21
-1.98297335
 31
0.0
210
0.0
220
0.0
230
1.0
 40
0.28543108
 41
3.14159265
 42
6.283185307179586
  0
ELLIPSE
  5
211
330
1E
100
AcDbEntity
  8
0
100
AcDbEllipse
 10
579.60716457
 20
521.07522425
 30
0.0
 11
-0.31249962
 21
-2.379568030000001
 31
0.0
210
0.0
220
0.0
230
1.0
 40
0.28543108
 41
0.0
 42
3.14159265
  0
ELLIPSE
  5
212
330
1E
100
AcDbEntity
  8
0
100
AcDbEllipse
 10
579.60716457
 20
521.07522425
 30
0.0
 11
-0.31249962
 21
-2.379568030000001
 31
0.0
210
0.0
220
0.0
230
1.0
 40
0.28543108
 41
3.14159265
 42
6.28318531
  0
ELLIPSE
  5
213
330
1E
100
AcDbEntity
  8
0
100
AcDbEllipse
 10
579.60716457
 20
462.43476822
 30
0.0
 11
-0.31249962
 21
-2.379568030000001
 31
0.0
210
0.0
220
0.0
230
1.0
 40
0.28543108
 41
0.0
 42
3.14159265
  0
ELLIPSE
  5
214
330
1E
100
AcDbEntity
  8
0
100
AcDbEllipse
 10
579.60716457
 20
462.43476822
 30
0.0
 11
-0.31249962
 21
-2.379568030000001
 31
0.0
210
0.0
220
0.0
230
1.0
 40
0.28543108
 41
3.14159265
 42
6.283185307179586
  0
POLYLINE
  5
215
330
1E
100
AcDbEntity
  8
0
100
AcDb2dPolyline
 66
     1
 10
0.0
 20
0.0
 30
0.0
  0
VERTEX
  5
216
330
215
100
AcDbEntity
  8
0
100
AcDbVertex
100
AcDb2dVertex
 10
584.59146109
 20
543.65836936
 30
0.0
  0
VERTEX
  5
217
330
215
100
AcDbEntity
  8
0
100
AcDbVertex
100
AcDb2dVertex
 10
574.62286805
 20
531.47733565
 30
0.0
  0
VERTEX
  5
218
330
215
100
AcDbEntity
  8
0
100
AcDbVertex
100
AcDb2dVertex
 10
571.5820998
 20
531.87666818
 30
0.0
  0
SEQEND
  5
219
330
215
100
AcDbEntity
  8
0
  0
LINE
  5
21A
330
1E
100
AcDbEntity
  8
0
100
AcDbLine
 10
581.55069285
 20
544.05770189
 30
0.0
 11
571.5820998
 21
531.87666818
 31
0.0
  0
LINE
  5
21B
330
1E
100
AcDbEntity
  8
0
100
AcDbLine
 10
584.59146109
 20
543.65836936
 30
0.0
 11
581.55069285
 21
544.05770189
 31
0.0
  0
LINE
  5
21C
330
1E
100
AcDbEntity
  8
0
100
AcDbLine
 10
584.59146109
 20
494.43572453
 30
0.0
 11
584.59146109
 21
445.80210836
 31
0.0
  0
LINE
  5
21D
330
1E
100
AcDbEntity
  8
0
100
AcDbLine
 10
584.59146109
 20
543.65836936
 30
0.0
 11
584.59146109
 21
525.45667384
 31
0.0
  0
POLYLINE
  5
21E
330
1E
100
AcDbEntity
  8
0
100
AcDb2dPolyline
 66
     1
 10
0.0
 20
0.0
 30
0.0
  0
VERTEX
  5
21F
330
21E
100
AcDbEntity
  8
0
100
AcDbVertex
100
AcDb2dVertex
 10
584.59146109
 20
445.80210836
 30
0.0
  0
VERTEX
  5
220
330
21E
100
AcDbEntity
  8
0
100
AcDbVertex
100
AcDb2dVertex
 10
574.62286805
 20
433.62107465
 30
0.0
  0
VERTEX
  5
221
330
21E
100
AcDbEntity
  8
0
100
AcDbVertex
100
AcDb2dVertex
 10
574.62286805
 20
531.47733565
 30
0.0
  0
SEQEND
  5
222
330
21E
100
AcDbEntity
  8
0
  0
POLYLINE
  5
223
330
1E
100
AcDbEntity
  8
0
100
AcDb2dPolyline
 66
     1
 10
0.0
 20
0.0
 30
0.0
  0
VERTEX
  5
224
330
223
100
AcDbEntity
  8
0
100
AcDbVertex
100
AcDb2dVertex
 10
574.62286805
 20
433.62107465
 30
0.0
  0
VERTEX
  5
225
330
223
100
AcDbEntity
  8
0
100
AcDbVertex
100
AcDb2dVertex
 10
571.5820998
 20
434.02040718
 30
0.0
  0
VERTEX
  5
226
330
223
100
AcDbEntity
  8
0
100
AcDbVertex
100
AcDb2dVertex
 10
571.5820998
 20
531.87666818
 30
0.0
  0
SEQEND
  5
227
330
223
100
AcDbEntity
  8
0
  0
LINE
  5
228
330
1E
100
AcDbEntity
  8
0
  6
STRICHPUNKT2
 62
     1
100
AcDbLine
 10
580.74745266
 20
462.28501852
 30
0.0
 11
578.92796191
 21
462.52396532
 31
0.0
  0
LINE
  5
229
330
1E
100
AcDbEntity
  8
0
  6
STRICHPUNKT2
 62
     1
100
AcDbLine
 10
579.60716457
 20
462.43476822
 30
0.0
 11
579.60716457
 21
465.73329387
 31
0.0
  0
LINE
  5
22A
330
1E
100
AcDbEntity
  8
0
  6
STRICHPUNKT2
 62
     1
100
AcDbLine
 10
579.60716457
 20
462.43476822
 30
0.0
 11
579.60716457
 21
459.13624257
 31
0.0
  0
LINE
  5
22B
330
1E
100
AcDbEntity
  8
0
  6
STRICHPUNKT2
 62
     1
100
AcDbLine
 10
579.60716457
 20
462.43476822
 30
0.0
 11
578.48569785
 21
461.06440193
 31
0.0
  0
LINE
  5
22C
330
1E
100
AcDbEntity
  8
0
  6
STRICHPUNKT2
 62
     1
100
AcDbLine
 10
579.60716457
 20
462.43476822
 30
0.0
 11
580.72863129
 21
463.80513451
 31
0.0
  0
LINE
  5
22D
330
1E
100
AcDbEntity
  8
0
  6
STRICHPUNKT2
 62
     1
100
AcDbLine
 10
580.74745266
 20
520.92547455
 30
0.0
 11
578.92796191
 21
521.16442135
 31
0.0
  0
LINE
  5
22E
330
1E
100
AcDbEntity
  8
0
  6
STRICHPUNKT2
 62
     1
100
AcDbLine
 10
579.60716457
 20
521.07522425
 30
0.0
 11
579.60716457
 21
524.3737499
 31
0.0
  0
LINE
  5
22F
330
1E
100
AcDbEntity
  8
0
  6
STRICHPUNKT2
 62
     1
100
AcDbLine
 10
579.60716457
 20
521.07522425
 30
0.0
 11
579.60716457
 21
517.77669859
 31
0.0
  0
LINE
  5
230
330
1E
100
AcDbEntity
  8
0
  6
STRICHPUNKT2
 62
     1
100
AcDbLine
 10
579.60716457
 20
521.07522425
 30
0.0
 11
578.48569785
 21
519.70485795
 31
0.0
  0
LINE
  5
231
330
1E
100
AcDbEntity
  8
0
  6
STRICHPUNKT2
 62
     1
100
AcDbLine
 10
579.60716457
 20
521.07522425
 30
0.0
 11
580.72863129
 21
522.44559054
 31
0.0
  0
LINE
  5
232
330
1E
100
AcDbEntity
  8
0
  6
STRICHPUNKT2
 62
     1
100
AcDbLine
 10
577.44221932
 20
526.30643105
 30
0.0
 11
575.92597703
 21
526.50555338
 31
0.0
  0
LINE
  5
233
330
1E
100
AcDbEntity
  8
0
  6
STRICHPUNKT2
 62
     1
100
AcDbLine
 10
576.49197925
 20
526.43122247
 30
0.0
 11
576.49197925
 21
529.17999384
 31
0.0
  0
LINE
  5
234
330
1E
100
AcDbEntity
  8
0
  6
STRICHPUNKT2
 62
     1
100
AcDbLine
 10
576.49197925
 20
526.43122247
 30
0.0
 11
576.49197925
 21
523.68245109
 31
0.0
  0
LINE
  5
235
330
1E
100
AcDbEntity
  8
0
  6
STRICHPUNKT2
 62
     1
100
AcDbLine
 10
576.49197925
 20
526.43122247
 30
0.0
 11
575.55742365
 21
525.28925056
 31
0.0
  0
LINE
  5
236
330
1E
100
AcDbEntity
  8
0
  6
STRICHPUNKT2
 62
     1
100
AcDbLine
 10
576.49197925
 20
526.43122247
 30
0.0
 11
577.42653484
 21
527.57319438
 31
0.0
  0
LINE
  5
237
330
1E
100
AcDbEntity
  8
0
100
AcDbLine
 10
544.59528162
 20
502.43548787
 30
0.0
 11
571.5820998
 21
498.89141166
 31
0.0
  0
LINE
  5
238
330
1E
100
AcDbEntity
  8
0
100
AcDbLine
 10
554.56387466
 20
514.61652158
 30
0.0
 11
544.59528162
 21
502.43548787
 31
0.0
  0
LINE
  5
239
330
1E
100
AcDbEntity
  8
0
100
AcDbLine
 10
571.5820998
 20
512.38158279
 30
0.0
 11
554.56387466
 21
514.61652158
 31
0.0
  0
LINE
  5
23A
330
1E
100
AcDbEntity
  8
0
100
AcDbLine
 10
571.5820998
 20
495.95938886
 30
0.0
 11
571.5820998
 21
498.89141166
 31
0.0
  0
LINE
  5
23B
330
1E
100
AcDbEntity
  8
0
100
AcDbLine
 10
544.59528162
 20
499.50346507
 30
0.0
 11
571.5820998
 21
495.95938886
 31
0.0
  0
LINE
  5
23C
330
1E
100
AcDbEntity
  8
0
100
AcDbLine
 10
544.59528162
 20
499.50346507
 30
0.0
 11
544.59528162
 21
502.43548787
 31
0.0
  0
LINE
  5
23D
330
1E
100
AcDbEntity
  8
0
100
AcDbLine
 10
652.9029606
 20
435.14474751
 30
0.0
 11
652.15531612
 21
434.23116998
 31
0.0
  0
LINE
  5
23E
330
1E
100
AcDbEntity
  8
0
100
AcDbLine
 10
582.59774248
 20
526.19048153
 30
0.0
 11
652.15531612
 21
434.23116998
 31
0.0
  0
LINE
  5
23F
330
1E
100
AcDbEntity
  8
0
100
AcDbLine
 10
583.34538696
 20
527.10405906
 30
0.0
 11
582.59774248
 21
526.19048153
 31
0.0
  0
LINE
  5
240
330
1E
100
AcDbEntity
  8
0
100
AcDbLine
 10
652.9029606
 20
435.14474751
 30
0.0
 11
583.34538696
 21
527.10405906
 31
0.0
  0
POLYLINE
  5
241
330
1E
100
AcDbEntity
  8
0
100
AcDb2dPolyline
 66
     1
 10
0.0
 20
0.0
 30
0.0
  0
VERTEX
  5
242
330
241
100
AcDbEntity
  8
0
100
AcDbVertex
100
AcDb2dVertex
 10
582.59774248
 20
526.19048153
 30
0.0
  0
VERTEX
  5
243
330
241
100
AcDbEntity
  8
0
100
AcDbVertex
100
AcDb2dVertex
 10
582.59774248
 20
497.07154087
 30
0.0
  0
VERTEX
  5
244
330
241
100
AcDbEntity
  8
0
100
AcDbVertex
100
AcDb2dVertex
 10
627.70070593
 20
437.44270095
 30
0.0
  0
VERTEX
  5
245
330
241
100
AcDbEntity
  8
0
100
AcDbVertex
100
AcDb2dVertex
 10
652.15531612
 20
434.23116998
 30
0.0
  0
SEQEND
  5
246
330
241
100
AcDbEntity
  8
0
  0
POLYLINE
  5
247
330
1E
100
AcDbEntity
  8
0
100
AcDb2dPolyline
 66
     1
 10
0.0
 20
0.0
 30
0.0
  0
VERTEX
  5
248
330
247
100
AcDbEntity
  8
0
100
AcDbVertex
100
AcDb2dVertex
 10
675.90476347
 20
564.03707041
 30
0.0
  0
VERTEX
  5
249
330
247
100
AcDbEntity
  8
0
100
AcDbVertex
100
AcDb2dVertex
 10
675.90476347
 20
667.63707041
 30
0.0
  0
VERTEX
  5
24A
330
247
100
AcDbEntity
  8
0
100
AcDbVertex
100
AcDb2dVertex
 10
672.70476347
 20
667.63707041
 30
0.0
  0
SEQEND
  5
24B
330
247
100
AcDbEntity
  8
0
  0
LINE
  5
24C
330
1E
100
AcDbEntity
  8
0
100
AcDbLine
 10
672.70476347
 20
564.03707041
 30
0.0
 11
672.70476347
 21
667.63707041
 31
0.0
  0
LINE
  5
24D
330
1E
100
AcDbEntity
  8
0
100
AcDbLine
 10
675.90476347
 20
564.03707041
 30
0.0
 11
672.70476347
 21
564.03707041
 31
0.0
  0
LINE
  5
24E
330
1E
100
AcDbEntity
  8
0
  6
STRICHPUNKT2
 62
     1
100
AcDbLine
 10
672.70476347
 20
649.63707041
 30
0.0
 11
671.50476347
 21
649.63707041
 31
0.0
  0
LINE
  5
24F
330
1E
100
AcDbEntity
  8
0
  6
STRICHPUNKT2
 62
     1
100
AcDbLine
 10
677.10476347
 20
649.63707041
 30
0.0
 11
675.90476347
 21
649.63707041
 31
0.0
  0
LINE
  5
250
330
1E
100
AcDbEntity
  8
0
  6
STRICHPUNKT2
 62
     1
100
AcDbLine
 10
672.70476347
 20
585.63707041
 30
0.0
 11
671.50476347
 21
585.63707041
 31
0.0
  0
LINE
  5
251
330
1E
100
AcDbEntity
  8
0
  6
STRICHPUNKT2
 62
     1
100
AcDbLine
 10
677.10476347
 20
585.63707041
 30
0.0
 11
675.90476347
 21
585.63707041
 31
0.0
  0
LINE
  5
252
330
1E
100
AcDbEntity
  8
0
  6
STRICHPUNKT2
 62
     1
100
AcDbLine
 10
672.70476347
 20
655.63707041
 30
0.0
 11
671.70476347
 21
655.63707041
 31
0.0
  0
LINE
  5
253
330
1E
100
AcDbEntity
  8
0
  6
STRICHPUNKT2
 62
     1
100
AcDbLine
 10
676.90476347
 20
655.63707041
 30
0.0
 11
675.90476347
 21
655.63707041
 31
0.0
  0
POLYLINE
  5
254
330
1E
100
AcDbEntity
  8
0
100
AcDb2dPolyline
 66
     1
 10
0.0
 20
0.0
 30
0.0
  0
VERTEX
  5
255
330
254
100
AcDbEntity
  8
0
100
AcDbVertex
100
AcDb2dVertex
 10
679.10476347
 20
560.83707041
 30
0.0
 42
-0.414213562
  0
VERTEX
  5
256
330
254
100
AcDbEntity
  8
0
100
AcDbVertex
100
AcDb2dVertex
 10
675.90476347
 20
564.03707041
 30
0.0
  0
VERTEX
  5
257
330
254
100
AcDbEntity
  8
0
100
AcDbVertex
100
AcDb2dVertex
 10
672.70476347
 20
564.03707041
 30
0.0
  0
SEQEND
  5
258
330
254
100
AcDbEntity
  8
0
  0
ARC
  5
259
330
1E
100
AcDbEntity
  8
0
100
AcDbCircle
 10
679.10476347
 20
564.03707041
 30
0.0
 40
6.4
100
AcDbArc
 50
180.0
 51
-90.0
  0
LINE
  5
25A
330
1E
100
AcDbEntity
  8
0
100
AcDbLine
 10
679.10476347
 20
560.83707041
 30
0.0
 11
679.10476347
 21
557.63707041
 31
0.0
  0
POLYLINE
  5
25B
330
1E
100
AcDbEntity
  8
0
100
AcDb2dPolyline
 66
     1
 10
0.0
 20
0.0
 30
0.0
  0
VERTEX
  5
25C
330
25B
100
AcDbEntity
  8
0
100
AcDbVertex
100
AcDb2dVertex
 10
832.70476347
 20
560.83707041
 30
0.0
  0
VERTEX
  5
25D
330
25B
100
AcDbEntity
  8
0
100
AcDbVertex
100
AcDb2dVertex
 10
679.10476347
 20
560.83707041
 30
0.0
  0
VERTEX
  5
25E
330
25B
100
AcDbEntity
  8
0
100
AcDbVertex
100
AcDb2dVertex
 10
679.10476347
 20
557.63707041
 30
0.0
  0
SEQEND
  5
25F
330
25B
100
AcDbEntity
  8
0
  0
LINE
  5
260
330
1E
100
AcDbEntity
  8
0
100
AcDbLine
 10
832.70476347
 20
557.63707041
 30
0.0
 11
679.10476347
 21
557.63707041
 31
0.0
  0
LINE
  5
261
330
1E
100
AcDbEntity
  8
0
100
AcDbLine
 10
832.70476347
 20
560.83707041
 30
0.0
 11
832.70476347
 21
557.63707041
 31
0.0
  0
LINE
  5
262
330
1E
100
AcDbEntity
  8
0
  6
STRICHPUNKT2
 62
     1
100
AcDbLine
 10
690.10476347
 20
557.63707041
 30
0.0
 11
690.10476347
 21
556.43707041
 31
0.0
  0
LINE
  5
263
330
1E
100
AcDbEntity
  8
0
  6
STRICHPUNKT2
 62
     1
100
AcDbLine
 10
690.10476347
 20
562.03707041
 30
0.0
 11
690.10476347
 21
560.83707041
 31
0.0
  0
LINE
  5
264
330
1E
100
AcDbEntity
  8
0
  6
STRICHPUNKT2
 62
     1
100
AcDbLine
 10
820.70476347
 20
557.63707041
 30
0.0
 11
820.70476347
 21
556.43707041
 31
0.0
  0
LINE
  5
265
330
1E
100
AcDbEntity
  8
0
  6
STRICHPUNKT2
 62
     1
100
AcDbLine
 10
820.70476347
 20
562.03707041
 30
0.0
 11
820.70476347
 21
560.83707041
 31
0.0
  0
LINE
  5
266
330
1E
100
AcDbEntity
  8
0
  6
STRICHPUNKT2
 62
     1
100
AcDbLine
 10
780.70476347
 20
557.63707041
 30
0.0
 11
780.70476347
 21
556.43707041
 31
0.0
  0
LINE
  5
267
330
1E
100
AcDbEntity
  8
0
  6
STRICHPUNKT2
 62
     1
100
AcDbLine
 10
780.70476347
 20
562.03707041
 30
0.0
 11
780.70476347
 21
560.83707041
 31
0.0
  0
LINE
  5
268
330
1E
100
AcDbEntity
  8
0
  6
STRICHPUNKT2
 62
     1
100
AcDbLine
 10
715.50476347
 20
557.63707041
 30
0.0
 11
715.50476347
 21
556.43707041
 31
0.0
  0
LINE
  5
269
330
1E
100
AcDbEntity
  8
0
  6
STRICHPUNKT2
 62
     1
100
AcDbLine
 10
715.50476347
 20
562.03707041
 30
0.0
 11
715.50476347
 21
560.83707041
 31
0.0
  0
LINE
  5
26A
330
1E
100
AcDbEntity
  8
0
  6
STRICHPUNKT2
 62
     1
100
AcDbLine
 10
725.90476347
 20
557.63707041
 30
0.0
 11
725.90476347
 21
556.43707041
 31
0.0
  0
LINE
  5
26B
330
1E
100
AcDbEntity
  8
0
  6
STRICHPUNKT2
 62
     1
100
AcDbLine
 10
725.90476347
 20
562.03707041
 30
0.0
 11
725.90476347
 21
560.83707041
 31
0.0
  0
POLYLINE
  5
26C
330
1E
100
AcDbEntity
  8
0
100
AcDb2dPolyline
 66
     1
 10
0.0
 20
0.0
 30
0.0
  0
VERTEX
  5
26D
330
26C
100
AcDbEntity
  8
0
100
AcDbVertex
100
AcDb2dVertex
 10
707.50476347
 20
560.83707041
 30
0.0
  0
VERTEX
  5
26E
330
26C
100
AcDbEntity
  8
0
100
AcDbVertex
100
AcDb2dVertex
 10
707.50476347
 20
667.63707041
 30
0.0
  0
VERTEX
  5
26F
330
26C
100
AcDbEntity
  8
0
100
AcDbVertex
100
AcDb2dVertex
 10
704.30476347
 20
667.63707041
 30
0.0
  0
SEQEND
  5
270
330
26C
100
AcDbEntity
  8
0
  0
LINE
  5
271
330
1E
100
AcDbEntity
  8
0
100
AcDbLine
 10
704.30476347
 20
560.83707041
 30
0.0
 11
704.30476347
 21
667.63707041
 31
0.0
  0
LINE
  5
272
330
1E
100
AcDbEntity
  8
0
100
AcDbLine
 10
707.50476347
 20
560.83707041
 30
0.0
 11
704.30476347
 21
560.83707041
 31
0.0
  0
LINE
  5
273
330
1E
100
AcDbEntity
  8
0
  6
STRICHPUNKT2
 62
     1
100
AcDbLine
 10
704.30476347
 20
585.63707041
 30
0.0
 11
703.10476347
 21
585.63707041
 31
0.0
  0
LINE
  5
274
330
1E
100
AcDbEntity
  8
0
  6
STRICHPUNKT2
 62
     1
100
AcDbLine
 10
708.70476347
 20
585.63707041
 30
0.0
 11
707.50476347
 21
585.63707041
 31
0.0
  0
LINE
  5
275
330
1E
100
AcDbEntity
  8
0
  6
STRICHPUNKT2
 62
     1
100
AcDbLine
 10
704.30476347
 20
659.63707041
 30
0.0
 11
703.30476347
 21
659.63707041
 31
0.0
  0
LINE
  5
276
330
1E
100
AcDbEntity
  8
0
  6
STRICHPUNKT2
 62
     1
100
AcDbLine
 10
708.50476347
 20
659.63707041
 30
0.0
 11
707.50476347
 21
659.63707041
 31
0.0
  0
LINE
  5
277
330
1E
100
AcDbEntity
  8
0
  6
STRICHPUNKT2
 62
     1
100
AcDbLine
 10
704.30476347
 20
649.63707041
 30
0.0
 11
703.10476347
 21
649.63707041
 31
0.0
  0
LINE
  5
278
330
1E
100
AcDbEntity
  8
0
  6
STRICHPUNKT2
 62
     1
100
AcDbLine
 10
708.70476347
 20
649.63707041
 30
0.0
 11
707.50476347
 21
649.63707041
 31
0.0
  0
POLYLINE
  5
279
330
1E
100
AcDbEntity
  8
0
100
AcDb2dPolyline
 66
     1
 10
0.0
 20
0.0
 30
0.0
  0
VERTEX
  5
27A
330
279
100
AcDbEntity
  8
0
100
AcDbVertex
100
AcDb2dVertex
 10
675.90476347
 20
628.43707041
 30
0.0
  0
VERTEX
  5
27B
330
279
100
AcDbEntity
  8
0
100
AcDbVertex
100
AcDb2dVertex
 10
704.30476347
 20
628.43707041
 30
0.0
  0
VERTEX
  5
27C
330
279
100
AcDbEntity
  8
0
100
AcDbVertex
100
AcDb2dVertex
 10
704.30476347
 20
631.63707041
 30
0.0
  0
SEQEND
  5
27D
330
279
100
AcDbEntity
  8
0
  0
LINE
  5
27E
330
1E
100
AcDbEntity
  8
0
100
AcDbLine
 10
675.90476347
 20
631.63707041
 30
0.0
 11
704.30476347
 21
631.63707041
 31
0.0
  0
LINE
  5
27F
330
1E
100
AcDbEntity
  8
0
100
AcDbLine
 10
675.90476347
 20
628.43707041
 30
0.0
 11
675.90476347
 21
631.63707041
 31
0.0
  0
POLYLINE
  5
280
330
1E
100
AcDbEntity
  8
0
100
AcDb2dPolyline
 66
     1
 10
0.0
 20
0.0
 30
0.0
  0
VERTEX
  5
281
330
280
100
AcDbEntity
  8
0
100
AcDbVertex
100
AcDb2dVertex
 10
707.50476347
 20
651.23154333
 30
0.0
  0
VERTEX
  5
282
330
280
100
AcDbEntity
  8
0
100
AcDbVertex
100
AcDb2dVertex
 10
707.50476347
 20
619.45122768
 30
0.0
  0
VERTEX
  5
283
330
280
100
AcDbEntity
  8
0
100
AcDbVertex
100
AcDb2dVertex
 10
754.96957215
 20
560.83707041
 30
0.0
  0
VERTEX
  5
284
330
280
100
AcDbEntity
  8
0
100
AcDbVertex
100
AcDb2dVertex
 10
780.70476347
 20
560.83707041
 30
0.0
  0
SEQEND
  5
285
330
280
100
AcDbEntity
  8
0
  0
LINE
  5
286
330
1E
100
AcDbEntity
  8
0
100
AcDbLine
 10
707.50476347
 20
651.23154333
 30
0.0
 11
780.70476347
 21
560.83707041
 31
0.0
  0
POLYLINE
  5
287
330
1E
100
AcDbEntity
  8
0
100
AcDb2dPolyline
 66
     1
 10
0.0
 20
0.0
 30
0.0
  0
VERTEX
  5
288
330
287
100
AcDbEntity
  8
0
100
AcDbVertex
100
AcDb2dVertex
 10
894.77092886
 20
560.83707041
 30
0.0
  0
VERTEX
  5
289
330
287
100
AcDbEntity
  8
0
100
AcDbVertex
100
AcDb2dVertex
 10
862.77092886
 20
560.83707041
 30
0.0
  0
VERTEX
  5
28A
330
287
100
AcDbEntity
  8
0
100
AcDbVertex
100
AcDb2dVertex
 10
862.77092886
 20
557.63707041
 30
0.0
  0
SEQEND
  5
28B
330
287
100
AcDbEntity
  8
0
  0
LINE
  5
28C
330
1E
100
AcDbEntity
  8
0
100
AcDbLine
 10
894.77092886
 20
557.63707041
 30
0.0
 11
862.77092886
 21
557.63707041
 31
0.0
  0
LINE
  5
28D
330
1E
100
AcDbEntity
  8
0
100
AcDbLine
 10
894.77092886
 20
560.83707041
 30
0.0
 11
894.77092886
 21
557.63707041
 31
0.0
  0
LINE
  5
28E
330
1E
100
AcDbEntity
  8
0
  6
STRICHPUNKT2
 62
     1
100
AcDbLine
 10
878.77092886
 20
557.63707041
 30
0.0
 11
878.77092886
 21
556.43707041
 31
0.0
  0
LINE
  5
28F
330
1E
100
AcDbEntity
  8
0
  6
STRICHPUNKT2
 62
     1
100
AcDbLine
 10
878.77092886
 20
562.03707041
 30
0.0
 11
878.77092886
 21
560.83707041
 31
0.0
  0
CIRCLE
  5
290
330
1E
100
AcDbEntity
  8
0
100
AcDbCircle
 10
868.77092886
 20
659.63707041
 30
0.0
 40
2.0
  0
CIRCLE
  5
291
330
1E
100
AcDbEntity
  8
0
100
AcDbCircle
 10
878.77092886
 20
649.63707041
 30
0.0
 40
2.4
  0
CIRCLE
  5
292
330
1E
100
AcDbEntity
  8
0
100
AcDbCircle
 10
878.77092886
 20
585.63707041
 30
0.0
 40
2.4
  0
LINE
  5
293
330
1E
100
AcDbEntity
  8
0
100
AcDbLine
 10
862.77092886
 20
560.83707041
 30
0.0
 11
862.77092886
 21
667.63707041
 31
0.0
  0
LINE
  5
294
330
1E
100
AcDbEntity
  8
0
100
AcDbLine
 10
894.77092886
 20
667.63707041
 30
0.0
 11
862.77092886
 21
667.63707041
 31
0.0
  0
LINE
  5
295
330
1E
100
AcDbEntity
  8
0
100
AcDbLine
 10
894.77092886
 20
667.63707041
 30
0.0
 11
894.77092886
 21
560.83707041
 31
0.0
  0
LINE
  5
296
330
1E
100
AcDbEntity
  8
0
100
AcDbLine
 10
888.37092886
 20
560.83707041
 30
0.0
 11
862.77092886
 21
560.83707041
 31
0.0
  0
LINE
  5
297
330
1E
100
AcDbEntity
  8
0
100
AcDbLine
 10
894.77092886
 20
560.83707041
 30
0.0
 11
890.77092886
 21
560.83707041
 31
0.0
  0
LINE
  5
298
330
1E
100
AcDbEntity
  8
0
  6
STRICHPUNKT2
 62
     1
100
AcDbLine
 10
878.77092886
 20
585.63707041
 30
0.0
 11
878.77092886
 21
589.23707041
 31
0.0
  0
LINE
  5
299
330
1E
100
AcDbEntity
  8
0
  6
STRICHPUNKT2
 62
     1
100
AcDbLine
 10
878.77092886
 20
585.63707041
 30
0.0
 11
878.77092886
 21
582.03707041
 31
0.0
  0
LINE
  5
29A
330
1E
100
AcDbEntity
  8
0
  6
STRICHPUNKT2
 62
     1
100
AcDbLine
 10
878.77092886
 20
585.63707041
 30
0.0
 11
875.17092886
 21
585.63707041
 31
0.0
  0
LINE
  5
29B
330
1E
100
AcDbEntity
  8
0
  6
STRICHPUNKT2
 62
     1
100
AcDbLine
 10
878.77092886
 20
585.63707041
 30
0.0
 11
882.37092886
 21
585.63707041
 31
0.0
  0
LINE
  5
29C
330
1E
100
AcDbEntity
  8
0
  6
STRICHPUNKT2
 62
     1
100
AcDbLine
 10
878.77092886
 20
649.63707041
 30
0.0
 11
878.77092886
 21
653.23707041
 31
0.0
  0
LINE
  5
29D
330
1E
100
AcDbEntity
  8
0
  6
STRICHPUNKT2
 62
     1
100
AcDbLine
 10
878.77092886
 20
649.63707041
 30
0.0
 11
878.77092886
 21
646.03707041
 31
0.0
  0
LINE
  5
29E
330
1E
100
AcDbEntity
  8
0
  6
STRICHPUNKT2
 62
     1
100
AcDbLine
 10
878.77092886
 20
649.63707041
 30
0.0
 11
875.17092886
 21
649.63707041
 31
0.0
  0
LINE
  5
29F
330
1E
100
AcDbEntity
  8
0
  6
STRICHPUNKT2
 62
     1
100
AcDbLine
 10
878.77092886
 20
649.63707041
 30
0.0
 11
882.37092886
 21
649.63707041
 31
0.0
  0
LINE
  5
2A0
330
1E
100
AcDbEntity
  8
0
  6
STRICHPUNKT2
 62
     1
100
AcDbLine
 10
868.77092886
 20
659.63707041
 30
0.0
 11
868.77092886
 21
662.63707041
 31
0.0
  0
LINE
  5
2A1
330
1E
100
AcDbEntity
  8
0
  6
STRICHPUNKT2
 62
     1
100
AcDbLine
 10
868.77092886
 20
659.63707041
 30
0.0
 11
868.77092886
 21
656.63707041
 31
0.0
  0
LINE
  5
2A2
330
1E
100
AcDbEntity
  8
0
  6
STRICHPUNKT2
 62
     1
100
AcDbLine
 10
868.77092886
 20
659.63707041
 30
0.0
 11
865.77092886
 21
659.63707041
 31
0.0
  0
LINE
  5
2A3
330
1E
100
AcDbEntity
  8
0
  6
STRICHPUNKT2
 62
     1
100
AcDbLine
 10
868.77092886
 20
659.63707041
 30
0.0
 11
871.77092886
 21
659.63707041
 31
0.0
  0
LINE
  5
2A4
330
1E
100
AcDbEntity
  8
0
100
AcDbLine
 10
890.77092886
 20
560.83707041
 30
0.0
 11
888.37092886
 21
560.83707041
 31
0.0
  0
LINE
  5
2A5
330
1E
100
AcDbEntity
  8
0
100
AcDbLine
 10
888.37092886
 20
651.23154333
 30
0.0
 11
888.37092886
 21
560.83707041
 31
0.0
  0
LINE
  5
2A6
330
1E
100
AcDbEntity
  8
0
100
AcDbLine
 10
890.77092886
 20
651.23154333
 30
0.0
 11
888.37092886
 21
651.23154333
 31
0.0
  0
LINE
  5
2A7
330
1E
100
AcDbEntity
  8
0
100
AcDbLine
 10
890.77092886
 20
560.83707041
 30
0.0
 11
890.77092886
 21
651.23154333
 31
0.0
  0
LINE
  5
2A8
330
1E
100
AcDbEntity
  8
0
  6
DOT
 62
     3
100
AcDbLine
 10
675.90476347
 20
513.38055517
 30
0.0
 11
672.70476347
 21
513.38055517
 31
0.0
  0
LINE
  5
2A9
330
1E
100
AcDbEntity
  8
0
  6
DOT
 62
     3
100
AcDbLine
 10
675.90476347
 20
509.38055517
 30
0.0
 11
672.70476347
 21
509.38055517
 31
0.0
  0
LINE
  5
2AA
330
1E
100
AcDbEntity
  8
0
  6
DOT
 62
     3
100
AcDbLine
 10
675.90476347
 20
503.78055517
 30
0.0
 11
672.70476347
 21
503.78055517
 31
0.0
  0
LINE
  5
2AB
330
1E
100
AcDbEntity
  8
0
  6
DOT
 62
     3
100
AcDbLine
 10
675.90476347
 20
498.98055517
 30
0.0
 11
672.70476347
 21
498.98055517
 31
0.0
  0
POLYLINE
  5
2AC
330
1E
100
AcDbEntity
  8
0
100
AcDb2dPolyline
 66
     1
 10
0.0
 20
0.0
 30
0.0
  0
VERTEX
  5
2AD
330
2AC
100
AcDbEntity
  8
0
100
AcDbVertex
100
AcDb2dVertex
 10
675.90476347
 20
517.38055517
 30
0.0
  0
VERTEX
  5
2AE
330
2AC
100
AcDbEntity
  8
0
100
AcDbVertex
100
AcDb2dVertex
 10
675.90476347
 20
485.38055517
 30
0.0
  0
VERTEX
  5
2AF
330
2AC
100
AcDbEntity
  8
0
100
AcDbVertex
100
AcDb2dVertex
 10
672.70476347
 20
485.38055517
 30
0.0
  0
SEQEND
  5
2B0
330
2AC
100
AcDbEntity
  8
0
  0
LINE
  5
2B1
330
1E
100
AcDbEntity
  8
0
100
AcDbLine
 10
672.70476347
 20
517.38055517
 30
0.0
 11
672.70476347
 21
485.38055517
 31
0.0
  0
LINE
  5
2B2
330
1E
100
AcDbEntity
  8
0
100
AcDbLine
 10
675.90476347
 20
517.38055517
 30
0.0
 11
672.70476347
 21
517.38055517
 31
0.0
  0
LINE
  5
2B3
330
1E
100
AcDbEntity
  8
0
  6
STRICHPUNKT2
 62
     1
100
AcDbLine
 10
677.10476347
 20
501.38055517
 30
0.0
 11
671.50476347
 21
501.38055517
 31
0.0
  0
LINE
  5
2B4
330
1E
100
AcDbEntity
  8
0
  6
STRICHPUNKT2
 62
     1
100
AcDbLine
 10
677.10476347
 20
501.38055517
 30
0.0
 11
671.50476347
 21
501.38055517
 31
0.0
  0
LINE
  5
2B5
330
1E
100
AcDbEntity
  8
0
  6
STRICHPUNKT2
 62
     1
100
AcDbLine
 10
676.90476347
 20
511.38055517
 30
0.0
 11
671.70476347
 21
511.38055517
 31
0.0
  0
LINE
  5
2B6
330
1E
100
AcDbEntity
  8
0
  6
DOT
 62
     3
100
AcDbLine
 10
675.90476347
 20
517.38055517
 30
0.0
 11
675.90476347
 21
485.38055517
 31
0.0
  0
LINE
  5
2B7
330
1E
100
AcDbEntity
  8
0
  6
DOT
 62
     3
100
AcDbLine
 10
679.10476347
 20
517.38055517
 30
0.0
 11
679.10476347
 21
485.38055517
 31
0.0
  0
POLYLINE
  5
2B8
330
1E
100
AcDbEntity
  8
0
100
AcDb2dPolyline
 66
     1
 10
0.0
 20
0.0
 30
0.0
 70
     1
  0
VERTEX
  5
2B9
330
2B8
100
AcDbEntity
  8
0
100
AcDbVertex
100
AcDb2dVertex
 10
715.50476347
 20
498.58055517
 30
0.0
 42
-1.0
  0
VERTEX
  5
2BA
330
2B8
100
AcDbEntity
  8
0
100
AcDbVertex
100
AcDb2dVertex
 10
715.50476347
 20
504.18055517
 30
0.0
  0
VERTEX
  5
2BB
330
2B8
100
AcDbEntity
  8
0
100
AcDbVertex
100
AcDb2dVertex
 10
725.90476347
 20
504.18055517
 30
0.0
 42
-1.0
  0
VERTEX
  5
2BC
330
2B8
100
AcDbEntity
  8
0
100
AcDbVertex
100
AcDb2dVertex
 10
725.90476347
 20
498.58055517
 30
0.0
  0
SEQEND
  5
2BD
330
2B8
100
AcDbEntity
  8
0
  0
CIRCLE
  5
2BE
330
1E
100
AcDbEntity
  8
0
100
AcDbCircle
 10
820.70476347
 20
501.38055517
 30
0.0
 40
2.8
  0
CIRCLE
  5
2BF
330
1E
100
AcDbEntity
  8
0
100
AcDbCircle
 10
780.70476347
 20
501.38055517
 30
0.0
 40
2.8
  0
CIRCLE
  5
2C0
330
1E
100
AcDbEntity
  8
0
  6
DOT
 62
     3
100
AcDbCircle
 10
690.10476347
 20
501.38055517
 30
0.0
 40
2.8
  0
LINE
  5
2C1
330
1E
100
AcDbEntity
  8
0
100
AcDbLine
 10
832.70476347
 20
485.38055517
 30
0.0
 11
707.50476347
 21
485.38055517
 31
0.0
  0
LINE
  5
2C2
330
1E
100
AcDbEntity
  8
0
  6
DOT
 62
     3
100
AcDbLine
 10
679.10476347
 20
517.38055517
 30
0.0
 11
679.10476347
 21
485.38055517
 31
0.0
  0
POLYLINE
  5
2C3
330
1E
100
AcDbEntity
  8
0
100
AcDb2dPolyline
 66
     1
 10
0.0
 20
0.0
 30
0.0
  0
VERTEX
  5
2C4
330
2C3
100
AcDbEntity
  8
0
100
AcDbVertex
100
AcDb2dVertex
 10
707.50476347
 20
517.38055517
 30
0.0
  0
VERTEX
  5
2C5
330
2C3
100
AcDbEntity
  8
0
100
AcDbVertex
100
AcDb2dVertex
 10
832.70476347
 20
517.38055517
 30
0.0
  0
VERTEX
  5
2C6
330
2C3
100
AcDbEntity
  8
0
100
AcDbVertex
100
AcDb2dVertex
 10
832.70476347
 20
485.38055517
 30
0.0
  0
SEQEND
  5
2C7
330
2C3
100
AcDbEntity
  8
0
  0
LINE
  5
2C8
330
1E
100
AcDbEntity
  8
0
  6
STRICHPUNKT2
 62
     1
100
AcDbLine
 10
690.10476347
 20
501.38055517
 30
0.0
 11
694.10476347
 21
501.38055517
 31
0.0
  0
LINE
  5
2C9
330
1E
100
AcDbEntity
  8
0
  6
STRICHPUNKT2
 62
     1
100
AcDbLine
 10
690.10476347
 20
501.38055517
 30
0.0
 11
686.10476347
 21
501.38055517
 31
0.0
  0
LINE
  5
2CA
330
1E
100
AcDbEntity
  8
0
  6
STRICHPUNKT2
 62
     1
100
AcDbLine
 10
690.10476347
 20
501.38055517
 30
0.0
 11
690.10476347
 21
505.38055517
 31
0.0
  0
LINE
  5
2CB
330
1E
100
AcDbEntity
  8
0
  6
STRICHPUNKT2
 62
     1
100
AcDbLine
 10
690.10476347
 20
501.38055517
 30
0.0
 11
690.10476347
 21
497.38055517
 31
0.0
  0
LINE
  5
2CC
330
1E
100
AcDbEntity
  8
0
  6
STRICHPUNKT2
 62
     1
100
AcDbLine
 10
690.10476347
 20
501.38055517
 30
0.0
 11
694.10476347
 21
501.38055517
 31
0.0
  0
LINE
  5
2CD
330
1E
100
AcDbEntity
  8
0
  6
STRICHPUNKT2
 62
     1
100
AcDbLine
 10
690.10476347
 20
501.38055517
 30
0.0
 11
686.10476347
 21
501.38055517
 31
0.0
  0
LINE
  5
2CE
330
1E
100
AcDbEntity
  8
0
  6
STRICHPUNKT2
 62
     1
100
AcDbLine
 10
690.10476347
 20
501.38055517
 30
0.0
 11
690.10476347
 21
505.38055517
 31
0.0
  0
LINE
  5
2CF
330
1E
100
AcDbEntity
  8
0
  6
STRICHPUNKT2
 62
     1
100
AcDbLine
 10
690.10476347
 20
501.38055517
 30
0.0
 11
690.10476347
 21
497.38055517
 31
0.0
  0
LINE
  5
2D0
330
1E
100
AcDbEntity
  8
0
  6
STRICHPUNKT2
 62
     1
100
AcDbLine
 10
780.70476347
 20
501.38055517
 30
0.0
 11
784.70476347
 21
501.38055517
 31
0.0
  0
LINE
  5
2D1
330
1E
100
AcDbEntity
  8
0
  6
STRICHPUNKT2
 62
     1
100
AcDbLine
 10
780.70476347
 20
501.38055517
 30
0.0
 11
776.70476347
 21
501.38055517
 31
0.0
  0
LINE
  5
2D2
330
1E
100
AcDbEntity
  8
0
  6
STRICHPUNKT2
 62
     1
100
AcDbLine
 10
780.70476347
 20
501.38055517
 30
0.0
 11
780.70476347
 21
505.38055517
 31
0.0
  0
LINE
  5
2D3
330
1E
100
AcDbEntity
  8
0
  6
STRICHPUNKT2
 62
     1
100
AcDbLine
 10
780.70476347
 20
501.38055517
 30
0.0
 11
780.70476347
 21
497.38055517
 31
0.0
  0
LINE
  5
2D4
330
1E
100
AcDbEntity
  8
0
  6
STRICHPUNKT2
 62
     1
100
AcDbLine
 10
780.70476347
 20
501.38055517
 30
0.0
 11
784.70476347
 21
501.38055517
 31
0.0
  0
LINE
  5
2D5
330
1E
100
AcDbEntity
  8
0
  6
STRICHPUNKT2
 62
     1
100
AcDbLine
 10
780.70476347
 20
501.38055517
 30
0.0
 11
776.70476347
 21
501.38055517
 31
0.0
  0
LINE
  5
2D6
330
1E
100
AcDbEntity
  8
0
  6
STRICHPUNKT2
 62
     1
100
AcDbLine
 10
780.70476347
 20
501.38055517
 30
0.0
 11
780.70476347
 21
505.38055517
 31
0.0
  0
LINE
  5
2D7
330
1E
100
AcDbEntity
  8
0
  6
STRICHPUNKT2
 62
     1
100
AcDbLine
 10
780.70476347
 20
501.38055517
 30
0.0
 11
780.70476347
 21
497.38055517
 31
0.0
  0
LINE
  5
2D8
330
1E
100
AcDbEntity
  8
0
  6
STRICHPUNKT2
 62
     1
100
AcDbLine
 10
820.70476347
 20
501.38055517
 30
0.0
 11
824.70476347
 21
501.38055517
 31
0.0
  0
LINE
  5
2D9
330
1E
100
AcDbEntity
  8
0
  6
STRICHPUNKT2
 62
     1
100
AcDbLine
 10
820.70476347
 20
501.38055517
 30
0.0
 11
816.70476347
 21
501.38055517
 31
0.0
  0
LINE
  5
2DA
330
1E
100
AcDbEntity
  8
0
  6
STRICHPUNKT2
 62
     1
100
AcDbLine
 10
820.70476347
 20
501.38055517
 30
0.0
 11
820.70476347
 21
505.38055517
 31
0.0
  0
LINE
  5
2DB
330
1E
100
AcDbEntity
  8
0
  6
STRICHPUNKT2
 62
     1
100
AcDbLine
 10
820.70476347
 20
501.38055517
 30
0.0
 11
820.70476347
 21
497.38055517
 31
0.0
  0
LINE
  5
2DC
330
1E
100
AcDbEntity
  8
0
  6
STRICHPUNKT2
 62
     1
100
AcDbLine
 10
820.70476347
 20
501.38055517
 30
0.0
 11
824.70476347
 21
501.38055517
 31
0.0
  0
LINE
  5
2DD
330
1E
100
AcDbEntity
  8
0
  6
STRICHPUNKT2
 62
     1
100
AcDbLine
 10
820.70476347
 20
501.38055517
 30
0.0
 11
816.70476347
 21
501.38055517
 31
0.0
  0
LINE
  5
2DE
330
1E
100
AcDbEntity
  8
0
  6
STRICHPUNKT2
 62
     1
100
AcDbLine
 10
820.70476347
 20
501.38055517
 30
0.0
 11
820.70476347
 21
505.38055517
 31
0.0
  0
LINE
  5
2DF
330
1E
100
AcDbEntity
  8
0
  6
STRICHPUNKT2
 62
     1
100
AcDbLine
 10
820.70476347
 20
501.38055517
 30
0.0
 11
820.70476347
 21
497.38055517
 31
0.0
  0
LINE
  5
2E0
330
1E
100
AcDbEntity
  8
0
  6
STRICHPUNKT2
 62
     1
100
AcDbLine
 10
711.50476347
 20
501.38055517
 30
0.0
 11
729.90476347
 21
501.38055517
 31
0.0
  0
LINE
  5
2E1
330
1E
100
AcDbEntity
  8
0
  6
STRICHPUNKT2
 62
     1
100
AcDbLine
 10
715.50476347
 20
497.38055517
 30
0.0
 11
715.50476347
 21
505.38055517
 31
0.0
  0
LINE
  5
2E2
330
1E
100
AcDbEntity
  8
0
  6
STRICHPUNKT2
 62
     1
100
AcDbLine
 10
725.90476347
 20
497.38055517
 30
0.0
 11
725.90476347
 21
505.38055517
 31
0.0
  0
LINE
  5
2E3
330
1E
100
AcDbEntity
  8
0
  6
STRICHPUNKT2
 62
     1
100
AcDbLine
 10
711.50476347
 20
501.38055517
 30
0.0
 11
729.90476347
 21
501.38055517
 31
0.0
  0
LINE
  5
2E4
330
1E
100
AcDbEntity
  8
0
  6
STRICHPUNKT2
 62
     1
100
AcDbLine
 10
715.50476347
 20
497.38055517
 30
0.0
 11
715.50476347
 21
505.38055517
 31
0.0
  0
LINE
  5
2E5
330
1E
100
AcDbEntity
  8
0
  6
STRICHPUNKT2
 62
     1
100
AcDbLine
 10
725.90476347
 20
497.38055517
 30
0.0
 11
725.90476347
 21
505.38055517
 31
0.0
  0
LINE
  5
2E6
330
1E
100
AcDbEntity
  8
0
  6
DOT
 62
     3
100
AcDbLine
 10
707.50476347
 20
493.38055517
 30
0.0
 11
704.30476347
 21
493.38055517
 31
0.0
  0
LINE
  5
2E7
330
1E
100
AcDbEntity
  8
0
  6
DOT
 62
     3
100
AcDbLine
 10
707.50476347
 20
489.38055517
 30
0.0
 11
704.30476347
 21
489.38055517
 31
0.0
  0
LINE
  5
2E8
330
1E
100
AcDbEntity
  8
0
  6
DOT
 62
     3
100
AcDbLine
 10
707.50476347
 20
503.78055517
 30
0.0
 11
704.30476347
 21
503.78055517
 31
0.0
  0
LINE
  5
2E9
330
1E
100
AcDbEntity
  8
0
  6
DOT
 62
     3
100
AcDbLine
 10
707.50476347
 20
498.98055517
 30
0.0
 11
704.30476347
 21
498.98055517
 31
0.0
  0
POLYLINE
  5
2EA
330
1E
100
AcDbEntity
  8
0
100
AcDb2dPolyline
 66
     1
 10
0.0
 20
0.0
 30
0.0
  0
VERTEX
  5
2EB
330
2EA
100
AcDbEntity
  8
0
100
AcDbVertex
100
AcDb2dVertex
 10
707.50476347
 20
517.38055517
 30
0.0
  0
VERTEX
  5
2EC
330
2EA
100
AcDbEntity
  8
0
100
AcDbVertex
100
AcDb2dVertex
 10
707.50476347
 20
485.38055517
 30
0.0
  0
VERTEX
  5
2ED
330
2EA
100
AcDbEntity
  8
0
100
AcDbVertex
100
AcDb2dVertex
 10
704.30476347
 20
485.38055517
 30
0.0
  0
SEQEND
  5
2EE
330
2EA
100
AcDbEntity
  8
0
  0
LINE
  5
2EF
330
1E
100
AcDbEntity
  8
0
100
AcDbLine
 10
704.30476347
 20
517.38055517
 30
0.0
 11
704.30476347
 21
485.38055517
 31
0.0
  0
LINE
  5
2F0
330
1E
100
AcDbEntity
  8
0
100
AcDbLine
 10
707.50476347
 20
517.38055517
 30
0.0
 11
704.30476347
 21
517.38055517
 31
0.0
  0
LINE
  5
2F1
330
1E
100
AcDbEntity
  8
0
  6
STRICHPUNKT2
 62
     1
100
AcDbLine
 10
708.70476347
 20
501.38055517
 30
0.0
 11
703.10476347
 21
501.38055517
 31
0.0
  0
LINE
  5
2F2
330
1E
100
AcDbEntity
  8
0
  6
STRICHPUNKT2
 62
     1
100
AcDbLine
 10
708.50476347
 20
491.38055517
 30
0.0
 11
703.30476347
 21
491.38055517
 31
0.0
  0
LINE
  5
2F3
330
1E
100
AcDbEntity
  8
0
  6
STRICHPUNKT2
 62
     1
100
AcDbLine
 10
708.70476347
 20
501.38055517
 30
0.0
 11
703.10476347
 21
501.38055517
 31
0.0
  0
LINE
  5
2F4
330
1E
100
AcDbEntity
  8
0
100
AcDbLine
 10
704.30476347
 20
517.38055517
 30
0.0
 11
704.30476347
 21
485.38055517
 31
0.0
  0
LINE
  5
2F5
330
1E
100
AcDbEntity
  8
0
100
AcDbLine
 10
675.90476347
 20
485.38055517
 30
0.0
 11
704.30476347
 21
485.38055517
 31
0.0
  0
LINE
  5
2F6
330
1E
100
AcDbEntity
  8
0
100
AcDbLine
 10
675.90476347
 20
517.38055517
 30
0.0
 11
675.90476347
 21
485.38055517
 31
0.0
  0
LINE
  5
2F7
330
1E
100
AcDbEntity
  8
0
100
AcDbLine
 10
704.30476347
 20
517.38055517
 30
0.0
 11
675.90476347
 21
517.38055517
 31
0.0
  0
LINE
  5
2F8
330
1E
100
AcDbEntity
  8
0
  6
DOT
 62
     3
100
AcDbLine
 10
754.96957215
 20
513.38055517
 30
0.0
 11
754.96957215
 21
510.98055517
 31
0.0
  0
LINE
  5
2F9
330
1E
100
AcDbEntity
  8
0
100
AcDbLine
 10
780.70476347
 20
513.38055517
 30
0.0
 11
780.70476347
 21
510.98055517
 31
0.0
  0
LINE
  5
2FA
330
1E
100
AcDbEntity
  8
0
100
AcDbLine
 10
707.50476347
 20
510.98055517
 30
0.0
 11
780.70476347
 21
510.98055517
 31
0.0
  0
LINE
  5
2FB
330
1E
100
AcDbEntity
  8
0
100
AcDbLine
 10
707.50476347
 20
513.38055517
 30
0.0
 11
707.50476347
 21
510.98055517
 31
0.0
  0
LINE
  5
2FC
330
1E
100
AcDbEntity
  8
0
100
AcDbLine
 10
780.70476347
 20
513.38055517
 30
0.0
 11
707.50476347
 21
513.38055517
 31
0.0
  0
CIRCLE
  5
2FD
330
1E
100
AcDbEntity
  8
0
100
AcDbCircle
 10
596.45163318
 20
585.63707041
 30
0.0
 40
2.4
  0
CIRCLE
  5
2FE
330
1E
100
AcDbEntity
  8
0
100
AcDbCircle
 10
586.45163318
 20
655.63707041
 30
0.0
 40
2.0
  0
CIRCLE
  5
2FF
330
1E
100
AcDbEntity
  8
0
100
AcDbCircle
 10
596.45163318
 20
649.63707041
 30
0.0
 40
2.4
  0
LINE
  5
300
330
1E
100
AcDbEntity
  8
0
100
AcDbLine
 10
580.45163318
 20
667.63707041
 30
0.0
 11
612.45163318
 21
667.63707041
 31
0.0
  0
LINE
  5
301
330
1E
100
AcDbEntity
  8
0
100
AcDbLine
 10
612.45163318
 20
564.03707041
 30
0.0
 11
612.45163318
 21
667.63707041
 31
0.0
  0
LINE
  5
302
330
1E
100
AcDbEntity
  8
0
100
AcDbLine
 10
580.45163318
 20
564.03707041
 30
0.0
 11
612.45163318
 21
564.03707041
 31
0.0
  0
LINE
  5
303
330
1E
100
AcDbEntity
  8
0
100
AcDbLine
 10
580.45163318
 20
667.63707041
 30
0.0
 11
580.45163318
 21
564.03707041
 31
0.0
  0
LINE
  5
304
330
1E
100
AcDbEntity
  8
0
  6
STRICHPUNKT2
 62
     1
100
AcDbLine
 10
596.45163318
 20
649.63707041
 30
0.0
 11
596.45163318
 21
646.03707041
 31
0.0
  0
LINE
  5
305
330
1E
100
AcDbEntity
  8
0
  6
STRICHPUNKT2
 62
     1
100
AcDbLine
 10
596.45163318
 20
649.63707041
 30
0.0
 11
596.45163318
 21
653.23707041
 31
0.0
  0
LINE
  5
306
330
1E
100
AcDbEntity
  8
0
  6
STRICHPUNKT2
 62
     1
100
AcDbLine
 10
596.45163318
 20
649.63707041
 30
0.0
 11
592.85163318
 21
649.63707041
 31
0.0
  0
LINE
  5
307
330
1E
100
AcDbEntity
  8
0
  6
STRICHPUNKT2
 62
     1
100
AcDbLine
 10
596.45163318
 20
649.63707041
 30
0.0
 11
600.05163318
 21
649.63707041
 31
0.0
  0
LINE
  5
308
330
1E
100
AcDbEntity
  8
0
  6
STRICHPUNKT2
 62
     1
100
AcDbLine
 10
586.45163318
 20
655.63707041
 30
0.0
 11
586.45163318
 21
652.63707041
 31
0.0
  0
LINE
  5
309
330
1E
100
AcDbEntity
  8
0
  6
STRICHPUNKT2
 62
     1
100
AcDbLine
 10
586.45163318
 20
655.63707041
 30
0.0
 11
586.45163318
 21
658.63707041
 31
0.0
  0
LINE
  5
30A
330
1E
100
AcDbEntity
  8
0
  6
STRICHPUNKT2
 62
     1
100
AcDbLine
 10
586.45163318
 20
655.63707041
 30
0.0
 11
583.45163318
 21
655.63707041
 31
0.0
  0
LINE
  5
30B
330
1E
100
AcDbEntity
  8
0
  6
STRICHPUNKT2
 62
     1
100
AcDbLine
 10
586.45163318
 20
655.63707041
 30
0.0
 11
589.45163318
 21
655.63707041
 31
0.0
  0
LINE
  5
30C
330
1E
100
AcDbEntity
  8
0
  6
STRICHPUNKT2
 62
     1
100
AcDbLine
 10
596.45163318
 20
585.63707041
 30
0.0
 11
596.45163318
 21
582.03707041
 31
0.0
  0
LINE
  5
30D
330
1E
100
AcDbEntity
  8
0
  6
STRICHPUNKT2
 62
     1
100
AcDbLine
 10
596.45163318
 20
585.63707041
 30
0.0
 11
596.45163318
 21
589.23707041
 31
0.0
  0
LINE
  5
30E
330
1E
100
AcDbEntity
  8
0
  6
STRICHPUNKT2
 62
     1
100
AcDbLine
 10
596.45163318
 20
585.63707041
 30
0.0
 11
592.85163318
 21
585.63707041
 31
0.0
  0
LINE
  5
30F
330
1E
100
AcDbEntity
  8
0
  6
STRICHPUNKT2
 62
     1
100
AcDbLine
 10
596.45163318
 20
585.63707041
 30
0.0
 11
600.05163318
 21
585.63707041
 31
0.0
  0
LINE
  5
310
330
1E
100
AcDbEntity
  8
0
100
AcDbLine
 10
580.45163318
 20
564.03707041
 30
0.0
 11
612.45163318
 21
564.03707041
 31
0.0
  0
LINE
  5
311
330
1E
100
AcDbEntity
  8
0
100
AcDbLine
 10
612.45163318
 20
557.63707041
 30
0.0
 11
612.45163318
 21
564.03707041
 31
0.0
  0
LINE
  5
312
330
1E
100
AcDbEntity
  8
0
100
AcDbLine
 10
580.45163318
 20
557.63707041
 30
0.0
 11
612.45163318
 21
557.63707041
 31
0.0
  0
LINE
  5
313
330
1E
100
AcDbEntity
  8
0
100
AcDbLine
 10
580.45163318
 20
564.03707041
 30
0.0
 11
580.45163318
 21
557.63707041
 31
0.0
  0
LINE
  5
314
330
1E
100
AcDbEntity
  8
0
100
AcDbLine
 10
580.45163318
 20
557.63707041
 30
0.0
 11
612.45163318
 21
557.63707041
 31
0.0
  0
LINE
  5
315
330
1E
100
AcDbEntity
  8
0
  6
STRICHPUNKT2
 62
     1
100
AcDbLine
 10
596.45163318
 20
557.63707041
 30
0.0
 11
596.45163318
 21
556.43707041
 31
0.0
  0
TEXT
  5
316
330
1E
100
AcDbEntity
  8
TXT_DIM49
100
AcDbText
 10
673.37731133
 20
673.80554637
 30
0.0
 40
2.5
  1
8
  7
ARIAL
100
AcDbText
  0
LINE
  5
317
330
1E
100
AcDbEntity
  8
0
 62
     4
100
AcDbLine
 10
673.70476347
 20
673.30554637
 30
0.0
 11
671.70476347
 21
671.30554637
 31
0.0
  0
LINE
  5
318
330
1E
100
AcDbEntity
  8
0
 62
     4
100
AcDbLine
 10
675.15476347
 20
671.55554637
 30
0.0
 11
676.65476347
 21
673.05554637
 31
0.0
  0
LINE
  5
319
330
1E
100
AcDbEntity
  8
0
 62
     4
100
AcDbLine
 10
672.70476347
 20
672.30554637
 30
0.0
 11
675.90476347
 21
672.30554637
 31
0.0
  0
LINE
  5
31A
330
1E
100
AcDbEntity
  8
0
 62
     4
100
AcDbLine
 10
672.70476347
 20
670.30554637
 30
0.0
 11
672.70476347
 21
674.30554637
 31
0.0
  0
LINE
  5
31B
330
1E
100
AcDbEntity
  8
0
 62
     4
100
AcDbLine
 10
675.90476347
 20
670.30554637
 30
0.0
 11
675.90476347
 21
674.30554637
 31
0.0
  0
TEXT
  5
31C
330
1E
100
AcDbEntity
  8
TXT_DIM49
100
AcDbText
 10
688.24985918
 20
673.80554637
 30
0.0
 40
2.5
  1
71
  7
ARIAL
100
AcDbText
  0
LINE
  5
31D
330
1E
100
AcDbEntity
  8
0
 62
     4
100
AcDbLine
 10
676.90476347
 20
673.30554637
 30
0.0
 11
674.90476347
 21
671.30554637
 31
0.0
  0
LINE
  5
31E
330
1E
100
AcDbEntity
  8
0
 62
     4
100
AcDbLine
 10
703.55476347
 20
671.55554637
 30
0.0
 11
705.05476347
 21
673.05554637
 31
0.0
  0
LINE
  5
31F
330
1E
100
AcDbEntity
  8
0
 62
     4
100
AcDbLine
 10
675.90476347
 20
672.30554637
 30
0.0
 11
704.30476347
 21
672.30554637
 31
0.0
  0
LINE
  5
320
330
1E
100
AcDbEntity
  8
0
 62
     4
100
AcDbLine
 10
675.90476347
 20
670.30554637
 30
0.0
 11
675.90476347
 21
674.30554637
 31
0.0
  0
LINE
  5
321
330
1E
100
AcDbEntity
  8
0
 62
     4
100
AcDbLine
 10
704.30476347
 20
670.30554637
 30
0.0
 11
704.30476347
 21
674.30554637
 31
0.0
  0
TEXT
  5
322
330
1E
100
AcDbEntity
  8
TXT_DIM49
100
AcDbText
 10
704.97731132
 20
673.80554637
 30
0.0
 40
2.5
  1
8
  7
ARIAL
100
AcDbText
  0
LINE
  5
323
330
1E
100
AcDbEntity
  8
0
 62
     4
100
AcDbLine
 10
705.30476347
 20
673.30554637
 30
0.0
 11
703.30476347
 21
671.30554637
 31
0.0
  0
LINE
  5
324
330
1E
100
AcDbEntity
  8
0
 62
     4
100
AcDbLine
 10
706.75476347
 20
671.55554637
 30
0.0
 11
708.25476347
 21
673.05554637
 31
0.0
  0
LINE
  5
325
330
1E
100
AcDbEntity
  8
0
 62
     4
100
AcDbLine
 10
704.30476347
 20
672.30554637
 30
0.0
 11
707.50476347
 21
672.30554637
 31
0.0
  0
LINE
  5
326
330
1E
100
AcDbEntity
  8
0
 62
     4
100
AcDbLine
 10
704.30476347
 20
670.30554637
 30
0.0
 11
704.30476347
 21
674.30554637
 31
0.0
  0
LINE
  5
327
330
1E
100
AcDbEntity
  8
0
 62
     4
100
AcDbLine
 10
707.50476347
 20
670.30554637
 30
0.0
 11
707.50476347
 21
674.30554637
 31
0.0
  0
TEXT
  5
328
330
1E
100
AcDbEntity
  8
TXT_DIM49
100
AcDbText
 10
767.32240697
 20
673.80554637
 30
0.0
 40
2.5
  1
313
  7
ARIAL
100
AcDbText
  0
LINE
  5
329
330
1E
100
AcDbEntity
  8
0
 62
     4
100
AcDbLine
 10
708.50476347
 20
673.30554637
 30
0.0
 11
706.50476347
 21
671.30554637
 31
0.0
  0
LINE
  5
32A
330
1E
100
AcDbEntity
  8
0
 62
     4
100
AcDbLine
 10
831.95476347
 20
671.55554637
 30
0.0
 11
833.45476347
 21
673.05554637
 31
0.0
  0
LINE
  5
32B
330
1E
100
AcDbEntity
  8
0
 62
     4
100
AcDbLine
 10
707.50476347
 20
672.30554637
 30
0.0
 11
832.70476347
 21
672.30554637
 31
0.0
  0
LINE
  5
32C
330
1E
100
AcDbEntity
  8
0
 62
     4
100
AcDbLine
 10
707.50476347
 20
670.30554637
 30
0.0
 11
707.50476347
 21
674.30554637
 31
0.0
  0
LINE
  5
32D
330
1E
100
AcDbEntity
  8
0
 62
     4
100
AcDbLine
 10
832.70476347
 20
670.30554637
 30
0.0
 11
832.70476347
 21
674.30554637
 31
0.0
  0
TEXT
  5
32E
330
1E
100
AcDbEntity
  8
TXT_DIM49
100
AcDbText
 10
749.92240697
 20
547.17491846
 30
0.0
 40
2.5
  1
400
  7
ARIAL
100
AcDbText
  0
LINE
  5
32F
330
1E
100
AcDbEntity
  8
0
 62
     4
100
AcDbLine
 10
673.70476347
 20
546.67491846
 30
0.0
 11
671.70476347
 21
544.67491846
 31
0.0
  0
LINE
  5
330
330
1E
100
AcDbEntity
  8
0
 62
     4
100
AcDbLine
 10
831.95476347
 20
544.92491846
 30
0.0
 11
833.45476347
 21
546.42491846
 31
0.0
  0
LINE
  5
331
330
1E
100
AcDbEntity
  8
0
 62
     4
100
AcDbLine
 10
672.70476347
 20
545.67491846
 30
0.0
 11
832.70476347
 21
545.67491846
 31
0.0
  0
LINE
  5
332
330
1E
100
AcDbEntity
  8
0
 62
     4
100
AcDbLine
 10
672.70476347
 20
547.67491846
 30
0.0
 11
672.70476347
 21
543.67491846
 31
0.0
  0
LINE
  5
333
330
1E
100
AcDbEntity
  8
0
 62
     4
100
AcDbLine
 10
832.70476347
 20
547.67491846
 30
0.0
 11
832.70476347
 21
543.67491846
 31
0.0
  0
TEXT
  5
334
330
1E
100
AcDbEntity
  8
TXT_DIM49
100
AcDbText
 10
735.67209016
 20
597.61016151
 30
0.0
 40
2.5
  1
50
 50
39.00123735
  7
ARIAL
100
AcDbText
  0
LINE
  5
335
330
1E
100
AcDbEntity
  8
0
 62
     4
100
AcDbLine
 10
730.43396793
 20
592.72503404
 30
0.0
 11
730.13831678
 21
589.91210133
 31
0.0
  0
LINE
  5
336
330
1E
100
AcDbEntity
  8
0
 62
     4
100
AcDbLine
 10
745.71819272
 20
602.85012585
 30
0.0
 11
745.93993109
 21
604.95982538
 31
0.0
  0
LINE
  5
337
330
1E
100
AcDbEntity
  8
0
 62
     4
100
AcDbLine
 10
730.28614236
 20
591.31856769
 30
0.0
 11
745.8290619
 21
603.90497562
 31
0.0
  0
LINE
  5
338
330
1E
100
AcDbEntity
  8
0
 62
     4
100
AcDbLine
 10
731.23716781
 20
590.14414905
 30
0.0
 11
729.02750158
 21
592.87285962
 31
0.0
  0
LINE
  5
339
330
1E
100
AcDbEntity
  8
0
 62
     4
100
AcDbLine
 10
746.78008736
 20
602.73055698
 30
0.0
 11
744.57042113
 21
605.45926755
 31
0.0
  0
TEXT
  5
33A
330
1E
100
AcDbEntity
  8
TXT_DIM49
100
AcDbText
 10
836.92779916
 20
558.30961827
 30
0.0
 40
2.5
  1
8
 50
90.00020741
  7
ARIAL
100
AcDbText
  0
LINE
  5
33B
330
1E
100
AcDbEntity
  8
0
 62
     4
100
AcDbLine
 10
837.42779916
 20
558.63707041
 30
0.0
 11
839.42779916
 21
556.63707041
 31
0.0
  0
LINE
  5
33C
330
1E
100
AcDbEntity
  8
0
 62
     4
100
AcDbLine
 10
839.17779916
 20
560.08707041
 30
0.0
 11
837.67779916
 21
561.58707041
 31
0.0
  0
LINE
  5
33D
330
1E
100
AcDbEntity
  8
0
 62
     4
100
AcDbLine
 10
838.42779916
 20
557.63707041
 30
0.0
 11
838.42779916
 21
560.83707041
 31
0.0
  0
LINE
  5
33E
330
1E
100
AcDbEntity
  8
0
 62
     4
100
AcDbLine
 10
836.42779916
 20
557.63707041
 30
0.0
 11
840.42779916
 21
557.63707041
 31
0.0
  0
LINE
  5
33F
330
1E
100
AcDbEntity
  8
0
 62
     4
100
AcDbLine
 10
836.42779916
 20
560.83707041
 30
0.0
 11
840.42779916
 21
560.83707041
 31
0.0
  0
TEXT
  5
340
330
1E
100
AcDbEntity
  8
TXT_DIM49
100
AcDbText
 10
666.92779916
 20
590.25471391
 30
0.0
 40
2.5
  1
177
 50
90.00020741
  7
ARIAL
100
AcDbText
  0
LINE
  5
341
330
1E
100
AcDbEntity
  8
0
 62
     4
100
AcDbLine
 10
667.42779916
 20
558.63707041
 30
0.0
 11
669.42779916
 21
556.63707041
 31
0.0
  0
LINE
  5
342
330
1E
100
AcDbEntity
  8
0
 62
     4
100
AcDbLine
 10
669.17779916
 20
627.68707041
 30
0.0
 11
667.67779916
 21
629.18707041
 31
0.0
  0
LINE
  5
343
330
1E
100
AcDbEntity
  8
0
 62
     4
100
AcDbLine
 10
668.42779916
 20
557.63707041
 30
0.0
 11
668.42779916
 21
628.43707041
 31
0.0
  0
LINE
  5
344
330
1E
100
AcDbEntity
  8
0
 62
     4
100
AcDbLine
 10
670.42779916
 20
557.63707041
 30
0.0
 11
666.42779916
 21
557.63707041
 31
0.0
  0
LINE
  5
345
330
1E
100
AcDbEntity
  8
0
 62
     4
100
AcDbLine
 10
670.42779916
 20
628.43707041
 30
0.0
 11
666.42779916
 21
628.43707041
 31
0.0
  0
TEXT
  5
346
330
1E
100
AcDbEntity
  8
TXT_DIM49
100
AcDbText
 10
666.92779916
 20
629.10961827
 30
0.0
 40
2.5
  1
8
 50
90.00020741
  7
ARIAL
100
AcDbText
  0
LINE
  5
347
330
1E
100
AcDbEntity
  8
0
 62
     4
100
AcDbLine
 10
667.42779916
 20
629.43707041
 30
0.0
 11
669.42779916
 21
627.43707041
 31
0.0
  0
LINE
  5
348
330
1E
100
AcDbEntity
  8
0
 62
     4
100
AcDbLine
 10
669.17779916
 20
630.88707041
 30
0.0
 11
667.67779916
 21
632.38707041
 31
0.0
  0
LINE
  5
349
330
1E
100
AcDbEntity
  8
0
 62
     4
100
AcDbLine
 10
668.42779916
 20
628.43707041
 30
0.0
 11
668.42779916
 21
631.63707041
 31
0.0
  0
LINE
  5
34A
330
1E
100
AcDbEntity
  8
0
 62
     4
100
AcDbLine
 10
670.42779916
 20
628.43707041
 30
0.0
 11
666.42779916
 21
628.43707041
 31
0.0
  0
LINE
  5
34B
330
1E
100
AcDbEntity
  8
0
 62
     4
100
AcDbLine
 10
670.42779916
 20
631.63707041
 30
0.0
 11
666.42779916
 21
631.63707041
 31
0.0
  0
TEXT
  5
34C
330
1E
100
AcDbEntity
  8
TXT_DIM49
100
AcDbText
 10
666.92779916
 20
647.78216612
 30
0.0
 40
2.5
  1
90
 50
90.00020741
  7
ARIAL
100
AcDbText
  0
LINE
  5
34D
330
1E
100
AcDbEntity
  8
0
 62
     4
100
AcDbLine
 10
667.42779916
 20
632.63707041
 30
0.0
 11
669.42779916
 21
630.63707041
 31
0.0
  0
LINE
  5
34E
330
1E
100
AcDbEntity
  8
0
 62
     4
100
AcDbLine
 10
669.17779916
 20
666.88707041
 30
0.0
 11
667.67779916
 21
668.38707041
 31
0.0
  0
LINE
  5
34F
330
1E
100
AcDbEntity
  8
0
 62
     4
100
AcDbLine
 10
668.42779916
 20
631.63707041
 30
0.0
 11
668.42779916
 21
667.63707041
 31
0.0
  0
LINE
  5
350
330
1E
100
AcDbEntity
  8
0
 62
     4
100
AcDbLine
 10
670.42779916
 20
631.63707041
 30
0.0
 11
666.42779916
 21
631.63707041
 31
0.0
  0
LINE
  5
351
330
1E
100
AcDbEntity
  8
0
 62
     4
100
AcDbLine
 10
670.42779916
 20
667.63707041
 30
0.0
 11
666.42779916
 21
667.63707041
 31
0.0
  0
TEXT
  5
352
330
1E
100
AcDbEntity
  8
TXT_DIM49
100
AcDbText
 10
656.92779916
 20
609.85471391
 30
0.0
 40
2.5
  1
275
 50
90.00020741
  7
ARIAL
100
AcDbText
  0
LINE
  5
353
330
1E
100
AcDbEntity
  8
0
 62
     4
100
AcDbLine
 10
659.42779916
 20
666.63707041
 30
0.0
 11
657.42779916
 21
668.63707041
 31
0.0
  0
LINE
  5
354
330
1E
100
AcDbEntity
  8
0
 62
     4
100
AcDbLine
 10
657.67779916
 20
558.38707041
 30
0.0
 11
659.17779916
 21
556.88707041
 31
0.0
  0
LINE
  5
355
330
1E
100
AcDbEntity
  8
0
 62
     4
100
AcDbLine
 10
658.42779916
 20
667.63707041
 30
0.0
 11
658.42779916
 21
557.63707041
 31
0.0
  0
LINE
  5
356
330
1E
100
AcDbEntity
  8
0
 62
     4
100
AcDbLine
 10
660.42779916
 20
667.63707041
 30
0.0
 11
656.42779916
 21
667.63707041
 31
0.0
  0
LINE
  5
357
330
1E
100
AcDbEntity
  8
0
 62
     4
100
AcDbLine
 10
660.42779916
 20
557.63707041
 30
0.0
 11
656.42779916
 21
557.63707041
 31
0.0
  0
TEXT
  5
358
330
1E
100
AcDbEntity
  8
TXT_DIM49
100
AcDbText
 10
863.91602457
 20
674.45936312
 30
0.0
 40
2.5
  1
15
  7
ARIAL
100
AcDbText
  0
LINE
  5
359
330
1E
100
AcDbEntity
  8
0
 62
     4
100
AcDbLine
 10
863.77092886
 20
673.95936312
 30
0.0
 11
861.77092886
 21
671.95936312
 31
0.0
  0
LINE
  5
35A
330
1E
100
AcDbEntity
  8
0
 62
     4
100
AcDbLine
 10
868.02092886
 20
672.20936312
 30
0.0
 11
869.52092886
 21
673.70936312
 31
0.0
  0
LINE
  5
35B
330
1E
100
AcDbEntity
  8
0
 62
     4
100
AcDbLine
 10
862.77092886
 20
672.95936312
 30
0.0
 11
868.77092886
 21
672.95936312
 31
0.0
  0
LINE
  5
35C
330
1E
100
AcDbEntity
  8
0
 62
     4
100
AcDbLine
 10
862.77092886
 20
670.95936312
 30
0.0
 11
862.77092886
 21
674.95936312
 31
0.0
  0
LINE
  5
35D
330
1E
100
AcDbEntity
  8
0
 62
     4
100
AcDbLine
 10
868.77092886
 20
670.95936312
 30
0.0
 11
868.77092886
 21
674.95936312
 31
0.0
  0
TEXT
  5
35E
330
1E
100
AcDbEntity
  8
TXT_DIM49
100
AcDbText
 10
871.91602457
 20
674.45936312
 30
0.0
 40
2.5
  1
25
  7
ARIAL
100
AcDbText
  0
LINE
  5
35F
330
1E
100
AcDbEntity
  8
0
 62
     4
100
AcDbLine
 10
869.77092886
 20
673.95936312
 30
0.0
 11
867.77092886
 21
671.95936312
 31
0.0
  0
LINE
  5
360
330
1E
100
AcDbEntity
  8
0
 62
     4
100
AcDbLine
 10
878.02092886
 20
672.20936312
 30
0.0
 11
879.52092886
 21
673.70936312
 31
0.0
  0
LINE
  5
361
330
1E
100
AcDbEntity
  8
0
 62
     4
100
AcDbLine
 10
868.77092886
 20
672.95936312
 30
0.0
 11
878.77092886
 21
672.95936312
 31
0.0
  0
LINE
  5
362
330
1E
100
AcDbEntity
  8
0
 62
     4
100
AcDbLine
 10
868.77092886
 20
670.95936312
 30
0.0
 11
868.77092886
 21
674.95936312
 31
0.0
  0
LINE
  5
363
330
1E
100
AcDbEntity
  8
0
 62
     4
100
AcDbLine
 10
878.77092886
 20
670.95936312
 30
0.0
 11
878.77092886
 21
674.95936312
 31
0.0
  0
TEXT
  5
364
330
1E
100
AcDbEntity
  8
TXT_DIM49
100
AcDbText
 10
884.91602457
 20
674.45936312
 30
0.0
 40
2.5
  1
40
  7
ARIAL
100
AcDbText
  0
LINE
  5
365
330
1E
100
AcDbEntity
  8
0
 62
     4
100
AcDbLine
 10
879.77092886
 20
673.95936312
 30
0.0
 11
877.77092886
 21
671.95936312
 31
0.0
  0
LINE
  5
366
330
1E
100
AcDbEntity
  8
0
 62
     4
100
AcDbLine
 10
894.02092886
 20
672.20936312
 30
0.0
 11
895.52092886
 21
673.70936312
 31
0.0
  0
LINE
  5
367
330
1E
100
AcDbEntity
  8
0
 62
     4
100
AcDbLine
 10
878.77092886
 20
672.95936312
 30
0.0
 11
894.77092886
 21
672.95936312
 31
0.0
  0
LINE
  5
368
330
1E
100
AcDbEntity
  8
0
 62
     4
100
AcDbLine
 10
878.77092886
 20
670.95936312
 30
0.0
 11
878.77092886
 21
674.95936312
 31
0.0
  0
LINE
  5
369
330
1E
100
AcDbEntity
  8
0
 62
     4
100
AcDbLine
 10
894.77092886
 20
670.95936312
 30
0.0
 11
894.77092886
 21
674.95936312
 31
0.0
  0
TEXT
  5
36A
330
1E
100
AcDbEntity
  8
TXT_DIM49
100
AcDbText
 10
854.97212387
 20
569.78216612
 30
0.0
 40
2.5
  1
70
 50
90.00020741
  7
ARIAL
100
AcDbText
  0
LINE
  5
36B
330
1E
100
AcDbEntity
  8
0
 62
     4
100
AcDbLine
 10
855.47212387
 20
558.63707041
 30
0.0
 11
857.47212387
 21
556.63707041
 31
0.0
  0
LINE
  5
36C
330
1E
100
AcDbEntity
  8
0
 62
     4
100
AcDbLine
 10
857.22212387
 20
584.88707041
 30
0.0
 11
855.72212387
 21
586.38707041
 31
0.0
  0
LINE
  5
36D
330
1E
100
AcDbEntity
  8
0
 62
     4
100
AcDbLine
 10
856.47212387
 20
557.63707041
 30
0.0
 11
856.47212387
 21
585.63707041
 31
0.0
  0
LINE
  5
36E
330
1E
100
AcDbEntity
  8
0
 62
     4
100
AcDbLine
 10
858.47212387
 20
557.63707041
 30
0.0
 11
854.47212387
 21
557.63707041
 31
0.0
  0
LINE
  5
36F
330
1E
100
AcDbEntity
  8
0
 62
     4
100
AcDbLine
 10
858.47212387
 20
585.63707041
 30
0.0
 11
854.47212387
 21
585.63707041
 31
0.0
  0
TEXT
  5
370
330
1E
100
AcDbEntity
  8
TXT_DIM49
100
AcDbText
 10
854.97212387
 20
614.85471391
 30
0.0
 40
2.5
  1
160
 50
90.00020741
  7
ARIAL
100
AcDbText
  0
LINE
  5
371
330
1E
100
AcDbEntity
  8
0
 62
     4
100
AcDbLine
 10
855.47212387
 20
586.63707041
 30
0.0
 11
857.47212387
 21
584.63707041
 31
0.0
  0
LINE
  5
372
330
1E
100
AcDbEntity
  8
0
 62
     4
100
AcDbLine
 10
857.22212387
 20
648.88707041
 30
0.0
 11
855.72212387
 21
650.38707041
 31
0.0
  0
LINE
  5
373
330
1E
100
AcDbEntity
  8
0
 62
     4
100
AcDbLine
 10
856.47212387
 20
585.63707041
 30
0.0
 11
856.47212387
 21
649.63707041
 31
0.0
  0
LINE
  5
374
330
1E
100
AcDbEntity
  8
0
 62
     4
100
AcDbLine
 10
858.47212387
 20
585.63707041
 30
0.0
 11
854.47212387
 21
585.63707041
 31
0.0
  0
LINE
  5
375
330
1E
100
AcDbEntity
  8
0
 62
     4
100
AcDbLine
 10
858.47212387
 20
649.63707041
 30
0.0
 11
854.47212387
 21
649.63707041
 31
0.0
  0
TEXT
  5
376
330
1E
100
AcDbEntity
  8
TXT_DIM49
100
AcDbText
 10
854.97212387
 20
652.78216612
 30
0.0
 40
2.5
  1
25
 50
90.00020741
  7
ARIAL
100
AcDbText
  0
LINE
  5
377
330
1E
100
AcDbEntity
  8
0
 62
     4
100
AcDbLine
 10
855.47212387
 20
650.63707041
 30
0.0
 11
857.47212387
 21
648.63707041
 31
0.0
  0
LINE
  5
378
330
1E
100
AcDbEntity
  8
0
 62
     4
100
AcDbLine
 10
857.22212387
 20
658.88707041
 30
0.0
 11
855.72212387
 21
660.38707041
 31
0.0
  0
LINE
  5
379
330
1E
100
AcDbEntity
  8
0
 62
     4
100
AcDbLine
 10
856.47212387
 20
649.63707041
 30
0.0
 11
856.47212387
 21
659.63707041
 31
0.0
  0
LINE
  5
37A
330
1E
100
AcDbEntity
  8
0
 62
     4
100
AcDbLine
 10
858.47212387
 20
649.63707041
 30
0.0
 11
854.47212387
 21
649.63707041
 31
0.0
  0
LINE
  5
37B
330
1E
100
AcDbEntity
  8
0
 62
     4
100
AcDbLine
 10
858.47212387
 20
659.63707041
 30
0.0
 11
854.47212387
 21
659.63707041
 31
0.0
  0
TEXT
  5
37C
330
1E
100
AcDbEntity
  8
TXT_DIM49
100
AcDbText
 10
854.97212387
 20
661.78216612
 30
0.0
 40
2.5
  1
20
 50
90.00020741
  7
ARIAL
100
AcDbText
  0
LINE
  5
37D
330
1E
100
AcDbEntity
  8
0
 62
     4
100
AcDbLine
 10
855.47212387
 20
660.63707041
 30
0.0
 11
857.47212387
 21
658.63707041
 31
0.0
  0
LINE
  5
37E
330
1E
100
AcDbEntity
  8
0
 62
     4
100
AcDbLine
 10
857.22212387
 20
666.88707041
 30
0.0
 11
855.72212387
 21
668.38707041
 31
0.0
  0
LINE
  5
37F
330
1E
100
AcDbEntity
  8
0
 62
     4
100
AcDbLine
 10
856.47212387
 20
659.63707041
 30
0.0
 11
856.47212387
 21
667.63707041
 31
0.0
  0
LINE
  5
380
330
1E
100
AcDbEntity
  8
0
 62
     4
100
AcDbLine
 10
858.47212387
 20
659.63707041
 30
0.0
 11
854.47212387
 21
659.63707041
 31
0.0
  0
LINE
  5
381
330
1E
100
AcDbEntity
  8
0
 62
     4
100
AcDbLine
 10
858.47212387
 20
667.63707041
 30
0.0
 11
854.47212387
 21
667.63707041
 31
0.0
  0
LINE
  5
382
330
1E
100
AcDbEntity
  8
0
 62
     4
100
AcDbLine
 10
868.77092886
 20
659.63707041
 30
0.0
 11
870.85660797
 21
654.36352416
 31
0.0
  0
TEXT
  5
383
330
1E
100
AcDbEntity
  8
TXT_DIM49
100
AcDbText
 10
870.85660797
 20
653.11352416
 30
0.0
 40
2.5
  1
Ø10
  7
ARIAL
 11
870.85660797
 21
654.36352416
 31
0.0
100
AcDbText
 73
     2
  0
LINE
  5
384
330
1E
100
AcDbEntity
  8
0
 62
     4
100
AcDbLine
 10
878.77092886
 20
649.63707041
 30
0.0
 11
875.69457778
 21
644.55981706
 31
0.0
  0
TEXT
  5
385
330
1E
100
AcDbEntity
  8
TXT_DIM49
100
AcDbText
 10
869.41082572
 20
643.30981706
 30
0.0
 40
2.5
  1
Ø12
  7
ARIAL
 11
869.41082572
 21
644.55981706
 31
0.0
100
AcDbText
 73
     2
  0
LINE
  5
386
330
1E
100
AcDbEntity
  8
0
 62
     5
100
AcDbLine
 10
878.77092886
 20
585.63707041
 30
0.0
 11
876.37595543
 21
580.00597479
 31
0.0
  0
TEXT
  5
387
330
1E
100
AcDbEntity
  8
TXT_DIM49
100
AcDbText
 10
870.09220337
 20
578.75597479
 30
0.0
 40
2.5
  1
Ø12
  7
ARIAL
 11
870.09220337
 21
580.00597479
 31
0.0
100
AcDbText
 73
     2
  0
TEXT
  5
388
330
1E
100
AcDbEntity
  8
TXT_DIM49
100
AcDbText
 10
840.64654303
 20
491.52565087
 30
0.0
 40
2.5
  1
40
 50
90.00020741
  7
ARIAL
100
AcDbText
  0
LINE
  5
389
330
1E
100
AcDbEntity
  8
0
 62
     4
100
AcDbLine
 10
841.14654303
 20
486.38055517
 30
0.0
 11
843.14654303
 21
484.38055517
 31
0.0
  0
LINE
  5
38A
330
1E
100
AcDbEntity
  8
0
 62
     4
100
AcDbLine
 10
842.89654303
 20
500.63055517
 30
0.0
 11
841.39654303
 21
502.13055517
 31
0.0
  0
LINE
  5
38B
330
1E
100
AcDbEntity
  8
0
 62
     4
100
AcDbLine
 10
842.14654303
 20
485.38055517
 30
0.0
 11
842.14654303
 21
501.38055517
 31
0.0
  0
LINE
  5
38C
330
1E
100
AcDbEntity
  8
0
 62
     4
100
AcDbLine
 10
840.14654303
 20
485.38055517
 30
0.0
 11
844.14654303
 21
485.38055517
 31
0.0
  0
LINE
  5
38D
330
1E
100
AcDbEntity
  8
0
 62
     4
100
AcDbLine
 10
840.14654303
 20
501.38055517
 30
0.0
 11
844.14654303
 21
501.38055517
 31
0.0
  0
TEXT
  5
38E
330
1E
100
AcDbEntity
  8
TXT_DIM49
100
AcDbText
 10
840.64654303
 20
507.52565087
 30
0.0
 40
2.5
  1
40
 50
90.00020741
  7
ARIAL
100
AcDbText
  0
LINE
  5
38F
330
1E
100
AcDbEntity
  8
0
 62
     4
100
AcDbLine
 10
841.14654303
 20
502.38055517
 30
0.0
 11
843.14654303
 21
500.38055517
 31
0.0
  0
LINE
  5
390
330
1E
100
AcDbEntity
  8
0
 62
     4
100
AcDbLine
 10
842.89654303
 20
516.63055517
 30
0.0
 11
841.39654303
 21
518.13055517
 31
0.0
  0
LINE
  5
391
330
1E
100
AcDbEntity
  8
0
 62
     4
100
AcDbLine
 10
842.14654303
 20
501.38055517
 30
0.0
 11
842.14654303
 21
517.38055517
 31
0.0
  0
LINE
  5
392
330
1E
100
AcDbEntity
  8
0
 62
     4
100
AcDbLine
 10
840.14654303
 20
501.38055517
 30
0.0
 11
844.14654303
 21
501.38055517
 31
0.0
  0
LINE
  5
393
330
1E
100
AcDbEntity
  8
0
 62
     4
100
AcDbLine
 10
840.14654303
 20
517.38055517
 30
0.0
 11
844.14654303
 21
517.38055517
 31
0.0
  0
TEXT
  5
394
330
1E
100
AcDbEntity
  8
TXT_DIM49
100
AcDbText
 10
679.54985918
 20
477.75096596
 30
0.0
 40
2.5
  1
44
  7
ARIAL
100
AcDbText
  0
LINE
  5
395
330
1E
100
AcDbEntity
  8
0
 62
     4
100
AcDbLine
 10
673.70476347
 20
477.25096596
 30
0.0
 11
671.70476347
 21
475.25096596
 31
0.0
  0
LINE
  5
396
330
1E
100
AcDbEntity
  8
0
 62
     4
100
AcDbLine
 10
689.35476347
 20
475.50096596
 30
0.0
 11
690.85476347
 21
477.00096596
 31
0.0
  0
LINE
  5
397
330
1E
100
AcDbEntity
  8
0
 62
     4
100
AcDbLine
 10
672.70476347
 20
476.25096596
 30
0.0
 11
690.10476347
 21
476.25096596
 31
0.0
  0
LINE
  5
398
330
1E
100
AcDbEntity
  8
0
 62
     4
100
AcDbLine
 10
672.70476347
 20
478.25096596
 30
0.0
 11
672.70476347
 21
474.25096596
 31
0.0
  0
LINE
  5
399
330
1E
100
AcDbEntity
  8
0
 62
     4
100
AcDbLine
 10
690.10476347
 20
478.25096596
 30
0.0
 11
690.10476347
 21
474.25096596
 31
0.0
  0
TEXT
  5
39A
330
1E
100
AcDbEntity
  8
TXT_DIM49
100
AcDbText
 10
703.54985918
 20
477.75096596
 30
0.0
 40
2.5
  1
77
  7
ARIAL
100
AcDbText
  0
LINE
  5
39B
330
1E
100
AcDbEntity
  8
0
 62
     4
100
AcDbLine
 10
691.10476347
 20
477.25096596
 30
0.0
 11
689.10476347
 21
475.25096596
 31
0.0
  0
LINE
  5
39C
330
1E
100
AcDbEntity
  8
0
 62
     4
100
AcDbLine
 10
719.95476347
 20
475.50096596
 30
0.0
 11
721.45476347
 21
477.00096596
 31
0.0
  0
LINE
  5
39D
330
1E
100
AcDbEntity
  8
0
 62
     4
100
AcDbLine
 10
690.10476347
 20
476.25096596
 30
0.0
 11
720.70476347
 21
476.25096596
 31
0.0
  0
LINE
  5
39E
330
1E
100
AcDbEntity
  8
0
 62
     4
100
AcDbLine
 10
690.10476347
 20
478.25096596
 30
0.0
 11
690.10476347
 21
474.25096596
 31
0.0
  0
LINE
  5
39F
330
1E
100
AcDbEntity
  8
0
 62
     4
100
AcDbLine
 10
720.70476347
 20
478.25096596
 30
0.0
 11
720.70476347
 21
474.25096596
 31
0.0
  0
TEXT
  5
3A0
330
1E
100
AcDbEntity
  8
TXT_DIM49
100
AcDbText
 10
747.92240697
 20
477.75096596
 30
0.0
 40
2.5
  1
150
  7
ARIAL
100
AcDbText
  0
LINE
  5
3A1
330
1E
100
AcDbEntity
  8
0
 62
     4
100
AcDbLine
 10
721.70476347
 20
477.25096596
 30
0.0
 11
719.70476347
 21
475.25096596
 31
0.0
  0
LINE
  5
3A2
330
1E
100
AcDbEntity
  8
0
 62
     4
100
AcDbLine
 10
779.95476347
 20
475.50096596
 30
0.0
 11
781.45476347
 21
477.00096596
 31
0.0
  0
LINE
  5
3A3
330
1E
100
AcDbEntity
  8
0
 62
     4
100
AcDbLine
 10
720.70476347
 20
476.25096596
 30
0.0
 11
780.70476347
 21
476.25096596
 31
0.0
  0
LINE
  5
3A4
330
1E
100
AcDbEntity
  8
0
 62
     4
100
AcDbLine
 10
720.70476347
 20
478.25096596
 30
0.0
 11
720.70476347
 21
474.25096596
 31
0.0
  0
LINE
  5
3A5
330
1E
100
AcDbEntity
  8
0
 62
     4
100
AcDbLine
 10
780.70476347
 20
478.25096596
 30
0.0
 11
780.70476347
 21
474.25096596
 31
0.0
  0
TEXT
  5
3A6
330
1E
100
AcDbEntity
  8
TXT_DIM49
100
AcDbText
 10
797.92240697
 20
477.75096596
 30
0.0
 40
2.5
  1
100
  7
ARIAL
100
AcDbText
  0
LINE
  5
3A7
330
1E
100
AcDbEntity
  8
0
 62
     4
100
AcDbLine
 10
781.70476347
 20
477.25096596
 30
0.0
 11
779.70476347
 21
475.25096596
 31
0.0
  0
LINE
  5
3A8
330
1E
100
AcDbEntity
  8
0
 62
     4
100
AcDbLine
 10
819.95476347
 20
475.50096596
 30
0.0
 11
821.45476347
 21
477.00096596
 31
0.0
  0
LINE
  5
3A9
330
1E
100
AcDbEntity
  8
0
 62
     4
100
AcDbLine
 10
780.70476347
 20
476.25096596
 30
0.0
 11
820.70476347
 21
476.25096596
 31
0.0
  0
LINE
  5
3AA
330
1E
100
AcDbEntity
  8
0
 62
     4
100
AcDbLine
 10
780.70476347
 20
478.25096596
 30
0.0
 11
780.70476347
 21
474.25096596
 31
0.0
  0
LINE
  5
3AB
330
1E
100
AcDbEntity
  8
0
 62
     4
100
AcDbLine
 10
820.70476347
 20
478.25096596
 30
0.0
 11
820.70476347
 21
474.25096596
 31
0.0
  0
TEXT
  5
3AC
330
1E
100
AcDbEntity
  8
TXT_DIM49
100
AcDbText
 10
824.84985918
 20
477.75096596
 30
0.0
 40
2.5
  1
30
  7
ARIAL
100
AcDbText
  0
LINE
  5
3AD
330
1E
100
AcDbEntity
  8
0
 62
     4
100
AcDbLine
 10
821.70476347
 20
477.25096596
 30
0.0
 11
819.70476347
 21
475.25096596
 31
0.0
  0
LINE
  5
3AE
330
1E
100
AcDbEntity
  8
0
 62
     4
100
AcDbLine
 10
831.95476347
 20
475.50096596
 30
0.0
 11
833.45476347
 21
477.00096596
 31
0.0
  0
LINE
  5
3AF
330
1E
100
AcDbEntity
  8
0
 62
     4
100
AcDbLine
 10
820.70476347
 20
476.25096596
 30
0.0
 11
832.70476347
 21
476.25096596
 31
0.0
  0
LINE
  5
3B0
330
1E
100
AcDbEntity
  8
0
 62
     4
100
AcDbLine
 10
820.70476347
 20
478.25096596
 30
0.0
 11
820.70476347
 21
474.25096596
 31
0.0
  0
LINE
  5
3B1
330
1E
100
AcDbEntity
  8
0
 62
     4
100
AcDbLine
 10
832.70476347
 20
478.25096596
 30
0.0
 11
832.70476347
 21
474.25096596
 31
0.0
  0
LINE
  5
3B2
330
1E
100
AcDbEntity
  8
0
 62
     5
100
AcDbLine
 10
780.70476347
 20
501.38055517
 30
0.0
 11
783.25840096
 21
493.55350704
 31
0.0
  0
TEXT
  5
3B3
330
1E
100
AcDbEntity
  8
TXT_DIM49
100
AcDbText
 10
783.25840096
 20
492.30350704
 30
0.0
 40
2.5
  1
Ø14
  7
ARIAL
 11
783.25840096
 21
493.55350704
 31
0.0
100
AcDbText
 73
     2
  0
LINE
  5
3B4
330
1E
100
AcDbEntity
  8
0
 62
     4
100
AcDbLine
 10
820.70476347
 20
501.38055517
 30
0.0
 11
823.5639592
 21
493.62978101
 31
0.0
  0
TEXT
  5
3B5
330
1E
100
AcDbEntity
  8
TXT_DIM49
100
AcDbText
 10
823.5639592
 20
492.37978101
 30
0.0
 40
2.5
  1
Ø14
  7
ARIAL
 11
823.5639592
 21
493.62978101
 31
0.0
100
AcDbText
 73
     2
  0
LINE
  5
3B6
330
1E
100
AcDbEntity
  8
0
 62
     4
100
AcDbLine
 10
720.70476347
 20
501.38055517
 30
0.0
 11
723.61421344
 21
493.46606305
 31
0.0
  0
TEXT
  5
3B7
330
1E
100
AcDbEntity
  8
TXT_DIM49
100
AcDbText
 10
723.61421344
 20
492.21606305
 30
0.0
 40
2.5
  1
Slobgat 14 x 40
  7
ARIAL
 11
723.61421344
 21
493.46606305
 31
0.0
100
AcDbText
 73
     2
  0
LINE
  5
3B8
330
1E
100
AcDbEntity
  8
0
 62
     5
100
AcDbLine
 10
690.10476347
 20
501.38055517
 30
0.0
 11
692.94459998
 21
494.38359403
 31
0.0
  0
TEXT
  5
3B9
330
1E
100
AcDbEntity
  8
TXT_DIM49
100
AcDbText
 10
692.94459998
 20
493.13359403
 30
0.0
 40
2.5
  1
Ø14
  7
ARIAL
 11
692.94459998
 21
494.38359403
 31
0.0
100
AcDbText
 73
     2
  0
TEXT
  5
3BA
330
1E
100
AcDbEntity
  8
TXT_DIM49
100
AcDbText
 10
581.59672888
 20
674.45936312
 30
0.0
 40
2.5
  1
15
  7
ARIAL
100
AcDbText
  0
LINE
  5
3BB
330
1E
100
AcDbEntity
  8
0
 62
     4
100
AcDbLine
 10
581.45163318
 20
673.95936312
 30
0.0
 11
579.45163318
 21
671.95936312
 31
0.0
  0
LINE
  5
3BC
330
1E
100
AcDbEntity
  8
0
 62
     4
100
AcDbLine
 10
585.70163318
 20
672.20936312
 30
0.0
 11
587.20163318
 21
673.70936312
 31
0.0
  0
LINE
  5
3BD
330
1E
100
AcDbEntity
  8
0
 62
     4
100
AcDbLine
 10
580.45163318
 20
672.95936312
 30
0.0
 11
586.45163318
 21
672.95936312
 31
0.0
  0
LINE
  5
3BE
330
1E
100
AcDbEntity
  8
0
 62
     4
100
AcDbLine
 10
580.45163318
 20
670.95936312
 30
0.0
 11
580.45163318
 21
674.95936312
 31
0.0
  0
LINE
  5
3BF
330
1E
100
AcDbEntity
  8
0
 62
     4
100
AcDbLine
 10
586.45163318
 20
670.95936312
 30
0.0
 11
586.45163318
 21
674.95936312
 31
0.0
  0
TEXT
  5
3C0
330
1E
100
AcDbEntity
  8
TXT_DIM49
100
AcDbText
 10
589.59672888
 20
674.45936312
 30
0.0
 40
2.5
  1
25
  7
ARIAL
100
AcDbText
  0
LINE
  5
3C1
330
1E
100
AcDbEntity
  8
0
 62
     4
100
AcDbLine
 10
587.45163318
 20
673.95936312
 30
0.0
 11
585.45163318
 21
671.95936312
 31
0.0
  0
LINE
  5
3C2
330
1E
100
AcDbEntity
  8
0
 62
     4
100
AcDbLine
 10
595.70163318
 20
672.20936312
 30
0.0
 11
597.20163318
 21
673.70936312
 31
0.0
  0
LINE
  5
3C3
330
1E
100
AcDbEntity
  8
0
 62
     4
100
AcDbLine
 10
586.45163318
 20
672.95936312
 30
0.0
 11
596.45163318
 21
672.95936312
 31
0.0
  0
LINE
  5
3C4
330
1E
100
AcDbEntity
  8
0
 62
     4
100
AcDbLine
 10
586.45163318
 20
670.95936312
 30
0.0
 11
586.45163318
 21
674.95936312
 31
0.0
  0
LINE
  5
3C5
330
1E
100
AcDbEntity
  8
0
 62
     4
100
AcDbLine
 10
596.45163318
 20
670.95936312
 30
0.0
 11
596.45163318
 21
674.95936312
 31
0.0
  0
TEXT
  5
3C6
330
1E
100
AcDbEntity
  8
TXT_DIM49
100
AcDbText
 10
602.59672888
 20
674.45936312
 30
0.0
 40
2.5
  1
40
  7
ARIAL
100
AcDbText
  0
LINE
  5
3C7
330
1E
100
AcDbEntity
  8
0
 62
     4
100
AcDbLine
 10
597.45163318
 20
673.95936312
 30
0.0
 11
595.45163318
 21
671.95936312
 31
0.0
  0
LINE
  5
3C8
330
1E
100
AcDbEntity
  8
0
 62
     4
100
AcDbLine
 10
611.70163318
 20
672.20936312
 30
0.0
 11
613.20163318
 21
673.70936312
 31
0.0
  0
LINE
  5
3C9
330
1E
100
AcDbEntity
  8
0
 62
     4
100
AcDbLine
 10
596.45163318
 20
672.95936312
 30
0.0
 11
612.45163318
 21
672.95936312
 31
0.0
  0
LINE
  5
3CA
330
1E
100
AcDbEntity
  8
0
 62
     4
100
AcDbLine
 10
596.45163318
 20
670.95936312
 30
0.0
 11
596.45163318
 21
674.95936312
 31
0.0
  0
LINE
  5
3CB
330
1E
100
AcDbEntity
  8
0
 62
     4
100
AcDbLine
 10
612.45163318
 20
670.95936312
 30
0.0
 11
612.45163318
 21
674.95936312
 31
0.0
  0
TEXT
  5
3CC
330
1E
100
AcDbEntity
  8
TXT_DIM49
100
AcDbText
 10
624.63343586
 20
569.78216612
 30
0.0
 40
2.5
  1
70
 50
90.00020741
  7
ARIAL
100
AcDbText
  0
LINE
  5
3CD
330
1E
100
AcDbEntity
  8
0
 62
     4
100
AcDbLine
 10
625.13343586
 20
558.63707041
 30
0.0
 11
627.13343586
 21
556.63707041
 31
0.0
  0
LINE
  5
3CE
330
1E
100
AcDbEntity
  8
0
 62
     4
100
AcDbLine
 10
626.88343586
 20
584.88707041
 30
0.0
 11
625.38343586
 21
586.38707041
 31
0.0
  0
LINE
  5
3CF
330
1E
100
AcDbEntity
  8
0
 62
     4
100
AcDbLine
 10
626.13343586
 20
557.63707041
 30
0.0
 11
626.13343586
 21
585.63707041
 31
0.0
  0
LINE
  5
3D0
330
1E
100
AcDbEntity
  8
0
 62
     4
100
AcDbLine
 10
624.13343586
 20
557.63707041
 30
0.0
 11
628.13343586
 21
557.63707041
 31
0.0
  0
LINE
  5
3D1
330
1E
100
AcDbEntity
  8
0
 62
     4
100
AcDbLine
 10
624.13343586
 20
585.63707041
 30
0.0
 11
628.13343586
 21
585.63707041
 31
0.0
  0
TEXT
  5
3D2
330
1E
100
AcDbEntity
  8
TXT_DIM49
100
AcDbText
 10
624.63343586
 20
614.85471391
 30
0.0
 40
2.5
  1
160
 50
90.00020741
  7
ARIAL
100
AcDbText
  0
LINE
  5
3D3
330
1E
100
AcDbEntity
  8
0
 62
     4
100
AcDbLine
 10
625.13343586
 20
586.63707041
 30
0.0
 11
627.13343586
 21
584.63707041
 31
0.0
  0
LINE
  5
3D4
330
1E
100
AcDbEntity
  8
0
 62
     4
100
AcDbLine
 10
626.88343586
 20
648.88707041
 30
0.0
 11
625.38343586
 21
650.38707041
 31
0.0
  0
LINE
  5
3D5
330
1E
100
AcDbEntity
  8
0
 62
     4
100
AcDbLine
 10
626.13343586
 20
585.63707041
 30
0.0
 11
626.13343586
 21
649.63707041
 31
0.0
  0
LINE
  5
3D6
330
1E
100
AcDbEntity
  8
0
 62
     4
100
AcDbLine
 10
624.13343586
 20
585.63707041
 30
0.0
 11
628.13343586
 21
585.63707041
 31
0.0
  0
LINE
  5
3D7
330
1E
100
AcDbEntity
  8
0
 62
     4
100
AcDbLine
 10
624.13343586
 20
649.63707041
 30
0.0
 11
628.13343586
 21
649.63707041
 31
0.0
  0
TEXT
  5
3D8
330
1E
100
AcDbEntity
  8
TXT_DIM49
100
AcDbText
 10
624.63343586
 20
656.78216612
 30
0.0
 40
2.5
  1
45
 50
90.00020741
  7
ARIAL
100
AcDbText
  0
LINE
  5
3D9
330
1E
100
AcDbEntity
  8
0
 62
     4
100
AcDbLine
 10
625.13343586
 20
650.63707041
 30
0.0
 11
627.13343586
 21
648.63707041
 31
0.0
  0
LINE
  5
3DA
330
1E
100
AcDbEntity
  8
0
 62
     4
100
AcDbLine
 10
626.88343586
 20
666.88707041
 30
0.0
 11
625.38343586
 21
668.38707041
 31
0.0
  0
LINE
  5
3DB
330
1E
100
AcDbEntity
  8
0
 62
     4
100
AcDbLine
 10
626.13343586
 20
649.63707041
 30
0.0
 11
626.13343586
 21
667.63707041
 31
0.0
  0
LINE
  5
3DC
330
1E
100
AcDbEntity
  8
0
 62
     4
100
AcDbLine
 10
624.13343586
 20
649.63707041
 30
0.0
 11
628.13343586
 21
649.63707041
 31
0.0
  0
LINE
  5
3DD
330
1E
100
AcDbEntity
  8
0
 62
     4
100
AcDbLine
 10
624.13343586
 20
667.63707041
 30
0.0
 11
628.13343586
 21
667.63707041
 31
0.0
  0
TEXT
  5
3DE
330
1E
100
AcDbEntity
  8
TXT_DIM49
100
AcDbText
 10
570.15242555
 20
603.85471391
 30
0.0
 40
2.5
  1
245
 50
90.00020741
  7
ARIAL
100
AcDbText
  0
LINE
  5
3DF
330
1E
100
AcDbEntity
  8
0
 62
     4
100
AcDbLine
 10
570.65242555
 20
558.63707041
 30
0.0
 11
572.65242555
 21
556.63707041
 31
0.0
  0
LINE
  5
3E0
330
1E
100
AcDbEntity
  8
0
 62
     4
100
AcDbLine
 10
572.40242555
 20
654.88707041
 30
0.0
 11
570.90242555
 21
656.38707041
 31
0.0
  0
LINE
  5
3E1
330
1E
100
AcDbEntity
  8
0
 62
     4
100
AcDbLine
 10
571.65242555
 20
557.63707041
 30
0.0
 11
571.65242555
 21
655.63707041
 31
0.0
  0
LINE
  5
3E2
330
1E
100
AcDbEntity
  8
0
 62
     4
100
AcDbLine
 10
573.65242555
 20
557.63707041
 30
0.0
 11
569.65242555
 21
557.63707041
 31
0.0
  0
LINE
  5
3E3
330
1E
100
AcDbEntity
  8
0
 62
     4
100
AcDbLine
 10
573.65242555
 20
655.63707041
 30
0.0
 11
569.65242555
 21
655.63707041
 31
0.0
  0
TEXT
  5
3E4
330
1E
100
AcDbEntity
  8
TXT_DIM49
100
AcDbText
 10
570.15242555
 20
659.78216612
 30
0.0
 40
2.5
  1
30
 50
90.00020741
  7
ARIAL
100
AcDbText
  0
LINE
  5
3E5
330
1E
100
AcDbEntity
  8
0
 62
     4
100
AcDbLine
 10
570.65242555
 20
656.63707041
 30
0.0
 11
572.65242555
 21
654.63707041
 31
0.0
  0
LINE
  5
3E6
330
1E
100
AcDbEntity
  8
0
 62
     4
100
AcDbLine
 10
572.40242555
 20
666.88707041
 30
0.0
 11
570.90242555
 21
668.38707041
 31
0.0
  0
LINE
  5
3E7
330
1E
100
AcDbEntity
  8
0
 62
     4
100
AcDbLine
 10
571.65242555
 20
655.63707041
 30
0.0
 11
571.65242555
 21
667.63707041
 31
0.0
  0
LINE
  5
3E8
330
1E
100
AcDbEntity
  8
0
 62
     4
100
AcDbLine
 10
573.65242555
 20
655.63707041
 30
0.0
 11
569.65242555
 21
655.63707041
 31
0.0
  0
LINE
  5
3E9
330
1E
100
AcDbEntity
  8
0
 62
     4
100
AcDbLine
 10
573.65242555
 20
667.63707041
 30
0.0
 11
569.65242555
 21
667.63707041
 31
0.0
  0
LINE
  5
3EA
330
1E
100
AcDbEntity
  8
0
 62
     5
100
AcDbLine
 10
596.45163318
 20
585.63707041
 30
0.0
 11
599.06581307
 21
579.07732162
 31
0.0
  0
TEXT
  5
3EB
330
1E
100
AcDbEntity
  8
TXT_DIM49
100
AcDbText
 10
599.06581307
 20
577.82732162
 30
0.0
 40
2.5
  1
Ø12
  7
ARIAL
 11
599.06581307
 21
579.07732162
 31
0.0
100
AcDbText
 73
     2
  0
LINE
  5
3EC
330
1E
100
AcDbEntity
  8
0
 62
     5
100
AcDbLine
 10
586.45163318
 20
655.63707041
 30
0.0
 11
589.82276544
 21
641.50713311
 31
0.0
  0
TEXT
  5
3ED
330
1E
100
AcDbEntity
  8
TXT_DIM49
100
AcDbText
 10
589.82276544
 20
640.25713311
 30
0.0
 40
2.5
  1
Ø10
  7
ARIAL
 11
589.82276544
 21
641.50713311
 31
0.0
100
AcDbText
 73
     2
  0
LINE
  5
3EE
330
1E
100
AcDbEntity
  8
0
 62
     5
100
AcDbLine
 10
596.45163318
 20
649.63707041
 30
0.0
 11
599.22988831
 21
639.97716702
 31
0.0
  0
TEXT
  5
3EF
330
1E
100
AcDbEntity
  8
TXT_DIM49
100
AcDbText
 10
599.22988831
 20
638.72716702
 30
0.0
 40
2.5
  1
Ø12
  7
ARIAL
 11
599.22988831
 21
639.97716702
 31
0.0
100
AcDbText
 73
     2
  0
POINT
  5
3F0
330
1E
100
AcDbEntity
  8
0
100
AcDbPoint
 10
738.11855359
 20
577.75920681
 30
0.0
  0
POINT
  5
3F1
330
1E
100
AcDbEntity
  8
0
 62
     3
100
AcDbPoint
 10
876.7879209
 20
407.42188887
 30
0.0
  0
POINT
  5
3F2
330
1E
100
AcDbEntity
  8
0
 62
     3
100
AcDbPoint
 10
942.6523346
 20
425.34088377
 30
0.0
  0
POINT
  5
3F3
330
1E
100
AcDbEntity
  8
0
 62
     3
100
AcDbPoint
 10
876.7879209
 20
425.34088377
 30
0.0
  0
POINT
  5
3F4
330
1E
100
AcDbEntity
  8
0
 62
     3
100
AcDbPoint
 10
942.6523346
 20
407.42188887
 30
0.0
  0
POINT
  5
3F5
330
1E
100
AcDbEntity
  8
0
 62
     3
100
AcDbPoint
 10
924.96097966
 20
401.73920681
 30
0.0
  0
POINT
  5
3F6
330
1E
100
AcDbEntity
  8
0
 62
     3
100
AcDbPoint
 10
942.65301163
 20
406.55248021
 30
0.0
  0
POINT
  5
3F7
330
1E
100
AcDbEntity
  8
0
 62
     3
100
AcDbPoint
 10
924.96097966
 20
406.55248021
 30
0.0
  0
POINT
  5
3F8
330
1E
100
AcDbEntity
  8
0
 62
     3
100
AcDbPoint
 10
942.65301163
 20
401.73920681
 30
0.0
  0
ENDSEC
  0
SECTION
  2
OBJECTS
  0
DICTIONARY
  5
C
330
0
100
AcDbDictionary
281
     1
  3
ACAD_DETAILVIEWSTYLE
350
4A0
  3
ACAD_GROUP
350
D
  3
ACAD_LAYOUT
350
19
  3
ACAD_MATERIAL
350
453
  3
ACAD_MLEADERSTYLE
350
459
  3
ACAD_MLINESTYLE
350
16
  3
ACAD_PLOTSETTINGS
350
425
  3
ACAD_PLOTSTYLENAME
350
426
  3
ACAD_SCALELIST
350
428
  3
ACAD_SECTIONVIEWSTYLE
350
4A1
  3
ACAD_TABLESTYLE
350
457
  3
ACAD_VISUALSTYLE
350
43A
  3
ACDB_RECOMPOSE_DATA
350
49C
  3
AcDbVariableDictionary
350
45D
  0
DICTIONARY
  5
45B
330
1
100
AcDbDictionary
280
     1
281
     1
  3
ACAD_XREC_ROUNDTRIP
360
45C
  0
DICTIONARY
  5
4A0
102
{ACAD_REACTORS
330
C
102
}
330
C
100
AcDbDictionary
281
     1
  0
DICTIONARY
  5
D
330
C
100
AcDbDictionary
281
     1
  0
DICTIONARY
  5
19
330
C
100
AcDbDictionary
281
     1
  3
Layout1
350
1D
  3
Model
350
21
  0
DICTIONARY
  5
453
102
{ACAD_REACTORS
330
C
102
}
330
C
100
AcDbDictionary
281
     1
  3
ByBlock
350
455
  3
ByLayer
350
454
  3
Global
350
456
  0
DICTIONARY
  5
459
102
{ACAD_REACTORS
330
C
102
}
330
C
100
AcDbDictionary
281
     1
  3
Standard
350
45A
  0
DICTIONARY
  5
16
330
C
100
AcDbDictionary
281
     1
  3
Standard
350
17
  0
DICTIONARY
  5
425
102
{ACAD_REACTORS
330
C
102
}
330
C
100
AcDbDictionary
281
     1
  0
ACDBDICTIONARYWDFLT
  5
426
102
{ACAD_REACTORS
330
C
102
}
330
C
100
AcDbDictionary
281
     1
  3
Normal
350
427
100
AcDbDictionaryWithDefault
340
427
  0
DICTIONARY
  5
428
102
{ACAD_REACTORS
330
C
102
}
330
C
100
AcDbDictionary
281
     1
  3
A0
350
429
  3
A1
350
42A
  3
A2
350
42B
  3
A3
350
42C
  3
A4
350
42D
  3
A5
350
42E
  3
A6
350
42F
  3
A7
350
430
  3
A8
350
431
  3
A9
350
432
  3
B0
350
433
  3
B1
350
434
  3
B2
350
435
  3
B3
350
436
  3
B4
350
437
  3
B5
350
438
  3
B6
350
439
  0
DICTIONARY
  5
4A1
102
{ACAD_REACTORS
330
C
102
}
330
C
100
AcDbDictionary
281
     1
  0
DICTIONARY
  5
457
102
{ACAD_REACTORS
330
C
102
}
330
C
100
AcDbDictionary
281
     1
  3
Standard
350
458
  0
DICTIONARY
  5
43A
102
{ACAD_REACTORS
330
C
102
}
330
C
100
AcDbDictionary
281
     1
  3
2dWireframe
350
43F
  3
Basic
350
442
  3
Brighten
350
446
  3
ColorChange
350
44A
  3
Conceptual
350
444
  3
Dim
350
445
  3
EdgeColorOff
350
44D
  3
Facepattern
350
449
  3
Flat
350
43B
  3
FlatWithEdges
350
43C
  3
Gouraud
350
43D
  3
GouraudWithEdges
350
43E
  3
Hidden
350
441
  3
JitterOff
350
44B
  3
Linepattern
350
448
  3
OverhangOff
350
44C
  3
Realistic
350
443
  3
Shaded
350
452
  3
Shaded with edges
350
451
  3
Shades of Gray
350
44E
  3
Sketchy
350
44F
  3
Thicken
350
447
  3
Wireframe
350
440
  3
X-Ray
350
450
  0
XRECORD
  5
49C
102
{ACAD_REACTORS
330
C
102
}
330
C
100
AcDbXrecord
280
     1
 90
        1
330
458
  0
DICTIONARY
  5
45D
102
{ACAD_REACTORS
330
C
102
}
330
C
100
AcDbDictionary
281
     1
  3
CANNOSCALE
350
45E
  3
CMLEADERSTYLE
350
49E
  3
CTABLESTYLE
350
49D
  3
MSLTSCALE
350
49F
  3
XCLIPFRAME
350
45F
  0
XRECORD
  5
45C
102
{ACAD_REACTORS
330
45B
102
}
330
45B
100
AcDbXrecord
280
     1
102
VTR_0.000_0.000_1.000_1.000_VISUALSTYLE
340
43F
102
VTR_0.000_0.000_1.000_1.000_GRIDDISPLAY
 70
     3
102
VTR_0.000_0.000_1.000_1.000_GRIDMAJOR
 70
     5
102
VTR_0.000_0.000_1.000_1.000_DEFAULTLIGHTING
280
     1
102
VTR_0.000_0.000_1.000_1.000_DEFAULTLIGHTINGTYPE
 70
     1
102
VTR_0.000_0.000_1.000_1.000_BRIGHTNESS
141
0.0
102
VTR_0.000_0.000_1.000_1.000_CONTRAST
142
0.0
  0
LAYOUT
  5
1D
330
19
100
AcDbPlotSettings
  1

  2
C:\Programme\MDT\plotters\DWF Classic.pc3
  4

  6

 40
0.0
 41
0.0
 42
0.0
 43
0.0
 44
0.0
 45
0.0
 46
0.0
 47
0.0
 48
0.0
 49
0.0
140
0.0
141
0.0
142
1.0
143
1.0
 70
   688
 72
     0
 73
     0
 74
     5
  7

 75
    16
 76
     0
 77
     2
 78
   300
147
1.0
148
0.0
149
0.0
100
AcDbLayout
  1
Layout1
 70
     1
 71
     1
 10
0.0
 20
0.0
 11
12.0
 21
9.0
 12
0.0
 22
0.0
 32
0.0
 14
1.000000000000000E+20
 24
1.000000000000000E+20
 34
1.000000000000000E+20
 15
-1.000000000000000E+20
 25
-1.000000000000000E+20
 35
-1.000000000000000E+20
146
0.0
 13
0.0
 23
0.0
 33
0.0
 16
1.0
 26
0.0
 36
0.0
 17
0.0
 27
1.0
 37
0.0
 76
     0
330
1A
  0
LAYOUT
  5
21
330
19
100
AcDbPlotSettings
  1

  2
C:\Programme\MDT\plotters\DWF Classic.pc3
  4

  6

 40
0.0
 41
0.0
 42
0.0
 43
0.0
 44
0.0
 45
0.0
 46
0.0
 47
0.0
 48
0.0
 49
0.0
140
0.0
141
0.0
142
1.0
143
1.0
 70
  1712
 72
     0
 73
     0
 74
     0
  7

 75
     0
 76
     0
 77
     2
 78
   300
147
1.0
148
0.0
149
0.0
100
AcDbLayout
  1
Model
 70
     1
 71
     0
 10
0.0
 20
0.0
 11
12.0
 21
9.0
 12
0.0
 22
0.0
 32
0.0
 14
0.0
 24
0.0
 34
0.0
 15
0.0
 25
0.0
 35
0.0
146
0.0
 13
0.0
 23
0.0
 33
0.0
 16
1.0
 26
0.0
 36
0.0
 17
0.0
 27
1.0
 37
0.0
 76
     0
330
1E
331
2
  0
MATERIAL
  5
455
102
{ACAD_REACTORS
330
453
102
}
102
{ACAD_XDICTIONARY
360
492
102
}
330
453
100
AcDbMaterial
  1
ByBlock
  0
MATERIAL
  5
454
102
{ACAD_REACTORS
330
453
102
}
102
{ACAD_XDICTIONARY
360
490
102
}
330
453
100
AcDbMaterial
  1
ByLayer
  0
MATERIAL
  5
456
102
{ACAD_REACTORS
330
453
102
}
102
{ACAD_XDICTIONARY
360
494
102
}
330
453
100
AcDbMaterial
  1
Global
  0
MLEADERSTYLE
  5
45A
102
{ACAD_REACTORS
330
459
102
}
102
{ACAD_XDICTIONARY
360
49A
102
}
330
459
100
AcDbMLeaderStyle
170
     2
171
     1
172
     0
 90
        2
 40
0.0
 41
0.0
173
     1
 91
-1056964608
340
4
 92
       -2
290
     1
 42
2.0
291
     1
 43
8.0
  3
Standard
341
0
 44
4.0
300

342
15E
174
     1
178
     6
175
     1
176
     0
 93
-1056964608
 45
4.0
292
     0
297
     0
 46
4.0
343
0
 94
-1056964608
 47
1.0
 49
1.0
140
1.0
293
     1
141
0.0
294
     1
177
     0
142
1.0
295
     0
296
     0
143
3.75
1001
ACAD_MLEADERVER
1070
     2
  0
MLINESTYLE
  5
17
330
16
100
AcDbMlineStyle
  2
STANDARD
 70
     0
  3

 62
   256
 51
90.0
 52
90.0
 71
     2
 49
0.5
 62
   256
  6
BYLAYER
 49
-0.5
 62
   256
  6
BYLAYER
  0
ACDBPLACEHOLDER
  5
427
102
{ACAD_REACTORS
330
426
102
}
330
426
  0
SCALE
  5
429
102
{ACAD_REACTORS
330
428
102
}
330
428
100
AcDbScale
 70
     0
300
1:1
140
1.0
141
1.0
290
     1
  0
SCALE
  5
42A
102
{ACAD_REACTORS
330
428
102
}
330
428
100
AcDbScale
 70
     0
300
1:2
140
1.0
141
2.0
290
     0
  0
SCALE
  5
42B
102
{ACAD_REACTORS
330
428
102
}
330
428
100
AcDbScale
 70
     0
300
1:4
140
1.0
141
4.0
290
     0
  0
SCALE
  5
42C
102
{ACAD_REACTORS
330
428
102
}
330
428
100
AcDbScale
 70
     0
300
1:5
140
1.0
141
5.0
290
     0
  0
SCALE
  5
42D
102
{ACAD_REACTORS
330
428
102
}
330
428
100
AcDbScale
 70
     0
300
1:8
140
1.0
141
8.0
290
     0
  0
SCALE
  5
42E
102
{ACAD_REACTORS
330
428
102
}
330
428
100
AcDbScale
 70
     0
300
1:10
140
1.0
141
10.0
290
     0
  0
SCALE
  5
42F
102
{ACAD_REACTORS
330
428
102
}
330
428
100
AcDbScale
 70
     0
300
1:16
140
1.0
141
16.0
290
     0
  0
SCALE
  5
430
102
{ACAD_REACTORS
330
428
102
}
330
428
100
AcDbScale
 70
     0
300
1:20
140
1.0
141
20.0
290
     0
  0
SCALE
  5
431
102
{ACAD_REACTORS
330
428
102
}
330
428
100
AcDbScale
 70
     0
300
1:30
140
1.0
141
30.0
290
     0
  0
SCALE
  5
432
102
{ACAD_REACTORS
330
428
102
}
330
428
100
AcDbScale
 70
     0
300
1:40
140
1.0
141
40.0
290
     0
  0
SCALE
  5
433
102
{ACAD_REACTORS
330
428
102
}
330
428
100
AcDbScale
 70
     0
300
1:50
140
1.0
141
50.0
290
     0
  0
SCALE
  5
434
102
{ACAD_REACTORS
330
428
102
}
330
428
100
AcDbScale
 70
     0
300
1:100
140
1.0
141
100.0
290
     0
  0
SCALE
  5
435
102
{ACAD_REACTORS
330
428
102
}
330
428
100
AcDbScale
 70
     0
300
2:1
140
2.0
141
1.0
290
     0
  0
SCALE
  5
436
102
{ACAD_REACTORS
330
428
102
}
330
428
100
AcDbScale
 70
     0
300
4:1
140
4.0
141
1.0
290
     0
  0
SCALE
  5
437
102
{ACAD_REACTORS
330
428
102
}
330
428
100
AcDbScale
 70
     0
300
8:1
140
8.0
141
1.0
290
     0
  0
SCALE
  5
438
102
{ACAD_REACTORS
330
428
102
}
330
428
100
AcDbScale
 70
     0
300
10:1
140
10.0
141
1.0
290
     0
  0
SCALE
  5
439
102
{ACAD_REACTORS
330
428
102
}
330
428
100
AcDbScale
 70
     0
300
100:1
140
100.0
141
1.0
290
     0
  0
TABLESTYLE
  5
458
102
{ACAD_REACTORS
330
457
102
}
102
{ACAD_XDICTIONARY
360
496
102
}
330
457
100
AcDbTableStyle
  3
Standard
 70
     0
 71
     0
 40
0.06
 41
0.06
280
     0
281
     0
  7
MONOTXT
140
4.5
170
     2
 62
     0
 63
   257
283
     0
274
    -2
284
     1
 64
     0
275
    -2
285
     1
 65
     0
276
    -2
286
     1
 66
     0
277
    -2
287
     1
 67
     0
278
    -2
288
     1
 68
     0
279
    -2
289
     1
 69
     0
  7
MONOTXT
140
6.0
170
     5
 62
     0
 63
   257
283
     0
274
    -2
284
     1
 64
     0
275
    -2
285
     1
 65
     0
276
    -2
286
     1
 66
     0
277
    -2
287
     1
 67
     0
278
    -2
288
     1
 68
     0
279
    -2
289
     1
 69
     0
  7
MONOTXT
140
4.5
170
     5
 62
     0
 63
   257
283
     0
274
    -2
284
     1
 64
     0
275
    -2
285
     1
 65
     0
276
    -2
286
     1
 66
     0
277
    -2
287
     1
 67
     0
278
    -2
288
     1
 68
     0
279
    -2
289
     1
 69
     0
  0
VISUALSTYLE
  5
43F
102
{ACAD_REACTORS
330
43A
102
}
102
{ACAD_XDICTIONARY
360
468
102
}
330
43A
100
AcDbVisualStyle
  2
2dWireframe
 70
     4
 71
     0
 72
     2
 73
     0
 90
        0
 40
0.6
 41
30.0
 62
     5
 63
     7
421
 16777215
 74
     1
 91
        4
 64
     7
 65
   257
 75
     1
175
     1
 42
1.0
 92
        0
 66
   257
 43
1.0
 76
     1
 77
     6
 78
     2
 67
     7
 79
     5
170
     0
171
     0
290
     0
174
     0
 93
        1
 44
0.0
173
     0
291
     0
 45
0.0
1001
ACAD
1000
AcDbSavedByObjectVersion
1070
     0
  0
VISUALSTYLE
  5
442
102
{ACAD_REACTORS
330
43A
102
}
102
{ACAD_XDICTIONARY
360
46E
102
}
330
43A
100
AcDbVisualStyle
  2
Basic
 70
     7
 71
     1
 72
     0
 73
     1
 90
        0
 40
0.6
 41
30.0
 62
     5
 63
     7
421
 16777215
 74
     0
 91
        4
 64
     7
 65
   257
 75
     1
175
     1
 42
1.0
 92
        8
 66
     7
 43
1.0
 76
     1
 77
     6
 78
     2
 67
     7
 79
     5
170
     0
171
     0
290
     0
174
     0
 93
        1
 44
0.0
173
     0
291
     1
 45
0.0
1001
ACAD
1000
AcDbSavedByObjectVersion
1070
     0
  0
VISUALSTYLE
  5
446
102
{ACAD_REACTORS
330
43A
102
}
102
{ACAD_XDICTIONARY
360
476
102
}
330
43A
100
AcDbVisualStyle
  2
Brighten
 70
    12
 71
     2
 72
     2
 73
     0
 90
        0
 40
0.6
 41
30.0
 62
     5
 63
     7
421
 16777215
 74
     1
 91
        4
 64
     7
 65
   257
 75
     1
175
     1
 42
1.0
 92
        8
 66
     7
 43
1.0
 76
     1
 77
     6
 78
     2
 67
     7
 79
     5
170
     0
171
     0
290
     0
174
     0
 93
        1
 44
50.0
173
     0
291
     1
 45
0.0
1001
ACAD
1000
AcDbSavedByObjectVersion
1070
     0
  0
VISUALSTYLE
  5
44A
102
{ACAD_REACTORS
330
43A
102
}
102
{ACAD_XDICTIONARY
360
47E
102
}
330
43A
100
AcDbVisualStyle
  2
ColorChange
 70
    16
 71
     2
 72
     2
 73
     3
 90
        0
 40
0.6
 41
30.0
 62
     5
 63
     8
421
  8421504
 74
     1
 91
        4
 64
     7
 65
   257
 75
     1
175
     1
 42
1.0
 92
        8
 66
     8
424
  8421504
 43
1.0
 76
     1
 77
     6
 78
     2
 67
     7
 79
     5
170
     0
171
     0
290
     0
174
     0
 93
        1
 44
0.0
173
     0
291
     1
 45
0.0
1001
ACAD
1000
AcDbSavedByObjectVersion
1070
     0
  0
VISUALSTYLE
  5
444
102
{ACAD_REACTORS
330
43A
102
}
102
{ACAD_XDICTIONARY
360
472
102
}
330
43A
100
AcDbVisualStyle
  2
Conceptual
 70
     9
 71
     3
 72
     2
 73
     0
 90
        0
 40
0.6
 41
30.0
 62
     5
 63
     7
421
 16777215
 74
     2
 91
        2
 64
     7
 65
   257
 75
     1
175
     1
 42
179.0
 92
        8
 66
     7
 43
1.0
 76
     1
 77
     6
 78
     2
 67
     7
 79
     3
170
     0
171
     0
290
     0
174
     0
 93
        1
 44
0.0
173
     0
291
     0
 45
0.0
1001
ACAD
1000
AcDbSavedByObjectVersion
1070
     0
  0
VISUALSTYLE
  5
445
102
{ACAD_REACTORS
330
43A
102
}
102
{ACAD_XDICTIONARY
360
474
102
}
330
43A
100
AcDbVisualStyle
  2
Dim
 70
    11
 71
     2
 72
     2
 73
     0
 90
        0
 40
0.6
 41
30.0
 62
     5
 63
     7
421
 16777215
 74
     1
 91
        4
 64
     7
 65
   257
 75
     1
175
     1
 42
1.0
 92
        8
 66
     7
 43
1.0
 76
     1
 77
     6
 78
     2
 67
     7
 79
     5
170
     0
171
     0
290
     0
174
     0
 93
        1
 44
-50.0
173
     0
291
     1
 45
0.0
1001
ACAD
1000
AcDbSavedByObjectVersion
1070
     0
  0
VISUALSTYLE
  5
44D
102
{ACAD_REACTORS
330
43A
102
}
102
{ACAD_XDICTIONARY
360
484
102
}
330
43A
100
AcDbVisualStyle
  2
EdgeColorOff
 70
    22
 71
     2
 72
     2
 73
     0
 90
        0
 40
0.6
 41
30.0
 62
     5
 63
     7
421
 16777215
 74
     1
 91
        4
 64
     7
 65
   257
 75
     1
175
     1
 42
1.0
 92
        8
 66
     7
 43
1.0
 76
     1
 77
     6
 78
     2
 67
     7
 79
     5
170
     0
171
     0
290
     0
174
     0
 93
        1
 44
0.0
173
     0
291
     1
 45
0.0
1001
ACAD
1000
AcDbSavedByObjectVersion
1070
     0
  0
VISUALSTYLE
  5
449
102
{ACAD_REACTORS
330
43A
102
}
102
{ACAD_XDICTIONARY
360
47C
102
}
330
43A
100
AcDbVisualStyle
  2
Facepattern
 70
    15
 71
     2
 72
     2
 73
     0
 90
        0
 40
0.6
 41
30.0
 62
     5
 63
     7
421
 16777215
 74
     1
 91
        4
 64
     7
 65
   257
 75
     1
175
     1
 42
1.0
 92
        8
 66
     7
 43
1.0
 76
     1
 77
     6
 78
     2
 67
     7
 79
     5
170
     0
171
     0
290
     0
174
     0
 93
        1
 44
0.0
173
     0
291
     1
 45
0.0
1001
ACAD
1000
AcDbSavedByObjectVersion
1070
     0
  0
VISUALSTYLE
  5
43B
102
{ACAD_REACTORS
330
43A
102
}
102
{ACAD_XDICTIONARY
360
460
102
}
330
43A
100
AcDbVisualStyle
  2
Flat
 70
     0
 71
     2
 72
     1
 73
     1
 90
        2
 40
0.6
 41
30.0
 62
     5
 63
     7
421
 16777215
 74
     0
 91
        0
 64
     7
 65
   257
 75
     1
175
     1
 42
1.0
 92
        8
 66
     7
 43
1.0
 76
     1
 77
     6
 78
     2
 67
     7
 79
     5
170
     0
171
     0
290
     0
174
     0
 93
       13
 44
0.0
173
     0
291
     1
 45
0.0
1001
ACAD
1000
AcDbSavedByObjectVersion
1070
     0
  0
VISUALSTYLE
  5
43C
102
{ACAD_REACTORS
330
43A
102
}
102
{ACAD_XDICTIONARY
360
462
102
}
330
43A
100
AcDbVisualStyle
  2
FlatWithEdges
 70
     1
 71
     2
 72
     1
 73
     1
 90
        2
 40
0.6
 41
30.0
 62
     5
 63
     7
421
 16777215
 74
     1
 91
        0
 64
     7
 65
   257
 75
     1
175
     1
 42
1.0
 92
        0
 66
   257
 43
1.0
 76
     1
 77
     6
 78
     2
 67
     7
 79
     5
170
     0
171
     0
290
     0
174
     0
 93
       13
 44
0.0
173
     0
291
     1
 45
0.0
1001
ACAD
1000
AcDbSavedByObjectVersion
1070
     0
  0
VISUALSTYLE
  5
43D
102
{ACAD_REACTORS
330
43A
102
}
102
{ACAD_XDICTIONARY
360
464
102
}
330
43A
100
AcDbVisualStyle
  2
Gouraud
 70
     2
 71
     2
 72
     2
 73
     1
 90
        2
 40
0.6
 41
30.0
 62
     5
 63
     7
421
 16777215
 74
     0
 91
        0
 64
     7
 65
   257
 75
     1
175
     1
 42
1.0
 92
        0
 66
     7
 43
1.0
 76
     1
 77
     6
 78
     2
 67
     7
 79
     5
170
     0
171
     0
290
     0
174
     0
 93
       13
 44
0.0
173
     0
291
     1
 45
0.0
1001
ACAD
1000
AcDbSavedByObjectVersion
1070
     0
  0
VISUALSTYLE
  5
43E
102
{ACAD_REACTORS
330
43A
102
}
102
{ACAD_XDICTIONARY
360
466
102
}
330
43A
100
AcDbVisualStyle
  2
GouraudWithEdges
 70
     3
 71
     2
 72
     2
 73
     1
 90
        2
 40
0.6
 41
30.0
 62
     5
 63
     7
421
 16777215
 74
     1
 91
        0
 64
     7
 65
   257
 75
     1
175
     1
 42
1.0
 92
        0
 66
   257
 43
1.0
 76
     1
 77
     6
 78
     2
 67
     7
 79
     5
170
     0
171
     0
290
     0
174
     0
 93
       13
 44
0.0
173
     0
291
     1
 45
0.0
1001
ACAD
1000
AcDbSavedByObjectVersion
1070
     0
  0
VISUALSTYLE
  5
441
102
{ACAD_REACTORS
330
43A
102
}
102
{ACAD_XDICTIONARY
360
46C
102
}
330
43A
100
AcDbVisualStyle
  2
Hidden
 70
     6
 71
     1
 72
     2
 73
     2
 90
        0
 40
0.6
 41
30.0
 62
     5
 63
     7
421
 16777215
 74
     2
 91
        2
 64
     7
 65
   257
 75
     2
175
     1
 42
40.0
 92
        0
 66
   257
 43
1.0
 76
     1
 77
     6
 78
     2
 67
     7
 79
     3
170
     0
171
     0
290
     0
174
     0
 93
        1
 44
0.0
173
     0
291
     0
 45
0.0
1001
ACAD
1000
AcDbSavedByObjectVersion
1070
     0
  0
VISUALSTYLE
  5
44B
102
{ACAD_REACTORS
330
43A
102
}
102
{ACAD_XDICTIONARY
360
480
102
}
330
43A
100
AcDbVisualStyle
  2
JitterOff
 70
    20
 71
     2
 72
     2
 73
     0
 90
        0
 40
0.6
 41
30.0
 62
     5
 63
     7
421
 16777215
 74
     1
 91
        4
 64
     7
 65
   257
 75
     1
175
     1
 42
1.0
 92
       10
 66
     7
 43
1.0
 76
     1
 77
     6
 78
     2
 67
     7
 79
     5
170
     0
171
     0
290
     0
174
     0
 93
        1
 44
0.0
173
     0
291
     1
 45
0.0
1001
ACAD
1000
AcDbSavedByObjectVersion
1070
     0
  0
VISUALSTYLE
  5
448
102
{ACAD_REACTORS
330
43A
102
}
102
{ACAD_XDICTIONARY
360
47A
102
}
330
43A
100
AcDbVisualStyle
  2
Linepattern
 70
    14
 71
     2
 72
     2
 73
     0
 90
        0
 40
0.6
 41
30.0
 62
     5
 63
     7
421
 16777215
 74
     1
 91
        4
 64
     7
 65
   257
 75
     7
175
     7
 42
1.0
 92
        8
 66
     7
 43
1.0
 76
     1
 77
     6
 78
     2
 67
     7
 79
     5
170
     0
171
     0
290
     0
174
     0
 93
        1
 44
0.0
173
     0
291
     1
 45
0.0
1001
ACAD
1000
AcDbSavedByObjectVersion
1070
     0
  0
VISUALSTYLE
  5
44C
102
{ACAD_REACTORS
330
43A
102
}
102
{ACAD_XDICTIONARY
360
482
102
}
330
43A
100
AcDbVisualStyle
  2
OverhangOff
 70
    21
 71
     2
 72
     2
 73
     0
 90
        0
 40
0.6
 41
30.0
 62
     5
 63
     7
421
 16777215
 74
     1
 91
        4
 64
     7
 65
   257
 75
     1
175
     1
 42
1.0
 92
        9
 66
     7
 43
1.0
 76
     1
 77
     6
 78
     2
 67
     7
 79
     5
170
     0
171
     0
290
     0
174
     0
 93
        1
 44
0.0
173
     0
291
     1
 45
0.0
1001
ACAD
1000
AcDbSavedByObjectVersion
1070
     0
  0
VISUALSTYLE
  5
443
102
{ACAD_REACTORS
330
43A
102
}
102
{ACAD_XDICTIONARY
360
470
102
}
330
43A
100
AcDbVisualStyle
  2
Realistic
 70
     8
 71
     2
 72
     3
 73
     0
 90
        2
 40
0.6
 41
30.0
 62
     5
 63
     7
421
 16777215
 74
     0
 91
        0
 64
     7
 65
   257
 75
     1
175
     1
 42
1.0
 92
        8
 66
   257
 43
1.0
 76
     1
 77
     6
 78
     2
 67
     7
 79
     3
170
     0
171
     0
290
     0
174
     0
 93
       13
 44
0.0
173
     0
291
     0
 45
0.0
1001
ACAD
1000
AcDbSavedByObjectVersion
1070
     0
  0
VISUALSTYLE
  5
452
102
{ACAD_REACTORS
330
43A
102
}
102
{ACAD_XDICTIONARY
360
48E
102
}
330
43A
100
AcDbVisualStyle
  2
Shaded
 70
    27
 71
     2
 72
     2
 73
     1
 90
        2
 40
0.6
 41
30.0
 62
     5
 63
     7
421
 16777215
 74
     0
 91
        4
 64
     7
 65
   257
 75
     1
175
     1
 42
1.0
 92
        8
 66
   257
 43
1.0
 76
     1
 77
     6
 78
     2
 67
     8
425
  7895160
 79
     3
170
     0
171
     0
290
     0
174
     0
 93
        5
 44
0.0
173
     0
291
     0
 45
0.0
1001
ACAD
1000
AcDbSavedByObjectVersion
1070
     0
  0
VISUALSTYLE
  5
451
102
{ACAD_REACTORS
330
43A
102
}
102
{ACAD_XDICTIONARY
360
48C
102
}
330
43A
100
AcDbVisualStyle
  2
Shaded with edges
 70
    26
 71
     2
 72
     2
 73
     1
 90
        2
 40
0.6
 41
30.0
 62
     5
 63
     7
421
 16777215
 74
     1
 91
       10
 64
     7
 65
   257
 75
     2
175
     1
 42
1.0
 92
        8
 66
   257
 43
1.0
 76
     1
 77
     6
 78
     2
 67
     7
 79
     3
170
     0
171
     0
290
     0
174
     0
 93
        5
 44
0.0
173
     0
291
     0
 45
0.0
1001
ACAD
1000
AcDbSavedByObjectVersion
1070
     0
  0
VISUALSTYLE
  5
44E
102
{ACAD_REACTORS
330
43A
102
}
102
{ACAD_XDICTIONARY
360
486
102
}
330
43A
100
AcDbVisualStyle
  2
Shades of Gray
 70
    23
 71
     2
 72
     2
 73
     3
 90
        0
 40
0.6
 41
30.0
 62
     5
 63
     7
421
 16777215
 74
     2
 91
        2
 64
     7
 65
     7
 75
     1
175
     1
 42
40.0
 92
        8
 66
     7
 43
1.0
 76
     1
 77
     6
 78
     2
 67
     7
 79
     3
170
     0
171
     0
290
     0
174
     0
 93
        1
 44
0.0
173
     0
291
     0
 45
0.0
1001
ACAD
1000
AcDbSavedByObjectVersion
1070
     0
  0
VISUALSTYLE
  5
44F
102
{ACAD_REACTORS
330
43A
102
}
102
{ACAD_XDICTIONARY
360
488
102
}
330
43A
100
AcDbVisualStyle
  2
Sketchy
 70
    24
 71
     1
 72
     2
 73
     2
 90
        0
 40
0.6
 41
30.0
 62
     5
 63
     7
421
 16777215
 74
     2
 91
        2
 64
     7
 65
     7
 75
     1
175
     1
 42
40.0
 92
       11
 66
     7
 43
1.0
 76
     1
 77
     6
 78
     2
 67
     7
 79
     6
170
     0
171
     0
290
     0
174
     0
 93
        1
 44
0.0
173
     0
291
     0
 45
0.0
1001
ACAD
1000
AcDbSavedByObjectVersion
1070
     0
  0
VISUALSTYLE
  5
447
102
{ACAD_REACTORS
330
43A
102
}
102
{ACAD_XDICTIONARY
360
478
102
}
330
43A
100
AcDbVisualStyle
  2
Thicken
 70
    13
 71
     2
 72
     2
 73
     0
 90
        0
 40
0.6
 41
30.0
 62
     5
 63
     7
421
 16777215
 74
     1
 91
        4
 64
     7
 65
   257
 75
     1
175
     1
 42
1.0
 92
       12
 66
     7
 43
1.0
 76
     1
 77
     6
 78
     2
 67
     7
 79
     5
170
     0
171
     0
290
     0
174
     0
 93
        1
 44
0.0
173
     0
291
     1
 45
0.0
1001
ACAD
1000
AcDbSavedByObjectVersion
1070
     0
  0
VISUALSTYLE
  5
440
102
{ACAD_REACTORS
330
43A
102
}
102
{ACAD_XDICTIONARY
360
46A
102
}
330
43A
100
AcDbVisualStyle
  2
Wireframe
 70
     5
 71
     0
 72
     2
 73
     0
 90
        0
 40
0.6
 41
30.0
 62
     5
 63
     7
421
 16777215
 74
     1
 91
        4
 64
     7
 65
   257
 75
     1
175
     1
 42
1.0
 92
        0
 66
   257
 43
1.0
 76
     1
 77
     6
 78
     2
 67
     7
 79
     3
170
     0
171
     0
290
     0
174
     0
 93
        1
 44
0.0
173
     0
291
     0
 45
0.0
1001
ACAD
1000
AcDbSavedByObjectVersion
1070
     0
  0
VISUALSTYLE
  5
450
102
{ACAD_REACTORS
330
43A
102
}
102
{ACAD_XDICTIONARY
360
48A
102
}
330
43A
100
AcDbVisualStyle
  2
X-Ray
 70
    25
 71
     2
 72
     2
 73
     1
 90
        1
 40
0.5
 41
30.0
 62
     5
 63
     7
421
 16777215
 74
     1
 91
        0
 64
     7
 65
   257
 75
     1
175
     1
 42
1.0
 92
        8
 66
     7
 43
1.0
 76
     1
 77
     6
 78
     2
 67
     7
 79
     3
170
     0
171
     0
290
     0
174
     0
 93
       13
 44
0.0
173
     0
291
     0
 45
0.0
1001
ACAD
1000
AcDbSavedByObjectVersion
1070
     0
  0
DICTIONARYVAR
  5
45E
102
{ACAD_REACTORS
330
45D
102
}
330
45D
100
DictionaryVariables
280
     0
  1
1:1
  0
DICTIONARYVAR
  5
49E
102
{ACAD_REACTORS
330
45D
102
}
330
45D
100
DictionaryVariables
280
     0
  1
Standard
  0
DICTIONARYVAR
  5
49D
102
{ACAD_REACTORS
330
45D
102
}
330
45D
100
DictionaryVariables
280
     0
  1
Standard
  0
DICTIONARYVAR
  5
49F
102
{ACAD_REACTORS
330
45D
102
}
330
45D
100
DictionaryVariables
280
     0
  1
0
  0
DICTIONARYVAR
  5
45F
102
{ACAD_REACTORS
330
45D
102
}
330
45D
100
DictionaryVariables
280
     0
  1
2
  0
DICTIONARY
  5
492
330
455
100
AcDbDictionary
280
     1
281
     1
  3
ACAD_XREC_ROUNDTRIP
360
493
  0
DICTIONARY
  5
490
330
454
100
AcDbDictionary
280
     1
281
     1
  3
ACAD_XREC_ROUNDTRIP
360
491
  0
DICTIONARY
  5
494
330
456
100
AcDbDictionary
280
     1
281
     1
  3
ACAD_XREC_ROUNDTRIP
360
495
  0
DICTIONARY
  5
49A
330
45A
100
AcDbDictionary
280
     1
281
     1
  3
ACAD_XREC_ROUNDTRIP
360
49B
  0
DICTIONARY
  5
496
330
458
100
AcDbDictionary
280
     1
281
     1
  3
ACAD_ROUNDTRIP_2008_TABLESTYLE_CELLSTYLEMAP
360
498
  3
ACAD_XREC_ROUNDTRIP
360
497
  0
DICTIONARY
  5
468
330
43F
100
AcDbDictionary
280
     1
281
     1
  3
ACAD_XREC_ROUNDTRIP
360
469
  0
DICTIONARY
  5
46E
330
442
100
AcDbDictionary
280
     1
281
     1
  3
ACAD_XREC_ROUNDTRIP
360
46F
  0
DICTIONARY
  5
476
330
446
100
AcDbDictionary
280
     1
281
     1
  3
ACAD_XREC_ROUNDTRIP
360
477
  0
DICTIONARY
  5
47E
330
44A
100
AcDbDictionary
280
     1
281
     1
  3
ACAD_XREC_ROUNDTRIP
360
47F
  0
DICTIONARY
  5
472
330
444
100
AcDbDictionary
280
     1
281
     1
  3
ACAD_XREC_ROUNDTRIP
360
473
  0
DICTIONARY
  5
474
330
445
100
AcDbDictionary
280
     1
281
     1
  3
ACAD_XREC_ROUNDTRIP
360
475
  0
DICTIONARY
  5
484
330
44D
100
AcDbDictionary
280
     1
281
     1
  3
ACAD_XREC_ROUNDTRIP
360
485
  0
DICTIONARY
  5
47C
330
449
100
AcDbDictionary
280
     1
281
     1
  3
ACAD_XREC_ROUNDTRIP
360
47D
  0
DICTIONARY
  5
460
330
43B
100
AcDbDictionary
280
     1
281
     1
  3
ACAD_XREC_ROUNDTRIP
360
461
  0
DICTIONARY
  5
462
330
43C
100
AcDbDictionary
280
     1
281
     1
  3
ACAD_XREC_ROUNDTRIP
360
463
  0
DICTIONARY
  5
464
330
43D
100
AcDbDictionary
280
     1
281
     1
  3
ACAD_XREC_ROUNDTRIP
360
465
  0
DICTIONARY
  5
466
330
43E
100
AcDbDictionary
280
     1
281
     1
  3
ACAD_XREC_ROUNDTRIP
360
467
  0
DICTIONARY
  5
46C
330
441
100
AcDbDictionary
280
     1
281
     1
  3
ACAD_XREC_ROUNDTRIP
360
46D
  0
DICTIONARY
  5
480
330
44B
100
AcDbDictionary
280
     1
281
     1
  3
ACAD_XREC_ROUNDTRIP
360
481
  0
DICTIONARY
  5
47A
330
448
100
AcDbDictionary
280
     1
281
     1
  3
ACAD_XREC_ROUNDTRIP
360
47B
  0
DICTIONARY
  5
482
330
44C
100
AcDbDictionary
280
     1
281
     1
  3
ACAD_XREC_ROUNDTRIP
360
483
  0
DICTIONARY
  5
470
330
443
100
AcDbDictionary
280
     1
281
     1
  3
ACAD_XREC_ROUNDTRIP
360
471
  0
DICTIONARY
  5
48E
330
452
100
AcDbDictionary
280
     1
281
     1
  3
ACAD_XREC_ROUNDTRIP
360
48F
  0
DICTIONARY
  5
48C
330
451
100
AcDbDictionary
280
     1
281
     1
  3
ACAD_XREC_ROUNDTRIP
360
48D
  0
DICTIONARY
  5
486
330
44E
100
AcDbDictionary
280
     1
281
     1
  3
ACAD_XREC_ROUNDTRIP
360
487
  0
DICTIONARY
  5
488
330
44F
100
AcDbDictionary
280
     1
281
     1
  3
ACAD_XREC_ROUNDTRIP
360
489
  0
DICTIONARY
  5
478
330
447
100
AcDbDictionary
280
     1
281
     1
  3
ACAD_XREC_ROUNDTRIP
360
479
  0
DICTIONARY
  5
46A
330
440
100
AcDbDictionary
280
     1
281
     1
  3
ACAD_XREC_ROUNDTRIP
360
46B
  0
DICTIONARY
  5
48A
330
450
100
AcDbDictionary
280
     1
281
     1
  3
ACAD_XREC_ROUNDTRIP
360
48B
  0
XRECORD
  5
493
102
{ACAD_REACTORS
330
492
102
}
330
492
100
AcDbXrecord
280
     1
102
MATERIAL
148
0.0
149
0.0
149
0.0
 93
        0
 94
      127
282
     0
 72
     1
 77
     1
171
     1
175
     1
179
     1
273
     0
  0
XRECORD
  5
491
102
{ACAD_REACTORS
330
490
102
}
330
490
100
AcDbXrecord
280
     1
102
MATERIAL
148
0.0
149
0.0
149
0.0
 93
        0
 94
      127
282
     0
 72
     1
 77
     1
171
     1
175
     1
179
     1
273
     0
  0
XRECORD
  5
495
102
{ACAD_REACTORS
330
494
102
}
330
494
100
AcDbXrecord
280
     1
102
MATERIAL
148
0.0
149
0.0
149
0.0
 93
        0
 94
      127
282
     0
 72
     1
 77
     1
171
     1
175
     1
179
     1
273
     0
  0
XRECORD
  5
49B
102
{ACAD_REACTORS
330
49A
102
}
330
49A
100
AcDbXrecord
280
     1
102
ACAD_ROUNDTRIP_2010_MLEADER_STYLE
  0
CELLSTYLEMAP
  5
498
102
{ACAD_REACTORS
330
496
102
}
330
496
100
AcDbCellStyleMap
 90
        3
300
CELLSTYLE
  1
TABLEFORMAT_BEGIN
 90
        5
170
     1
 91
        0
 92
    32768
 62
   257
 93
        1
300
CONTENTFORMAT
  1
CONTENTFORMAT_BEGIN
 90
        0
 91
        0
 92
        4
 93
        0
300

 40
0.0
140
1.0
 94
        5
 62
     0
340
15E
144
6.0
309
CONTENTFORMAT_END
171
     1
301
MARGIN
  1
CELLMARGIN_BEGIN
 40
1.5
 40
1.5
 40
1.5
 40
1.5
 40
1.5
 40
1.5
309
CELLMARGIN_END
 94
        6
 95
        1
302
GRIDFORMAT
  1
GRIDFORMAT_BEGIN
 90
        0
 91
        1
 62
     0
 92
       -2
340
4
 93
        0
 40
0.045
309
GRIDFORMAT_END
 95
        2
302
GRIDFORMAT
  1
GRIDFORMAT_BEGIN
 90
        0
 91
        1
 62
     0
 92
       -2
340
4
 93
        0
 40
0.045
309
GRIDFORMAT_END
 95
        4
302
GRIDFORMAT
  1
GRIDFORMAT_BEGIN
 90
        0
 91
        1
 62
     0
 92
       -2
340
4
 93
        0
 40
0.045
309
GRIDFORMAT_END
 95
        8
302
GRIDFORMAT
  1
GRIDFORMAT_BEGIN
 90
        0
 91
        1
 62
     0
 92
       -2
340
4
 93
        0
 40
0.045
309
GRIDFORMAT_END
 95
       16
302
GRIDFORMAT
  1
GRIDFORMAT_BEGIN
 90
        0
 91
        1
 62
     0
 92
       -2
340
4
 93
        0
 40
0.045
309
GRIDFORMAT_END
 95
       32
302
GRIDFORMAT
  1
GRIDFORMAT_BEGIN
 90
        0
 91
        1
 62
     0
 92
       -2
340
4
 93
        0
 40
0.045
309
GRIDFORMAT_END
309
TABLEFORMAT_END
  1
CELLSTYLE_BEGIN
 90
        1
 91
        1
300
_TITLE
309
CELLSTYLE_END
300
CELLSTYLE
  1
TABLEFORMAT_BEGIN
 90
        5
170
     1
 91
        0
 92
        0
 62
   257
 93
        1
300
CONTENTFORMAT
  1
CONTENTFORMAT_BEGIN
 90
        0
 91
        0
 92
        4
 93
        0
300

 40
0.0
140
1.0
 94
        5
 62
     0
340
15E
144
4.5
309
CONTENTFORMAT_END
171
     1
301
MARGIN
  1
CELLMARGIN_BEGIN
 40
1.5
 40
1.5
 40
1.5
 40
1.5
 40
1.5
 40
1.5
309
CELLMARGIN_END
 94
        6
 95
        1
302
GRIDFORMAT
  1
GRIDFORMAT_BEGIN
 90
        0
 91
        1
 62
     0
 92
       -2
340
4
 93
        0
 40
0.045
309
GRIDFORMAT_END
 95
        2
302
GRIDFORMAT
  1
GRIDFORMAT_BEGIN
 90
        0
 91
        1
 62
     0
 92
       -2
340
4
 93
        0
 40
0.045
309
GRIDFORMAT_END
 95
        4
302
GRIDFORMAT
  1
GRIDFORMAT_BEGIN
 90
        0
 91
        1
 62
     0
 92
       -2
340
4
 93
        0
 40
0.045
309
GRIDFORMAT_END
 95
        8
302
GRIDFORMAT
  1
GRIDFORMAT_BEGIN
 90
        0
 91
        1
 62
     0
 92
       -2
340
4
 93
        0
 40
0.045
309
GRIDFORMAT_END
 95
       16
302
GRIDFORMAT
  1
GRIDFORMAT_BEGIN
 90
        0
 91
        1
 62
     0
 92
       -2
340
4
 93
        0
 40
0.045
309
GRIDFORMAT_END
 95
       32
302
GRIDFORMAT
  1
GRIDFORMAT_BEGIN
 90
        0
 91
        1
 62
     0
 92
       -2
340
4
 93
        0
 40
0.045
309
GRIDFORMAT_END
309
TABLEFORMAT_END
  1
CELLSTYLE_BEGIN
 90
        2
 91
        1
300
_HEADER
309
CELLSTYLE_END
300
CELLSTYLE
  1
TABLEFORMAT_BEGIN
 90
        5
170
     1
 91
        0
 92
        0
 62
   257
 93
        1
300
CONTENTFORMAT
  1
CONTENTFORMAT_BEGIN
 90
        0
 91
        0
 92
        4
 93
        0
300

 40
0.0
140
1.0
 94
        2
 62
     0
340
15E
144
4.5
309
CONTENTFORMAT_END
171
     1
301
MARGIN
  1
CELLMARGIN_BEGIN
 40
1.5
 40
1.5
 40
1.5
 40
1.5
 40
1.5
 40
1.5
309
CELLMARGIN_END
 94
        6
 95
        1
302
GRIDFORMAT
  1
GRIDFORMAT_BEGIN
 90
        0
 91
        1
 62
     0
 92
       -2
340
4
 93
        0
 40
0.045
309
GRIDFORMAT_END
 95
        2
302
GRIDFORMAT
  1
GRIDFORMAT_BEGIN
 90
        0
 91
        1
 62
     0
 92
       -2
340
4
 93
        0
 40
0.045
309
GRIDFORMAT_END
 95
        4
302
GRIDFORMAT
  1
GRIDFORMAT_BEGIN
 90
        0
 91
        1
 62
     0
 92
       -2
340
4
 93
        0
 40
0.045
309
GRIDFORMAT_END
 95
        8
302
GRIDFORMAT
  1
GRIDFORMAT_BEGIN
 90
        0
 91
        1
 62
     0
 92
       -2
340
4
 93
        0
 40
0.045
309
GRIDFORMAT_END
 95
       16
302
GRIDFORMAT
  1
GRIDFORMAT_BEGIN
 90
        0
 91
        1
 62
     0
 92
       -2
340
4
 93
        0
 40
0.045
309
GRIDFORMAT_END
 95
       32
302
GRIDFORMAT
  1
GRIDFORMAT_BEGIN
 90
        0
 91
        1
 62
     0
 92
       -2
340
4
 93
        0
 40
0.045
309
GRIDFORMAT_END
309
TABLEFORMAT_END
  1
CELLSTYLE_BEGIN
 90
        3
 91
        2
300
_DATA
309
CELLSTYLE_END
  0
XRECORD
  5
497
102
{ACAD_REACTORS
330
496
102
}
330
496
100
AcDbXrecord
280
     1
102
ACAD_ROUNDTRIP_PRE2007_TABLESTYLE
 90
        4
 91
        0
  1

 92
        4
 93
        0
  2

 94
        4
 95
        0
  3

  0
XRECORD
  5
469
102
{ACAD_REACTORS
330
468
102
}
330
468
100
AcDbXrecord
280
     1
102
RTVSPropertyOp0
 70
     1
102
RTVSPropertyOp1
 70
     1
102
RTVSPropertyOp2
 70
     1
102
RTVSPropertyOp3
 70
     1
102
RTVSPropertyOp4
 70
     1
102
RTVSPropertyOp5
 70
     1
102
RTVSPropertyOp6
 70
     1
102
RTVSPropertyOp7
 70
     1
102
RTVSPropertyOp8
 70
     1
102
RTVSPropertyOp9
 70
     1
102
RTVSPropertyOp10
 70
     1
102
RTVSPropertyOp11
 70
     1
102
RTVSPropertyOp12
 70
     1
102
RTVSPropertyOp13
 70
     1
102
RTVSPropertyOp14
 70
     1
102
RTVSPropertyOp15
 70
     1
102
RTVSPropertyOp16
 70
     1
102
RTVSPropertyOp17
 70
     1
102
RTVSPropertyOp18
 70
     1
102
RTVSPropertyOp19
 70
     1
102
RTVSPropertyOp20
 70
     1
102
RTVSPropertyOp21
 70
     1
102
RTVSPropertyOp22
 70
     1
102
RTVSPropertyOp23
 70
     1
102
RTVSPropertyOp24
 70
     1
102
RTVSPropertyOp25
 70
     1
102
RTVSPropertyOp26
 70
     1
102
RTVSPropertyOp27
 70
     1
102
RTVSPropertyOp28
 70
     1
102
RTVSPropertyOp29
 70
     1
102
RTVSPropertyOp30
 70
     1
102
RTVSPropertyOp31
 70
     1
102
RTVSPropertyOp32
 70
     1
102
RTVSPropertyOp33
 70
     1
102
RTVSPropertyOp34
 70
     1
102
RTVSPropertyOp35
 70
     1
102
RTVSPropertyOp36
 70
     1
102
RTVSPropertyOp37
 70
     1
102
RTVSPropertyOp38
 70
     1
102
RTVSPropertyOp39
 70
     1
102
RTVSPropertyOp40
 70
     1
102
RTVSPropertyOp41
 70
     1
102
RTVSPropertyOp42
 70
     1
102
RTVSPropertyOp43
 70
     1
102
RTVSPropertyOp44
 70
     1
102
RTVSPropertyOp45
 70
     1
102
RTVSPropertyOp46
 70
     1
102
RTVSPropertyOp47
 70
     1
102
RTVSPropertyOp48
 70
     1
102
RTVSPropertyOp49
 70
     1
102
RTVSPropertyOp50
 70
     1
102
RTVSPropertyOp51
 70
     0
102
RTVSPropertyOp52
 70
     0
102
RTVSPropertyOp53
 70
     1
102
RTVSPropertyOp54
 70
     1
102
RTVSPropertyOp55
 70
     1
102
RTVSPropertyOp56
 70
     1
102
RTVSPropertyOp57
 70
     1
102
RTVSPost2010Prop28
280
     1
102
RTVSPost2010PropOp28
 70
     1
102
RTVSPost2010Prop29
280
     1
102
RTVSPost2010PropOp29
 70
     1
102
RTVSPost2010Prop30
280
     0
102
RTVSPost2010PropOp30
 70
     1
102
RTVSPost2010Prop31
280
     0
102
RTVSPost2010PropOp31
 70
     1
102
RTVSPost2010Prop32
280
     0
102
RTVSPost2010PropOp32
 70
     1
102
RTVSPost2010Prop33
280
     0
102
RTVSPost2010PropOp33
 70
     1
102
RTVSPost2010Prop34
280
     0
102
RTVSPost2010PropOp34
 70
     1
102
RTVSPost2010Prop35
280
     0
102
RTVSPost2010PropOp35
 70
     1
102
RTVSPost2010Prop36
280
     0
102
RTVSPost2010PropOp36
 70
     1
102
RTVSPost2010Prop37
 90
       50
102
RTVSPost2010PropOp37
 70
     1
102
RTVSPost2010Prop38
140
0.0
102
RTVSPost2010PropOp38
 70
     1
102
RTVSPost2010Prop39
140
1.0
102
RTVSPost2010PropOp39
 70
     1
102
RTVSPost2010Prop40
 90
        0
102
RTVSPost2010PropOp40
 70
     1
102
RTVSPost2010Prop41ColorIndex
 90
       18
102
RTVSPost2010Prop41ColorRGB
 90
        0
102
RTVSPost2010PropOp41
 70
     1
102
RTVSPost2010Prop42
 90
       50
102
RTVSPost2010PropOp42
 70
     1
102
RTVSPost2010Prop43
 90
        3
102
RTVSPost2010PropOp43
 70
     1
102
RTVSPost2010Prop44ColorIndex
 90
        5
102
RTVSPost2010Prop44ColorRGB
 90
      255
102
RTVSPost2010PropOp44
 70
     1
102
RTVSPost2010Prop45
280
     0
102
RTVSPost2010PropOp45
 70
     1
102
RTVSPost2010Prop46
 90
       50
102
RTVSPost2010PropOp46
 70
     1
102
RTVSPost2010Prop47
 90
       50
102
RTVSPost2010PropOp47
 70
     1
102
RTVSPost2010Prop48
 90
       50
102
RTVSPost2010PropOp48
 70
     1
102
RTVSPost2010Prop49
280
     0
102
RTVSPost2010PropOp49
 70
     1
102
RTVSPost2010Prop50
 90
       50
102
RTVSPost2010PropOp50
 70
     1
102
RTVSPost2010Prop51ColorIndex
 90
      256
102
RTVSPost2010Prop51ColorRGB
 90
-16777216
102
RTVSPost2010PropOp51
 70
     0
102
RTVSPost2010Prop52
140
1.0
102
RTVSPost2010PropOp52
 70
     0
102
RTVSPost2010Prop53
 90
        2
102
RTVSPost2010PropOp53
 70
     1
102
RTVSPost2010Prop54
  1
strokes_ogs.tif
102
RTVSPost2010PropOp54
 70
     1
102
RTVSPost2010Prop55
280
     0
102
RTVSPost2010PropOp55
 70
     1
102
RTVSPost2010Prop56
140
1.0
102
RTVSPost2010PropOp56
 70
     1
102
RTVSPost2010Prop57
140
1.0
102
RTVSPost2010PropOp57
 70
     1
  0
XRECORD
  5
46F
102
{ACAD_REACTORS
330
46E
102
}
330
46E
100
AcDbXrecord
280
     1
102
RTVSPropertyOp0
 70
     1
102
RTVSPropertyOp1
 70
     1
102
RTVSPropertyOp2
 70
     1
102
RTVSPropertyOp3
 70
     1
102
RTVSPropertyOp4
 70
     1
102
RTVSPropertyOp5
 70
     1
102
RTVSPropertyOp6
 70
     1
102
RTVSPropertyOp7
 70
     1
102
RTVSPropertyOp8
 70
     1
102
RTVSPropertyOp9
 70
     1
102
RTVSPropertyOp10
 70
     1
102
RTVSPropertyOp11
 70
     1
102
RTVSPropertyOp12
 70
     1
102
RTVSPropertyOp13
 70
     1
102
RTVSPropertyOp14
 70
     1
102
RTVSPropertyOp15
 70
     1
102
RTVSPropertyOp16
 70
     1
102
RTVSPropertyOp17
 70
     1
102
RTVSPropertyOp18
 70
     1
102
RTVSPropertyOp19
 70
     1
102
RTVSPropertyOp20
 70
     1
102
RTVSPropertyOp21
 70
     1
102
RTVSPropertyOp22
 70
     1
102
RTVSPropertyOp23
 70
     1
102
RTVSPropertyOp24
 70
     1
102
RTVSPropertyOp25
 70
     1
102
RTVSPropertyOp26
 70
     1
102
RTVSPropertyOp27
 70
     1
102
RTVSPropertyOp28
 70
     1
102
RTVSPropertyOp29
 70
     1
102
RTVSPropertyOp30
 70
     1
102
RTVSPropertyOp31
 70
     1
102
RTVSPropertyOp32
 70
     1
102
RTVSPropertyOp33
 70
     1
102
RTVSPropertyOp34
 70
     1
102
RTVSPropertyOp35
 70
     1
102
RTVSPropertyOp36
 70
     1
102
RTVSPropertyOp37
 70
     1
102
RTVSPropertyOp38
 70
     1
102
RTVSPropertyOp39
 70
     1
102
RTVSPropertyOp40
 70
     1
102
RTVSPropertyOp41
 70
     1
102
RTVSPropertyOp42
 70
     1
102
RTVSPropertyOp43
 70
     1
102
RTVSPropertyOp44
 70
     1
102
RTVSPropertyOp45
 70
     1
102
RTVSPropertyOp46
 70
     1
102
RTVSPropertyOp47
 70
     1
102
RTVSPropertyOp48
 70
     1
102
RTVSPropertyOp49
 70
     1
102
RTVSPropertyOp50
 70
     1
102
RTVSPropertyOp51
 70
     0
102
RTVSPropertyOp52
 70
     0
102
RTVSPropertyOp53
 70
     1
102
RTVSPropertyOp54
 70
     1
102
RTVSPropertyOp55
 70
     1
102
RTVSPropertyOp56
 70
     1
102
RTVSPropertyOp57
 70
     1
102
RTVSPost2010Prop28
280
     0
102
RTVSPost2010PropOp28
 70
     1
102
RTVSPost2010Prop29
280
     1
102
RTVSPost2010PropOp29
 70
     1
102
RTVSPost2010Prop30
280
     1
102
RTVSPost2010PropOp30
 70
     1
102
RTVSPost2010Prop31
280
     0
102
RTVSPost2010PropOp31
 70
     1
102
RTVSPost2010Prop32
280
     0
102
RTVSPost2010PropOp32
 70
     1
102
RTVSPost2010Prop33
280
     0
102
RTVSPost2010PropOp33
 70
     1
102
RTVSPost2010Prop34
280
     0
102
RTVSPost2010PropOp34
 70
     1
102
RTVSPost2010Prop35
280
     0
102
RTVSPost2010PropOp35
 70
     1
102
RTVSPost2010Prop36
280
     0
102
RTVSPost2010PropOp36
 70
     1
102
RTVSPost2010Prop37
 90
       50
102
RTVSPost2010PropOp37
 70
     1
102
RTVSPost2010Prop38
140
0.0
102
RTVSPost2010PropOp38
 70
     1
102
RTVSPost2010Prop39
140
1.0
102
RTVSPost2010PropOp39
 70
     1
102
RTVSPost2010Prop40
 90
        0
102
RTVSPost2010PropOp40
 70
     1
102
RTVSPost2010Prop41ColorIndex
 90
       18
102
RTVSPost2010Prop41ColorRGB
 90
        0
102
RTVSPost2010PropOp41
 70
     1
102
RTVSPost2010Prop42
 90
       50
102
RTVSPost2010PropOp42
 70
     1
102
RTVSPost2010Prop43
 90
        3
102
RTVSPost2010PropOp43
 70
     1
102
RTVSPost2010Prop44ColorIndex
 90
        5
102
RTVSPost2010Prop44ColorRGB
 90
      255
102
RTVSPost2010PropOp44
 70
     1
102
RTVSPost2010Prop45
280
     0
102
RTVSPost2010PropOp45
 70
     1
102
RTVSPost2010Prop46
 90
       50
102
RTVSPost2010PropOp46
 70
     1
102
RTVSPost2010Prop47
 90
       50
102
RTVSPost2010PropOp47
 70
     1
102
RTVSPost2010Prop48
 90
       50
102
RTVSPost2010PropOp48
 70
     1
102
RTVSPost2010Prop49
280
     0
102
RTVSPost2010PropOp49
 70
     1
102
RTVSPost2010Prop50
 90
       50
102
RTVSPost2010PropOp50
 70
     1
102
RTVSPost2010Prop51ColorIndex
 90
      256
102
RTVSPost2010Prop51ColorRGB
 90
-16777216
102
RTVSPost2010PropOp51
 70
     0
102
RTVSPost2010Prop52
140
1.0
102
RTVSPost2010PropOp52
 70
     0
102
RTVSPost2010Prop53
 90
        2
102
RTVSPost2010PropOp53
 70
     1
102
RTVSPost2010Prop54
  1
strokes_ogs.tif
102
RTVSPost2010PropOp54
 70
     1
102
RTVSPost2010Prop55
280
     0
102
RTVSPost2010PropOp55
 70
     1
102
RTVSPost2010Prop56
140
1.0
102
RTVSPost2010PropOp56
 70
     1
102
RTVSPost2010Prop57
140
1.0
102
RTVSPost2010PropOp57
 70
     1
  0
XRECORD
  5
477
102
{ACAD_REACTORS
330
476
102
}
330
476
100
AcDbXrecord
280
     1
102
RTVSPropertyOp0
 70
     1
102
RTVSPropertyOp1
 70
     1
102
RTVSPropertyOp2
 70
     1
102
RTVSPropertyOp3
 70
     1
102
RTVSPropertyOp4
 70
     1
102
RTVSPropertyOp5
 70
     1
102
RTVSPropertyOp6
 70
     1
102
RTVSPropertyOp7
 70
     1
102
RTVSPropertyOp8
 70
     1
102
RTVSPropertyOp9
 70
     1
102
RTVSPropertyOp10
 70
     1
102
RTVSPropertyOp11
 70
     1
102
RTVSPropertyOp12
 70
     1
102
RTVSPropertyOp13
 70
     1
102
RTVSPropertyOp14
 70
     1
102
RTVSPropertyOp15
 70
     1
102
RTVSPropertyOp16
 70
     1
102
RTVSPropertyOp17
 70
     1
102
RTVSPropertyOp18
 70
     1
102
RTVSPropertyOp19
 70
     1
102
RTVSPropertyOp20
 70
     1
102
RTVSPropertyOp21
 70
     1
102
RTVSPropertyOp22
 70
     1
102
RTVSPropertyOp23
 70
     1
102
RTVSPropertyOp24
 70
     1
102
RTVSPropertyOp25
 70
     1
102
RTVSPropertyOp26
 70
     1
102
RTVSPropertyOp27
 70
     1
102
RTVSPropertyOp28
 70
     1
102
RTVSPropertyOp29
 70
     1
102
RTVSPropertyOp30
 70
     1
102
RTVSPropertyOp31
 70
     1
102
RTVSPropertyOp32
 70
     1
102
RTVSPropertyOp33
 70
     1
102
RTVSPropertyOp34
 70
     1
102
RTVSPropertyOp35
 70
     1
102
RTVSPropertyOp36
 70
     1
102
RTVSPropertyOp37
 70
     1
102
RTVSPropertyOp38
 70
     1
102
RTVSPropertyOp39
 70
     1
102
RTVSPropertyOp40
 70
     1
102
RTVSPropertyOp41
 70
     1
102
RTVSPropertyOp42
 70
     1
102
RTVSPropertyOp43
 70
     1
102
RTVSPropertyOp44
 70
     1
102
RTVSPropertyOp45
 70
     1
102
RTVSPropertyOp46
 70
     1
102
RTVSPropertyOp47
 70
     1
102
RTVSPropertyOp48
 70
     1
102
RTVSPropertyOp49
 70
     1
102
RTVSPropertyOp50
 70
     1
102
RTVSPropertyOp51
 70
     0
102
RTVSPropertyOp52
 70
     0
102
RTVSPropertyOp53
 70
     1
102
RTVSPropertyOp54
 70
     1
102
RTVSPropertyOp55
 70
     1
102
RTVSPropertyOp56
 70
     1
102
RTVSPropertyOp57
 70
     1
102
RTVSPost2010Prop28
280
     0
102
RTVSPost2010PropOp28
 70
     1
102
RTVSPost2010Prop29
280
     1
102
RTVSPost2010PropOp29
 70
     1
102
RTVSPost2010Prop30
280
     1
102
RTVSPost2010PropOp30
 70
     1
102
RTVSPost2010Prop31
280
     0
102
RTVSPost2010PropOp31
 70
     1
102
RTVSPost2010Prop32
280
     0
102
RTVSPost2010PropOp32
 70
     1
102
RTVSPost2010Prop33
280
     0
102
RTVSPost2010PropOp33
 70
     1
102
RTVSPost2010Prop34
280
     0
102
RTVSPost2010PropOp34
 70
     1
102
RTVSPost2010Prop35
280
     0
102
RTVSPost2010PropOp35
 70
     1
102
RTVSPost2010Prop36
280
     0
102
RTVSPost2010PropOp36
 70
     1
102
RTVSPost2010Prop37
 90
       50
102
RTVSPost2010PropOp37
 70
     1
102
RTVSPost2010Prop38
140
0.0
102
RTVSPost2010PropOp38
 70
     1
102
RTVSPost2010Prop39
140
1.0
102
RTVSPost2010PropOp39
 70
     1
102
RTVSPost2010Prop40
 90
        0
102
RTVSPost2010PropOp40
 70
     1
102
RTVSPost2010Prop41ColorIndex
 90
       18
102
RTVSPost2010Prop41ColorRGB
 90
        0
102
RTVSPost2010PropOp41
 70
     1
102
RTVSPost2010Prop42
 90
       50
102
RTVSPost2010PropOp42
 70
     1
102
RTVSPost2010Prop43
 90
        3
102
RTVSPost2010PropOp43
 70
     1
102
RTVSPost2010Prop44ColorIndex
 90
        5
102
RTVSPost2010Prop44ColorRGB
 90
      255
102
RTVSPost2010PropOp44
 70
     1
102
RTVSPost2010Prop45
280
     0
102
RTVSPost2010PropOp45
 70
     1
102
RTVSPost2010Prop46
 90
       50
102
RTVSPost2010PropOp46
 70
     1
102
RTVSPost2010Prop47
 90
       50
102
RTVSPost2010PropOp47
 70
     1
102
RTVSPost2010Prop48
 90
       50
102
RTVSPost2010PropOp48
 70
     1
102
RTVSPost2010Prop49
280
     0
102
RTVSPost2010PropOp49
 70
     1
102
RTVSPost2010Prop50
 90
       50
102
RTVSPost2010PropOp50
 70
     1
102
RTVSPost2010Prop51ColorIndex
 90
      256
102
RTVSPost2010Prop51ColorRGB
 90
-16777216
102
RTVSPost2010PropOp51
 70
     0
102
RTVSPost2010Prop52
140
1.0
102
RTVSPost2010PropOp52
 70
     0
102
RTVSPost2010Prop53
 90
        2
102
RTVSPost2010PropOp53
 70
     1
102
RTVSPost2010Prop54
  1
strokes_ogs.tif
102
RTVSPost2010PropOp54
 70
     1
102
RTVSPost2010Prop55
280
     0
102
RTVSPost2010PropOp55
 70
     1
102
RTVSPost2010Prop56
140
1.0
102
RTVSPost2010PropOp56
 70
     1
102
RTVSPost2010Prop57
140
1.0
102
RTVSPost2010PropOp57
 70
     1
  0
XRECORD
  5
47F
102
{ACAD_REACTORS
330
47E
102
}
330
47E
100
AcDbXrecord
280
     1
102
RTVSPropertyOp0
 70
     1
102
RTVSPropertyOp1
 70
     1
102
RTVSPropertyOp2
 70
     1
102
RTVSPropertyOp3
 70
     1
102
RTVSPropertyOp4
 70
     1
102
RTVSPropertyOp5
 70
     1
102
RTVSPropertyOp6
 70
     1
102
RTVSPropertyOp7
 70
     1
102
RTVSPropertyOp8
 70
     1
102
RTVSPropertyOp9
 70
     1
102
RTVSPropertyOp10
 70
     1
102
RTVSPropertyOp11
 70
     1
102
RTVSPropertyOp12
 70
     1
102
RTVSPropertyOp13
 70
     1
102
RTVSPropertyOp14
 70
     1
102
RTVSPropertyOp15
 70
     1
102
RTVSPropertyOp16
 70
     1
102
RTVSPropertyOp17
 70
     1
102
RTVSPropertyOp18
 70
     1
102
RTVSPropertyOp19
 70
     1
102
RTVSPropertyOp20
 70
     1
102
RTVSPropertyOp21
 70
     1
102
RTVSPropertyOp22
 70
     1
102
RTVSPropertyOp23
 70
     1
102
RTVSPropertyOp24
 70
     1
102
RTVSPropertyOp25
 70
     1
102
RTVSPropertyOp26
 70
     1
102
RTVSPropertyOp27
 70
     1
102
RTVSPropertyOp28
 70
     1
102
RTVSPropertyOp29
 70
     1
102
RTVSPropertyOp30
 70
     1
102
RTVSPropertyOp31
 70
     1
102
RTVSPropertyOp32
 70
     1
102
RTVSPropertyOp33
 70
     1
102
RTVSPropertyOp34
 70
     1
102
RTVSPropertyOp35
 70
     1
102
RTVSPropertyOp36
 70
     1
102
RTVSPropertyOp37
 70
     1
102
RTVSPropertyOp38
 70
     1
102
RTVSPropertyOp39
 70
     1
102
RTVSPropertyOp40
 70
     1
102
RTVSPropertyOp41
 70
     1
102
RTVSPropertyOp42
 70
     1
102
RTVSPropertyOp43
 70
     1
102
RTVSPropertyOp44
 70
     1
102
RTVSPropertyOp45
 70
     1
102
RTVSPropertyOp46
 70
     1
102
RTVSPropertyOp47
 70
     1
102
RTVSPropertyOp48
 70
     1
102
RTVSPropertyOp49
 70
     1
102
RTVSPropertyOp50
 70
     1
102
RTVSPropertyOp51
 70
     0
102
RTVSPropertyOp52
 70
     0
102
RTVSPropertyOp53
 70
     1
102
RTVSPropertyOp54
 70
     1
102
RTVSPropertyOp55
 70
     1
102
RTVSPropertyOp56
 70
     1
102
RTVSPropertyOp57
 70
     1
102
RTVSPost2010Prop28
280
     0
102
RTVSPost2010PropOp28
 70
     1
102
RTVSPost2010Prop29
280
     1
102
RTVSPost2010PropOp29
 70
     1
102
RTVSPost2010Prop30
280
     1
102
RTVSPost2010PropOp30
 70
     1
102
RTVSPost2010Prop31
280
     0
102
RTVSPost2010PropOp31
 70
     1
102
RTVSPost2010Prop32
280
     0
102
RTVSPost2010PropOp32
 70
     1
102
RTVSPost2010Prop33
280
     0
102
RTVSPost2010PropOp33
 70
     1
102
RTVSPost2010Prop34
280
     0
102
RTVSPost2010PropOp34
 70
     1
102
RTVSPost2010Prop35
280
     0
102
RTVSPost2010PropOp35
 70
     1
102
RTVSPost2010Prop36
280
     0
102
RTVSPost2010PropOp36
 70
     1
102
RTVSPost2010Prop37
 90
       50
102
RTVSPost2010PropOp37
 70
     1
102
RTVSPost2010Prop38
140
0.0
102
RTVSPost2010PropOp38
 70
     1
102
RTVSPost2010Prop39
140
1.0
102
RTVSPost2010PropOp39
 70
     1
102
RTVSPost2010Prop40
 90
        0
102
RTVSPost2010PropOp40
 70
     1
102
RTVSPost2010Prop41ColorIndex
 90
       18
102
RTVSPost2010Prop41ColorRGB
 90
        0
102
RTVSPost2010PropOp41
 70
     1
102
RTVSPost2010Prop42
 90
       50
102
RTVSPost2010PropOp42
 70
     1
102
RTVSPost2010Prop43
 90
        3
102
RTVSPost2010PropOp43
 70
     1
102
RTVSPost2010Prop44ColorIndex
 90
        5
102
RTVSPost2010Prop44ColorRGB
 90
      255
102
RTVSPost2010PropOp44
 70
     1
102
RTVSPost2010Prop45
280
     0
102
RTVSPost2010PropOp45
 70
     1
102
RTVSPost2010Prop46
 90
       50
102
RTVSPost2010PropOp46
 70
     1
102
RTVSPost2010Prop47
 90
       50
102
RTVSPost2010PropOp47
 70
     1
102
RTVSPost2010Prop48
 90
       50
102
RTVSPost2010PropOp48
 70
     1
102
RTVSPost2010Prop49
280
     0
102
RTVSPost2010PropOp49
 70
     1
102
RTVSPost2010Prop50
 90
       50
102
RTVSPost2010PropOp50
 70
     1
102
RTVSPost2010Prop51ColorIndex
 90
      256
102
RTVSPost2010Prop51ColorRGB
 90
-16777216
102
RTVSPost2010PropOp51
 70
     0
102
RTVSPost2010Prop52
140
1.0
102
RTVSPost2010PropOp52
 70
     0
102
RTVSPost2010Prop53
 90
        2
102
RTVSPost2010PropOp53
 70
     1
102
RTVSPost2010Prop54
  1
strokes_ogs.tif
102
RTVSPost2010PropOp54
 70
     1
102
RTVSPost2010Prop55
280
     0
102
RTVSPost2010PropOp55
 70
     1
102
RTVSPost2010Prop56
140
1.0
102
RTVSPost2010PropOp56
 70
     1
102
RTVSPost2010Prop57
140
1.0
102
RTVSPost2010PropOp57
 70
     1
  0
XRECORD
  5
473
102
{ACAD_REACTORS
330
472
102
}
330
472
100
AcDbXrecord
280
     1
102
RTVSPropertyOp0
 70
     1
102
RTVSPropertyOp1
 70
     1
102
RTVSPropertyOp2
 70
     1
102
RTVSPropertyOp3
 70
     1
102
RTVSPropertyOp4
 70
     1
102
RTVSPropertyOp5
 70
     1
102
RTVSPropertyOp6
 70
     1
102
RTVSPropertyOp7
 70
     1
102
RTVSPropertyOp8
 70
     1
102
RTVSPropertyOp9
 70
     1
102
RTVSPropertyOp10
 70
     1
102
RTVSPropertyOp11
 70
     1
102
RTVSPropertyOp12
 70
     1
102
RTVSPropertyOp13
 70
     1
102
RTVSPropertyOp14
 70
     1
102
RTVSPropertyOp15
 70
     1
102
RTVSPropertyOp16
 70
     1
102
RTVSPropertyOp17
 70
     1
102
RTVSPropertyOp18
 70
     1
102
RTVSPropertyOp19
 70
     1
102
RTVSPropertyOp20
 70
     1
102
RTVSPropertyOp21
 70
     1
102
RTVSPropertyOp22
 70
     1
102
RTVSPropertyOp23
 70
     1
102
RTVSPropertyOp24
 70
     1
102
RTVSPropertyOp25
 70
     1
102
RTVSPropertyOp26
 70
     1
102
RTVSPropertyOp27
 70
     1
102
RTVSPropertyOp28
 70
     1
102
RTVSPropertyOp29
 70
     1
102
RTVSPropertyOp30
 70
     1
102
RTVSPropertyOp31
 70
     1
102
RTVSPropertyOp32
 70
     1
102
RTVSPropertyOp33
 70
     1
102
RTVSPropertyOp34
 70
     1
102
RTVSPropertyOp35
 70
     1
102
RTVSPropertyOp36
 70
     1
102
RTVSPropertyOp37
 70
     1
102
RTVSPropertyOp38
 70
     1
102
RTVSPropertyOp39
 70
     1
102
RTVSPropertyOp40
 70
     1
102
RTVSPropertyOp41
 70
     1
102
RTVSPropertyOp42
 70
     1
102
RTVSPropertyOp43
 70
     1
102
RTVSPropertyOp44
 70
     1
102
RTVSPropertyOp45
 70
     1
102
RTVSPropertyOp46
 70
     1
102
RTVSPropertyOp47
 70
     1
102
RTVSPropertyOp48
 70
     1
102
RTVSPropertyOp49
 70
     1
102
RTVSPropertyOp50
 70
     1
102
RTVSPropertyOp51
 70
     0
102
RTVSPropertyOp52
 70
     0
102
RTVSPropertyOp53
 70
     1
102
RTVSPropertyOp54
 70
     1
102
RTVSPropertyOp55
 70
     1
102
RTVSPropertyOp56
 70
     1
102
RTVSPropertyOp57
 70
     1
102
RTVSPost2010Prop28
280
     0
102
RTVSPost2010PropOp28
 70
     1
102
RTVSPost2010Prop29
280
     1
102
RTVSPost2010PropOp29
 70
     1
102
RTVSPost2010Prop30
280
     1
102
RTVSPost2010PropOp30
 70
     1
102
RTVSPost2010Prop31
280
     0
102
RTVSPost2010PropOp31
 70
     1
102
RTVSPost2010Prop32
280
     0
102
RTVSPost2010PropOp32
 70
     1
102
RTVSPost2010Prop33
280
     0
102
RTVSPost2010PropOp33
 70
     1
102
RTVSPost2010Prop34
280
     0
102
RTVSPost2010PropOp34
 70
     1
102
RTVSPost2010Prop35
280
     0
102
RTVSPost2010PropOp35
 70
     1
102
RTVSPost2010Prop36
280
     0
102
RTVSPost2010PropOp36
 70
     1
102
RTVSPost2010Prop37
 90
       50
102
RTVSPost2010PropOp37
 70
     1
102
RTVSPost2010Prop38
140
0.0
102
RTVSPost2010PropOp38
 70
     1
102
RTVSPost2010Prop39
140
1.0
102
RTVSPost2010PropOp39
 70
     1
102
RTVSPost2010Prop40
 90
        0
102
RTVSPost2010PropOp40
 70
     1
102
RTVSPost2010Prop41ColorIndex
 90
       18
102
RTVSPost2010Prop41ColorRGB
 90
        0
102
RTVSPost2010PropOp41
 70
     1
102
RTVSPost2010Prop42
 90
       50
102
RTVSPost2010PropOp42
 70
     1
102
RTVSPost2010Prop43
 90
        3
102
RTVSPost2010PropOp43
 70
     1
102
RTVSPost2010Prop44ColorIndex
 90
        5
102
RTVSPost2010Prop44ColorRGB
 90
      255
102
RTVSPost2010PropOp44
 70
     1
102
RTVSPost2010Prop45
280
     0
102
RTVSPost2010PropOp45
 70
     1
102
RTVSPost2010Prop46
 90
       50
102
RTVSPost2010PropOp46
 70
     1
102
RTVSPost2010Prop47
 90
       50
102
RTVSPost2010PropOp47
 70
     1
102
RTVSPost2010Prop48
 90
       50
102
RTVSPost2010PropOp48
 70
     1
102
RTVSPost2010Prop49
280
     0
102
RTVSPost2010PropOp49
 70
     1
102
RTVSPost2010Prop50
 90
       50
102
RTVSPost2010PropOp50
 70
     1
102
RTVSPost2010Prop51ColorIndex
 90
      256
102
RTVSPost2010Prop51ColorRGB
 90
-16777216
102
RTVSPost2010PropOp51
 70
     0
102
RTVSPost2010Prop52
140
1.0
102
RTVSPost2010PropOp52
 70
     0
102
RTVSPost2010Prop53
 90
        2
102
RTVSPost2010PropOp53
 70
     1
102
RTVSPost2010Prop54
  1
strokes_ogs.tif
102
RTVSPost2010PropOp54
 70
     1
102
RTVSPost2010Prop55
280
     0
102
RTVSPost2010PropOp55
 70
     1
102
RTVSPost2010Prop56
140
1.0
102
RTVSPost2010PropOp56
 70
     1
102
RTVSPost2010Prop57
140
1.0
102
RTVSPost2010PropOp57
 70
     1
  0
XRECORD
  5
475
102
{ACAD_REACTORS
330
474
102
}
330
474
100
AcDbXrecord
280
     1
102
RTVSPropertyOp0
 70
     1
102
RTVSPropertyOp1
 70
     1
102
RTVSPropertyOp2
 70
     1
102
RTVSPropertyOp3
 70
     1
102
RTVSPropertyOp4
 70
     1
102
RTVSPropertyOp5
 70
     1
102
RTVSPropertyOp6
 70
     1
102
RTVSPropertyOp7
 70
     1
102
RTVSPropertyOp8
 70
     1
102
RTVSPropertyOp9
 70
     1
102
RTVSPropertyOp10
 70
     1
102
RTVSPropertyOp11
 70
     1
102
RTVSPropertyOp12
 70
     1
102
RTVSPropertyOp13
 70
     1
102
RTVSPropertyOp14
 70
     1
102
RTVSPropertyOp15
 70
     1
102
RTVSPropertyOp16
 70
     1
102
RTVSPropertyOp17
 70
     1
102
RTVSPropertyOp18
 70
     1
102
RTVSPropertyOp19
 70
     1
102
RTVSPropertyOp20
 70
     1
102
RTVSPropertyOp21
 70
     1
102
RTVSPropertyOp22
 70
     1
102
RTVSPropertyOp23
 70
     1
102
RTVSPropertyOp24
 70
     1
102
RTVSPropertyOp25
 70
     1
102
RTVSPropertyOp26
 70
     1
102
RTVSPropertyOp27
 70
     1
102
RTVSPropertyOp28
 70
     1
102
RTVSPropertyOp29
 70
     1
102
RTVSPropertyOp30
 70
     1
102
RTVSPropertyOp31
 70
     1
102
RTVSPropertyOp32
 70
     1
102
RTVSPropertyOp33
 70
     1
102
RTVSPropertyOp34
 70
     1
102
RTVSPropertyOp35
 70
     1
102
RTVSPropertyOp36
 70
     1
102
RTVSPropertyOp37
 70
     1
102
RTVSPropertyOp38
 70
     1
102
RTVSPropertyOp39
 70
     1
102
RTVSPropertyOp40
 70
     1
102
RTVSPropertyOp41
 70
     1
102
RTVSPropertyOp42
 70
     1
102
RTVSPropertyOp43
 70
     1
102
RTVSPropertyOp44
 70
     1
102
RTVSPropertyOp45
 70
     1
102
RTVSPropertyOp46
 70
     1
102
RTVSPropertyOp47
 70
     1
102
RTVSPropertyOp48
 70
     1
102
RTVSPropertyOp49
 70
     1
102
RTVSPropertyOp50
 70
     1
102
RTVSPropertyOp51
 70
     0
102
RTVSPropertyOp52
 70
     0
102
RTVSPropertyOp53
 70
     1
102
RTVSPropertyOp54
 70
     1
102
RTVSPropertyOp55
 70
     1
102
RTVSPropertyOp56
 70
     1
102
RTVSPropertyOp57
 70
     1
102
RTVSPost2010Prop28
280
     0
102
RTVSPost2010PropOp28
 70
     1
102
RTVSPost2010Prop29
280
     1
102
RTVSPost2010PropOp29
 70
     1
102
RTVSPost2010Prop30
280
     1
102
RTVSPost2010PropOp30
 70
     1
102
RTVSPost2010Prop31
280
     0
102
RTVSPost2010PropOp31
 70
     1
102
RTVSPost2010Prop32
280
     0
102
RTVSPost2010PropOp32
 70
     1
102
RTVSPost2010Prop33
280
     0
102
RTVSPost2010PropOp33
 70
     1
102
RTVSPost2010Prop34
280
     0
102
RTVSPost2010PropOp34
 70
     1
102
RTVSPost2010Prop35
280
     0
102
RTVSPost2010PropOp35
 70
     1
102
RTVSPost2010Prop36
280
     0
102
RTVSPost2010PropOp36
 70
     1
102
RTVSPost2010Prop37
 90
       50
102
RTVSPost2010PropOp37
 70
     1
102
RTVSPost2010Prop38
140
0.0
102
RTVSPost2010PropOp38
 70
     1
102
RTVSPost2010Prop39
140
1.0
102
RTVSPost2010PropOp39
 70
     1
102
RTVSPost2010Prop40
 90
        0
102
RTVSPost2010PropOp40
 70
     1
102
RTVSPost2010Prop41ColorIndex
 90
       18
102
RTVSPost2010Prop41ColorRGB
 90
        0
102
RTVSPost2010PropOp41
 70
     1
102
RTVSPost2010Prop42
 90
       50
102
RTVSPost2010PropOp42
 70
     1
102
RTVSPost2010Prop43
 90
        3
102
RTVSPost2010PropOp43
 70
     1
102
RTVSPost2010Prop44ColorIndex
 90
        5
102
RTVSPost2010Prop44ColorRGB
 90
      255
102
RTVSPost2010PropOp44
 70
     1
102
RTVSPost2010Prop45
280
     0
102
RTVSPost2010PropOp45
 70
     1
102
RTVSPost2010Prop46
 90
       50
102
RTVSPost2010PropOp46
 70
     1
102
RTVSPost2010Prop47
 90
       50
102
RTVSPost2010PropOp47
 70
     1
102
RTVSPost2010Prop48
 90
       50
102
RTVSPost2010PropOp48
 70
     1
102
RTVSPost2010Prop49
280
     0
102
RTVSPost2010PropOp49
 70
     1
102
RTVSPost2010Prop50
 90
       50
102
RTVSPost2010PropOp50
 70
     1
102
RTVSPost2010Prop51ColorIndex
 90
      256
102
RTVSPost2010Prop51ColorRGB
 90
-16777216
102
RTVSPost2010PropOp51
 70
     0
102
RTVSPost2010Prop52
140
1.0
102
RTVSPost2010PropOp52
 70
     0
102
RTVSPost2010Prop53
 90
        2
102
RTVSPost2010PropOp53
 70
     1
102
RTVSPost2010Prop54
  1
strokes_ogs.tif
102
RTVSPost2010PropOp54
 70
     1
102
RTVSPost2010Prop55
280
     0
102
RTVSPost2010PropOp55
 70
     1
102
RTVSPost2010Prop56
140
1.0
102
RTVSPost2010PropOp56
 70
     1
102
RTVSPost2010Prop57
140
1.0
102
RTVSPost2010PropOp57
 70
     1
  0
XRECORD
  5
485
102
{ACAD_REACTORS
330
484
102
}
330
484
100
AcDbXrecord
280
     1
102
RTVSPropertyOp0
 70
     0
102
RTVSPropertyOp1
 70
     0
102
RTVSPropertyOp2
 70
     0
102
RTVSPropertyOp3
 70
     0
102
RTVSPropertyOp4
 70
     0
102
RTVSPropertyOp5
 70
     0
102
RTVSPropertyOp6
 70
     0
102
RTVSPropertyOp7
 70
     0
102
RTVSPropertyOp8
 70
     0
102
RTVSPropertyOp9
 70
     0
102
RTVSPropertyOp10
 70
     0
102
RTVSPropertyOp11
 70
     0
102
RTVSPropertyOp12
 70
     0
102
RTVSPropertyOp13
 70
     0
102
RTVSPropertyOp14
 70
     2
102
RTVSPropertyOp15
 70
     0
102
RTVSPropertyOp16
 70
     0
102
RTVSPropertyOp17
 70
     0
102
RTVSPropertyOp18
 70
     0
102
RTVSPropertyOp19
 70
     0
102
RTVSPropertyOp20
 70
     0
102
RTVSPropertyOp21
 70
     0
102
RTVSPropertyOp22
 70
     0
102
RTVSPropertyOp23
 70
     0
102
RTVSPropertyOp24
 70
     0
102
RTVSPropertyOp25
 70
     0
102
RTVSPropertyOp26
 70
     0
102
RTVSPropertyOp27
 70
     0
102
RTVSPropertyOp28
 70
     0
102
RTVSPropertyOp29
 70
     0
102
RTVSPropertyOp30
 70
     0
102
RTVSPropertyOp31
 70
     0
102
RTVSPropertyOp32
 70
     0
102
RTVSPropertyOp33
 70
     0
102
RTVSPropertyOp34
 70
     0
102
RTVSPropertyOp35
 70
     0
102
RTVSPropertyOp36
 70
     0
102
RTVSPropertyOp37
 70
     0
102
RTVSPropertyOp38
 70
     0
102
RTVSPropertyOp39
 70
     0
102
RTVSPropertyOp40
 70
     0
102
RTVSPropertyOp41
 70
     0
102
RTVSPropertyOp42
 70
     0
102
RTVSPropertyOp43
 70
     0
102
RTVSPropertyOp44
 70
     0
102
RTVSPropertyOp45
 70
     0
102
RTVSPropertyOp46
 70
     0
102
RTVSPropertyOp47
 70
     0
102
RTVSPropertyOp48
 70
     0
102
RTVSPropertyOp49
 70
     0
102
RTVSPropertyOp50
 70
     0
102
RTVSPropertyOp51
 70
     0
102
RTVSPropertyOp52
 70
     0
102
RTVSPropertyOp53
 70
     0
102
RTVSPropertyOp54
 70
     0
102
RTVSPropertyOp55
 70
     0
102
RTVSPropertyOp56
 70
     0
102
RTVSPropertyOp57
 70
     0
102
RTVSPost2010Prop28
280
     0
102
RTVSPost2010PropOp28
 70
     0
102
RTVSPost2010Prop29
280
     1
102
RTVSPost2010PropOp29
 70
     0
102
RTVSPost2010Prop30
280
     1
102
RTVSPost2010PropOp30
 70
     0
102
RTVSPost2010Prop31
280
     0
102
RTVSPost2010PropOp31
 70
     0
102
RTVSPost2010Prop32
280
     0
102
RTVSPost2010PropOp32
 70
     0
102
RTVSPost2010Prop33
280
     0
102
RTVSPost2010PropOp33
 70
     0
102
RTVSPost2010Prop34
280
     0
102
RTVSPost2010PropOp34
 70
     0
102
RTVSPost2010Prop35
280
     0
102
RTVSPost2010PropOp35
 70
     0
102
RTVSPost2010Prop36
280
     0
102
RTVSPost2010PropOp36
 70
     0
102
RTVSPost2010Prop37
 90
       50
102
RTVSPost2010PropOp37
 70
     0
102
RTVSPost2010Prop38
140
0.0
102
RTVSPost2010PropOp38
 70
     0
102
RTVSPost2010Prop39
140
1.0
102
RTVSPost2010PropOp39
 70
     0
102
RTVSPost2010Prop40
 90
        0
102
RTVSPost2010PropOp40
 70
     0
102
RTVSPost2010Prop41ColorIndex
 90
       18
102
RTVSPost2010Prop41ColorRGB
 90
        0
102
RTVSPost2010PropOp41
 70
     0
102
RTVSPost2010Prop42
 90
       50
102
RTVSPost2010PropOp42
 70
     0
102
RTVSPost2010Prop43
 90
        3
102
RTVSPost2010PropOp43
 70
     0
102
RTVSPost2010Prop44ColorIndex
 90
        5
102
RTVSPost2010Prop44ColorRGB
 90
      255
102
RTVSPost2010PropOp44
 70
     0
102
RTVSPost2010Prop45
280
     0
102
RTVSPost2010PropOp45
 70
     0
102
RTVSPost2010Prop46
 90
       50
102
RTVSPost2010PropOp46
 70
     0
102
RTVSPost2010Prop47
 90
       50
102
RTVSPost2010PropOp47
 70
     0
102
RTVSPost2010Prop48
 90
       50
102
RTVSPost2010PropOp48
 70
     0
102
RTVSPost2010Prop49
280
     0
102
RTVSPost2010PropOp49
 70
     0
102
RTVSPost2010Prop50
 90
       50
102
RTVSPost2010PropOp50
 70
     0
102
RTVSPost2010Prop51ColorIndex
 90
      256
102
RTVSPost2010Prop51ColorRGB
 90
-16777216
102
RTVSPost2010PropOp51
 70
     0
102
RTVSPost2010Prop52
140
1.0
102
RTVSPost2010PropOp52
 70
     0
102
RTVSPost2010Prop53
 90
        2
102
RTVSPost2010PropOp53
 70
     0
102
RTVSPost2010Prop54
  1
strokes_ogs.tif
102
RTVSPost2010PropOp54
 70
     0
102
RTVSPost2010Prop55
280
     0
102
RTVSPost2010PropOp55
 70
     0
102
RTVSPost2010Prop56
140
1.0
102
RTVSPost2010PropOp56
 70
     0
102
RTVSPost2010Prop57
140
1.0
102
RTVSPost2010PropOp57
 70
     0
  0
XRECORD
  5
47D
102
{ACAD_REACTORS
330
47C
102
}
330
47C
100
AcDbXrecord
280
     1
102
RTVSPropertyOp0
 70
     1
102
RTVSPropertyOp1
 70
     1
102
RTVSPropertyOp2
 70
     1
102
RTVSPropertyOp3
 70
     1
102
RTVSPropertyOp4
 70
     1
102
RTVSPropertyOp5
 70
     1
102
RTVSPropertyOp6
 70
     1
102
RTVSPropertyOp7
 70
     1
102
RTVSPropertyOp8
 70
     1
102
RTVSPropertyOp9
 70
     1
102
RTVSPropertyOp10
 70
     1
102
RTVSPropertyOp11
 70
     1
102
RTVSPropertyOp12
 70
     1
102
RTVSPropertyOp13
 70
     1
102
RTVSPropertyOp14
 70
     1
102
RTVSPropertyOp15
 70
     1
102
RTVSPropertyOp16
 70
     1
102
RTVSPropertyOp17
 70
     1
102
RTVSPropertyOp18
 70
     1
102
RTVSPropertyOp19
 70
     1
102
RTVSPropertyOp20
 70
     1
102
RTVSPropertyOp21
 70
     1
102
RTVSPropertyOp22
 70
     1
102
RTVSPropertyOp23
 70
     1
102
RTVSPropertyOp24
 70
     1
102
RTVSPropertyOp25
 70
     1
102
RTVSPropertyOp26
 70
     1
102
RTVSPropertyOp27
 70
     1
102
RTVSPropertyOp28
 70
     1
102
RTVSPropertyOp29
 70
     1
102
RTVSPropertyOp30
 70
     1
102
RTVSPropertyOp31
 70
     1
102
RTVSPropertyOp32
 70
     1
102
RTVSPropertyOp33
 70
     1
102
RTVSPropertyOp34
 70
     1
102
RTVSPropertyOp35
 70
     1
102
RTVSPropertyOp36
 70
     1
102
RTVSPropertyOp37
 70
     1
102
RTVSPropertyOp38
 70
     1
102
RTVSPropertyOp39
 70
     1
102
RTVSPropertyOp40
 70
     1
102
RTVSPropertyOp41
 70
     1
102
RTVSPropertyOp42
 70
     1
102
RTVSPropertyOp43
 70
     1
102
RTVSPropertyOp44
 70
     1
102
RTVSPropertyOp45
 70
     1
102
RTVSPropertyOp46
 70
     1
102
RTVSPropertyOp47
 70
     1
102
RTVSPropertyOp48
 70
     1
102
RTVSPropertyOp49
 70
     1
102
RTVSPropertyOp50
 70
     1
102
RTVSPropertyOp51
 70
     0
102
RTVSPropertyOp52
 70
     0
102
RTVSPropertyOp53
 70
     1
102
RTVSPropertyOp54
 70
     1
102
RTVSPropertyOp55
 70
     1
102
RTVSPropertyOp56
 70
     1
102
RTVSPropertyOp57
 70
     1
102
RTVSPost2010Prop28
280
     0
102
RTVSPost2010PropOp28
 70
     1
102
RTVSPost2010Prop29
280
     1
102
RTVSPost2010PropOp29
 70
     1
102
RTVSPost2010Prop30
280
     1
102
RTVSPost2010PropOp30
 70
     1
102
RTVSPost2010Prop31
280
     0
102
RTVSPost2010PropOp31
 70
     1
102
RTVSPost2010Prop32
280
     0
102
RTVSPost2010PropOp32
 70
     1
102
RTVSPost2010Prop33
280
     0
102
RTVSPost2010PropOp33
 70
     1
102
RTVSPost2010Prop34
280
     0
102
RTVSPost2010PropOp34
 70
     1
102
RTVSPost2010Prop35
280
     0
102
RTVSPost2010PropOp35
 70
     1
102
RTVSPost2010Prop36
280
     0
102
RTVSPost2010PropOp36
 70
     1
102
RTVSPost2010Prop37
 90
       50
102
RTVSPost2010PropOp37
 70
     1
102
RTVSPost2010Prop38
140
0.0
102
RTVSPost2010PropOp38
 70
     1
102
RTVSPost2010Prop39
140
1.0
102
RTVSPost2010PropOp39
 70
     1
102
RTVSPost2010Prop40
 90
        0
102
RTVSPost2010PropOp40
 70
     1
102
RTVSPost2010Prop41ColorIndex
 90
       18
102
RTVSPost2010Prop41ColorRGB
 90
        0
102
RTVSPost2010PropOp41
 70
     1
102
RTVSPost2010Prop42
 90
       50
102
RTVSPost2010PropOp42
 70
     1
102
RTVSPost2010Prop43
 90
        3
102
RTVSPost2010PropOp43
 70
     1
102
RTVSPost2010Prop44ColorIndex
 90
        5
102
RTVSPost2010Prop44ColorRGB
 90
      255
102
RTVSPost2010PropOp44
 70
     1
102
RTVSPost2010Prop45
280
     0
102
RTVSPost2010PropOp45
 70
     1
102
RTVSPost2010Prop46
 90
       50
102
RTVSPost2010PropOp46
 70
     1
102
RTVSPost2010Prop47
 90
       50
102
RTVSPost2010PropOp47
 70
     1
102
RTVSPost2010Prop48
 90
       50
102
RTVSPost2010PropOp48
 70
     1
102
RTVSPost2010Prop49
280
     0
102
RTVSPost2010PropOp49
 70
     1
102
RTVSPost2010Prop50
 90
       50
102
RTVSPost2010PropOp50
 70
     1
102
RTVSPost2010Prop51ColorIndex
 90
      256
102
RTVSPost2010Prop51ColorRGB
 90
-16777216
102
RTVSPost2010PropOp51
 70
     0
102
RTVSPost2010Prop52
140
1.0
102
RTVSPost2010PropOp52
 70
     0
102
RTVSPost2010Prop53
 90
        2
102
RTVSPost2010PropOp53
 70
     1
102
RTVSPost2010Prop54
  1
strokes_ogs.tif
102
RTVSPost2010PropOp54
 70
     1
102
RTVSPost2010Prop55
280
     0
102
RTVSPost2010PropOp55
 70
     1
102
RTVSPost2010Prop56
140
1.0
102
RTVSPost2010PropOp56
 70
     1
102
RTVSPost2010Prop57
140
1.0
102
RTVSPost2010PropOp57
 70
     1
  0
XRECORD
  5
461
102
{ACAD_REACTORS
330
460
102
}
330
460
100
AcDbXrecord
280
     1
102
RTVSPropertyOp0
 70
     1
102
RTVSPropertyOp1
 70
     1
102
RTVSPropertyOp2
 70
     1
102
RTVSPropertyOp3
 70
     1
102
RTVSPropertyOp4
 70
     1
102
RTVSPropertyOp5
 70
     1
102
RTVSPropertyOp6
 70
     1
102
RTVSPropertyOp7
 70
     1
102
RTVSPropertyOp8
 70
     1
102
RTVSPropertyOp9
 70
     1
102
RTVSPropertyOp10
 70
     1
102
RTVSPropertyOp11
 70
     1
102
RTVSPropertyOp12
 70
     1
102
RTVSPropertyOp13
 70
     1
102
RTVSPropertyOp14
 70
     1
102
RTVSPropertyOp15
 70
     1
102
RTVSPropertyOp16
 70
     1
102
RTVSPropertyOp17
 70
     1
102
RTVSPropertyOp18
 70
     1
102
RTVSPropertyOp19
 70
     1
102
RTVSPropertyOp20
 70
     1
102
RTVSPropertyOp21
 70
     1
102
RTVSPropertyOp22
 70
     1
102
RTVSPropertyOp23
 70
     1
102
RTVSPropertyOp24
 70
     1
102
RTVSPropertyOp25
 70
     1
102
RTVSPropertyOp26
 70
     1
102
RTVSPropertyOp27
 70
     1
102
RTVSPropertyOp28
 70
     1
102
RTVSPropertyOp29
 70
     1
102
RTVSPropertyOp30
 70
     1
102
RTVSPropertyOp31
 70
     1
102
RTVSPropertyOp32
 70
     1
102
RTVSPropertyOp33
 70
     1
102
RTVSPropertyOp34
 70
     1
102
RTVSPropertyOp35
 70
     1
102
RTVSPropertyOp36
 70
     1
102
RTVSPropertyOp37
 70
     1
102
RTVSPropertyOp38
 70
     1
102
RTVSPropertyOp39
 70
     1
102
RTVSPropertyOp40
 70
     1
102
RTVSPropertyOp41
 70
     1
102
RTVSPropertyOp42
 70
     1
102
RTVSPropertyOp43
 70
     1
102
RTVSPropertyOp44
 70
     1
102
RTVSPropertyOp45
 70
     1
102
RTVSPropertyOp46
 70
     1
102
RTVSPropertyOp47
 70
     1
102
RTVSPropertyOp48
 70
     1
102
RTVSPropertyOp49
 70
     1
102
RTVSPropertyOp50
 70
     1
102
RTVSPropertyOp51
 70
     0
102
RTVSPropertyOp52
 70
     0
102
RTVSPropertyOp53
 70
     1
102
RTVSPropertyOp54
 70
     1
102
RTVSPropertyOp55
 70
     1
102
RTVSPropertyOp56
 70
     1
102
RTVSPropertyOp57
 70
     1
102
RTVSPost2010Prop28
280
     0
102
RTVSPost2010PropOp28
 70
     1
102
RTVSPost2010Prop29
280
     1
102
RTVSPost2010PropOp29
 70
     1
102
RTVSPost2010Prop30
280
     1
102
RTVSPost2010PropOp30
 70
     1
102
RTVSPost2010Prop31
280
     0
102
RTVSPost2010PropOp31
 70
     1
102
RTVSPost2010Prop32
280
     0
102
RTVSPost2010PropOp32
 70
     1
102
RTVSPost2010Prop33
280
     0
102
RTVSPost2010PropOp33
 70
     1
102
RTVSPost2010Prop34
280
     0
102
RTVSPost2010PropOp34
 70
     1
102
RTVSPost2010Prop35
280
     0
102
RTVSPost2010PropOp35
 70
     1
102
RTVSPost2010Prop36
280
     0
102
RTVSPost2010PropOp36
 70
     1
102
RTVSPost2010Prop37
 90
       50
102
RTVSPost2010PropOp37
 70
     1
102
RTVSPost2010Prop38
140
0.0
102
RTVSPost2010PropOp38
 70
     1
102
RTVSPost2010Prop39
140
1.0
102
RTVSPost2010PropOp39
 70
     1
102
RTVSPost2010Prop40
 90
        0
102
RTVSPost2010PropOp40
 70
     1
102
RTVSPost2010Prop41ColorIndex
 90
       18
102
RTVSPost2010Prop41ColorRGB
 90
        0
102
RTVSPost2010PropOp41
 70
     1
102
RTVSPost2010Prop42
 90
       50
102
RTVSPost2010PropOp42
 70
     1
102
RTVSPost2010Prop43
 90
        3
102
RTVSPost2010PropOp43
 70
     1
102
RTVSPost2010Prop44ColorIndex
 90
        5
102
RTVSPost2010Prop44ColorRGB
 90
      255
102
RTVSPost2010PropOp44
 70
     1
102
RTVSPost2010Prop45
280
     0
102
RTVSPost2010PropOp45
 70
     1
102
RTVSPost2010Prop46
 90
       50
102
RTVSPost2010PropOp46
 70
     1
102
RTVSPost2010Prop47
 90
       50
102
RTVSPost2010PropOp47
 70
     1
102
RTVSPost2010Prop48
 90
       50
102
RTVSPost2010PropOp48
 70
     1
102
RTVSPost2010Prop49
280
     0
102
RTVSPost2010PropOp49
 70
     1
102
RTVSPost2010Prop50
 90
       50
102
RTVSPost2010PropOp50
 70
     1
102
RTVSPost2010Prop51ColorIndex
 90
      256
102
RTVSPost2010Prop51ColorRGB
 90
-16777216
102
RTVSPost2010PropOp51
 70
     0
102
RTVSPost2010Prop52
140
1.0
102
RTVSPost2010PropOp52
 70
     0
102
RTVSPost2010Prop53
 90
        2
102
RTVSPost2010PropOp53
 70
     1
102
RTVSPost2010Prop54
  1
strokes_ogs.tif
102
RTVSPost2010PropOp54
 70
     1
102
RTVSPost2010Prop55
280
     0
102
RTVSPost2010PropOp55
 70
     1
102
RTVSPost2010Prop56
140
1.0
102
RTVSPost2010PropOp56
 70
     1
102
RTVSPost2010Prop57
140
1.0
102
RTVSPost2010PropOp57
 70
     1
  0
XRECORD
  5
463
102
{ACAD_REACTORS
330
462
102
}
330
462
100
AcDbXrecord
280
     1
102
RTVSPropertyOp0
 70
     1
102
RTVSPropertyOp1
 70
     1
102
RTVSPropertyOp2
 70
     1
102
RTVSPropertyOp3
 70
     1
102
RTVSPropertyOp4
 70
     1
102
RTVSPropertyOp5
 70
     1
102
RTVSPropertyOp6
 70
     1
102
RTVSPropertyOp7
 70
     1
102
RTVSPropertyOp8
 70
     1
102
RTVSPropertyOp9
 70
     1
102
RTVSPropertyOp10
 70
     1
102
RTVSPropertyOp11
 70
     1
102
RTVSPropertyOp12
 70
     1
102
RTVSPropertyOp13
 70
     1
102
RTVSPropertyOp14
 70
     1
102
RTVSPropertyOp15
 70
     1
102
RTVSPropertyOp16
 70
     1
102
RTVSPropertyOp17
 70
     1
102
RTVSPropertyOp18
 70
     1
102
RTVSPropertyOp19
 70
     1
102
RTVSPropertyOp20
 70
     1
102
RTVSPropertyOp21
 70
     1
102
RTVSPropertyOp22
 70
     1
102
RTVSPropertyOp23
 70
     1
102
RTVSPropertyOp24
 70
     1
102
RTVSPropertyOp25
 70
     1
102
RTVSPropertyOp26
 70
     1
102
RTVSPropertyOp27
 70
     1
102
RTVSPropertyOp28
 70
     1
102
RTVSPropertyOp29
 70
     1
102
RTVSPropertyOp30
 70
     1
102
RTVSPropertyOp31
 70
     1
102
RTVSPropertyOp32
 70
     1
102
RTVSPropertyOp33
 70
     1
102
RTVSPropertyOp34
 70
     1
102
RTVSPropertyOp35
 70
     1
102
RTVSPropertyOp36
 70
     1
102
RTVSPropertyOp37
 70
     1
102
RTVSPropertyOp38
 70
     1
102
RTVSPropertyOp39
 70
     1
102
RTVSPropertyOp40
 70
     1
102
RTVSPropertyOp41
 70
     1
102
RTVSPropertyOp42
 70
     1
102
RTVSPropertyOp43
 70
     1
102
RTVSPropertyOp44
 70
     1
102
RTVSPropertyOp45
 70
     1
102
RTVSPropertyOp46
 70
     1
102
RTVSPropertyOp47
 70
     1
102
RTVSPropertyOp48
 70
     1
102
RTVSPropertyOp49
 70
     1
102
RTVSPropertyOp50
 70
     1
102
RTVSPropertyOp51
 70
     0
102
RTVSPropertyOp52
 70
     0
102
RTVSPropertyOp53
 70
     1
102
RTVSPropertyOp54
 70
     1
102
RTVSPropertyOp55
 70
     1
102
RTVSPropertyOp56
 70
     1
102
RTVSPropertyOp57
 70
     1
102
RTVSPost2010Prop28
280
     0
102
RTVSPost2010PropOp28
 70
     1
102
RTVSPost2010Prop29
280
     1
102
RTVSPost2010PropOp29
 70
     1
102
RTVSPost2010Prop30
280
     1
102
RTVSPost2010PropOp30
 70
     1
102
RTVSPost2010Prop31
280
     0
102
RTVSPost2010PropOp31
 70
     1
102
RTVSPost2010Prop32
280
     0
102
RTVSPost2010PropOp32
 70
     1
102
RTVSPost2010Prop33
280
     0
102
RTVSPost2010PropOp33
 70
     1
102
RTVSPost2010Prop34
280
     0
102
RTVSPost2010PropOp34
 70
     1
102
RTVSPost2010Prop35
280
     0
102
RTVSPost2010PropOp35
 70
     1
102
RTVSPost2010Prop36
280
     0
102
RTVSPost2010PropOp36
 70
     1
102
RTVSPost2010Prop37
 90
       50
102
RTVSPost2010PropOp37
 70
     1
102
RTVSPost2010Prop38
140
0.0
102
RTVSPost2010PropOp38
 70
     1
102
RTVSPost2010Prop39
140
1.0
102
RTVSPost2010PropOp39
 70
     1
102
RTVSPost2010Prop40
 90
        0
102
RTVSPost2010PropOp40
 70
     1
102
RTVSPost2010Prop41ColorIndex
 90
       18
102
RTVSPost2010Prop41ColorRGB
 90
        0
102
RTVSPost2010PropOp41
 70
     1
102
RTVSPost2010Prop42
 90
       50
102
RTVSPost2010PropOp42
 70
     1
102
RTVSPost2010Prop43
 90
        3
102
RTVSPost2010PropOp43
 70
     1
102
RTVSPost2010Prop44ColorIndex
 90
        5
102
RTVSPost2010Prop44ColorRGB
 90
      255
102
RTVSPost2010PropOp44
 70
     1
102
RTVSPost2010Prop45
280
     0
102
RTVSPost2010PropOp45
 70
     1
102
RTVSPost2010Prop46
 90
       50
102
RTVSPost2010PropOp46
 70
     1
102
RTVSPost2010Prop47
 90
       50
102
RTVSPost2010PropOp47
 70
     1
102
RTVSPost2010Prop48
 90
       50
102
RTVSPost2010PropOp48
 70
     1
102
RTVSPost2010Prop49
280
     0
102
RTVSPost2010PropOp49
 70
     1
102
RTVSPost2010Prop50
 90
       50
102
RTVSPost2010PropOp50
 70
     1
102
RTVSPost2010Prop51ColorIndex
 90
      256
102
RTVSPost2010Prop51ColorRGB
 90
-16777216
102
RTVSPost2010PropOp51
 70
     0
102
RTVSPost2010Prop52
140
1.0
102
RTVSPost2010PropOp52
 70
     0
102
RTVSPost2010Prop53
 90
        2
102
RTVSPost2010PropOp53
 70
     1
102
RTVSPost2010Prop54
  1
strokes_ogs.tif
102
RTVSPost2010PropOp54
 70
     1
102
RTVSPost2010Prop55
280
     0
102
RTVSPost2010PropOp55
 70
     1
102
RTVSPost2010Prop56
140
1.0
102
RTVSPost2010PropOp56
 70
     1
102
RTVSPost2010Prop57
140
1.0
102
RTVSPost2010PropOp57
 70
     1
  0
XRECORD
  5
465
102
{ACAD_REACTORS
330
464
102
}
330
464
100
AcDbXrecord
280
     1
102
RTVSPropertyOp0
 70
     1
102
RTVSPropertyOp1
 70
     1
102
RTVSPropertyOp2
 70
     1
102
RTVSPropertyOp3
 70
     1
102
RTVSPropertyOp4
 70
     1
102
RTVSPropertyOp5
 70
     1
102
RTVSPropertyOp6
 70
     1
102
RTVSPropertyOp7
 70
     1
102
RTVSPropertyOp8
 70
     1
102
RTVSPropertyOp9
 70
     1
102
RTVSPropertyOp10
 70
     1
102
RTVSPropertyOp11
 70
     1
102
RTVSPropertyOp12
 70
     1
102
RTVSPropertyOp13
 70
     1
102
RTVSPropertyOp14
 70
     1
102
RTVSPropertyOp15
 70
     1
102
RTVSPropertyOp16
 70
     1
102
RTVSPropertyOp17
 70
     1
102
RTVSPropertyOp18
 70
     1
102
RTVSPropertyOp19
 70
     1
102
RTVSPropertyOp20
 70
     1
102
RTVSPropertyOp21
 70
     1
102
RTVSPropertyOp22
 70
     1
102
RTVSPropertyOp23
 70
     1
102
RTVSPropertyOp24
 70
     1
102
RTVSPropertyOp25
 70
     1
102
RTVSPropertyOp26
 70
     1
102
RTVSPropertyOp27
 70
     1
102
RTVSPropertyOp28
 70
     1
102
RTVSPropertyOp29
 70
     1
102
RTVSPropertyOp30
 70
     1
102
RTVSPropertyOp31
 70
     1
102
RTVSPropertyOp32
 70
     1
102
RTVSPropertyOp33
 70
     1
102
RTVSPropertyOp34
 70
     1
102
RTVSPropertyOp35
 70
     1
102
RTVSPropertyOp36
 70
     1
102
RTVSPropertyOp37
 70
     1
102
RTVSPropertyOp38
 70
     1
102
RTVSPropertyOp39
 70
     1
102
RTVSPropertyOp40
 70
     1
102
RTVSPropertyOp41
 70
     1
102
RTVSPropertyOp42
 70
     1
102
RTVSPropertyOp43
 70
     1
102
RTVSPropertyOp44
 70
     1
102
RTVSPropertyOp45
 70
     1
102
RTVSPropertyOp46
 70
     1
102
RTVSPropertyOp47
 70
     1
102
RTVSPropertyOp48
 70
     1
102
RTVSPropertyOp49
 70
     1
102
RTVSPropertyOp50
 70
     1
102
RTVSPropertyOp51
 70
     0
102
RTVSPropertyOp52
 70
     0
102
RTVSPropertyOp53
 70
     1
102
RTVSPropertyOp54
 70
     1
102
RTVSPropertyOp55
 70
     1
102
RTVSPropertyOp56
 70
     1
102
RTVSPropertyOp57
 70
     1
102
RTVSPost2010Prop28
280
     0
102
RTVSPost2010PropOp28
 70
     1
102
RTVSPost2010Prop29
280
     1
102
RTVSPost2010PropOp29
 70
     1
102
RTVSPost2010Prop30
280
     1
102
RTVSPost2010PropOp30
 70
     1
102
RTVSPost2010Prop31
280
     0
102
RTVSPost2010PropOp31
 70
     1
102
RTVSPost2010Prop32
280
     0
102
RTVSPost2010PropOp32
 70
     1
102
RTVSPost2010Prop33
280
     0
102
RTVSPost2010PropOp33
 70
     1
102
RTVSPost2010Prop34
280
     0
102
RTVSPost2010PropOp34
 70
     1
102
RTVSPost2010Prop35
280
     0
102
RTVSPost2010PropOp35
 70
     1
102
RTVSPost2010Prop36
280
     0
102
RTVSPost2010PropOp36
 70
     1
102
RTVSPost2010Prop37
 90
       50
102
RTVSPost2010PropOp37
 70
     1
102
RTVSPost2010Prop38
140
0.0
102
RTVSPost2010PropOp38
 70
     1
102
RTVSPost2010Prop39
140
1.0
102
RTVSPost2010PropOp39
 70
     1
102
RTVSPost2010Prop40
 90
        0
102
RTVSPost2010PropOp40
 70
     1
102
RTVSPost2010Prop41ColorIndex
 90
       18
102
RTVSPost2010Prop41ColorRGB
 90
        0
102
RTVSPost2010PropOp41
 70
     1
102
RTVSPost2010Prop42
 90
       50
102
RTVSPost2010PropOp42
 70
     1
102
RTVSPost2010Prop43
 90
        3
102
RTVSPost2010PropOp43
 70
     1
102
RTVSPost2010Prop44ColorIndex
 90
        5
102
RTVSPost2010Prop44ColorRGB
 90
      255
102
RTVSPost2010PropOp44
 70
     1
102
RTVSPost2010Prop45
280
     0
102
RTVSPost2010PropOp45
 70
     1
102
RTVSPost2010Prop46
 90
       50
102
RTVSPost2010PropOp46
 70
     1
102
RTVSPost2010Prop47
 90
       50
102
RTVSPost2010PropOp47
 70
     1
102
RTVSPost2010Prop48
 90
       50
102
RTVSPost2010PropOp48
 70
     1
102
RTVSPost2010Prop49
280
     0
102
RTVSPost2010PropOp49
 70
     1
102
RTVSPost2010Prop50
 90
       50
102
RTVSPost2010PropOp50
 70
     1
102
RTVSPost2010Prop51ColorIndex
 90
      256
102
RTVSPost2010Prop51ColorRGB
 90
-16777216
102
RTVSPost2010PropOp51
 70
     0
102
RTVSPost2010Prop52
140
1.0
102
RTVSPost2010PropOp52
 70
     0
102
RTVSPost2010Prop53
 90
        2
102
RTVSPost2010PropOp53
 70
     1
102
RTVSPost2010Prop54
  1
strokes_ogs.tif
102
RTVSPost2010PropOp54
 70
     1
102
RTVSPost2010Prop55
280
     0
102
RTVSPost2010PropOp55
 70
     1
102
RTVSPost2010Prop56
140
1.0
102
RTVSPost2010PropOp56
 70
     1
102
RTVSPost2010Prop57
140
1.0
102
RTVSPost2010PropOp57
 70
     1
  0
XRECORD
  5
467
102
{ACAD_REACTORS
330
466
102
}
330
466
100
AcDbXrecord
280
     1
102
RTVSPropertyOp0
 70
     1
102
RTVSPropertyOp1
 70
     1
102
RTVSPropertyOp2
 70
     1
102
RTVSPropertyOp3
 70
     1
102
RTVSPropertyOp4
 70
     1
102
RTVSPropertyOp5
 70
     1
102
RTVSPropertyOp6
 70
     1
102
RTVSPropertyOp7
 70
     1
102
RTVSPropertyOp8
 70
     1
102
RTVSPropertyOp9
 70
     1
102
RTVSPropertyOp10
 70
     1
102
RTVSPropertyOp11
 70
     1
102
RTVSPropertyOp12
 70
     1
102
RTVSPropertyOp13
 70
     1
102
RTVSPropertyOp14
 70
     1
102
RTVSPropertyOp15
 70
     1
102
RTVSPropertyOp16
 70
     1
102
RTVSPropertyOp17
 70
     1
102
RTVSPropertyOp18
 70
     1
102
RTVSPropertyOp19
 70
     1
102
RTVSPropertyOp20
 70
     1
102
RTVSPropertyOp21
 70
     1
102
RTVSPropertyOp22
 70
     1
102
RTVSPropertyOp23
 70
     1
102
RTVSPropertyOp24
 70
     1
102
RTVSPropertyOp25
 70
     1
102
RTVSPropertyOp26
 70
     1
102
RTVSPropertyOp27
 70
     1
102
RTVSPropertyOp28
 70
     1
102
RTVSPropertyOp29
 70
     1
102
RTVSPropertyOp30
 70
     1
102
RTVSPropertyOp31
 70
     1
102
RTVSPropertyOp32
 70
     1
102
RTVSPropertyOp33
 70
     1
102
RTVSPropertyOp34
 70
     1
102
RTVSPropertyOp35
 70
     1
102
RTVSPropertyOp36
 70
     1
102
RTVSPropertyOp37
 70
     1
102
RTVSPropertyOp38
 70
     1
102
RTVSPropertyOp39
 70
     1
102
RTVSPropertyOp40
 70
     1
102
RTVSPropertyOp41
 70
     1
102
RTVSPropertyOp42
 70
     1
102
RTVSPropertyOp43
 70
     1
102
RTVSPropertyOp44
 70
     1
102
RTVSPropertyOp45
 70
     1
102
RTVSPropertyOp46
 70
     1
102
RTVSPropertyOp47
 70
     1
102
RTVSPropertyOp48
 70
     1
102
RTVSPropertyOp49
 70
     1
102
RTVSPropertyOp50
 70
     1
102
RTVSPropertyOp51
 70
     0
102
RTVSPropertyOp52
 70
     0
102
RTVSPropertyOp53
 70
     1
102
RTVSPropertyOp54
 70
     1
102
RTVSPropertyOp55
 70
     1
102
RTVSPropertyOp56
 70
     1
102
RTVSPropertyOp57
 70
     1
102
RTVSPost2010Prop28
280
     0
102
RTVSPost2010PropOp28
 70
     1
102
RTVSPost2010Prop29
280
     1
102
RTVSPost2010PropOp29
 70
     1
102
RTVSPost2010Prop30
280
     1
102
RTVSPost2010PropOp30
 70
     1
102
RTVSPost2010Prop31
280
     0
102
RTVSPost2010PropOp31
 70
     1
102
RTVSPost2010Prop32
280
     0
102
RTVSPost2010PropOp32
 70
     1
102
RTVSPost2010Prop33
280
     0
102
RTVSPost2010PropOp33
 70
     1
102
RTVSPost2010Prop34
280
     0
102
RTVSPost2010PropOp34
 70
     1
102
RTVSPost2010Prop35
280
     0
102
RTVSPost2010PropOp35
 70
     1
102
RTVSPost2010Prop36
280
     0
102
RTVSPost2010PropOp36
 70
     1
102
RTVSPost2010Prop37
 90
       50
102
RTVSPost2010PropOp37
 70
     1
102
RTVSPost2010Prop38
140
0.0
102
RTVSPost2010PropOp38
 70
     1
102
RTVSPost2010Prop39
140
1.0
102
RTVSPost2010PropOp39
 70
     1
102
RTVSPost2010Prop40
 90
        0
102
RTVSPost2010PropOp40
 70
     1
102
RTVSPost2010Prop41ColorIndex
 90
       18
102
RTVSPost2010Prop41ColorRGB
 90
        0
102
RTVSPost2010PropOp41
 70
     1
102
RTVSPost2010Prop42
 90
       50
102
RTVSPost2010PropOp42
 70
     1
102
RTVSPost2010Prop43
 90
        3
102
RTVSPost2010PropOp43
 70
     1
102
RTVSPost2010Prop44ColorIndex
 90
        5
102
RTVSPost2010Prop44ColorRGB
 90
      255
102
RTVSPost2010PropOp44
 70
     1
102
RTVSPost2010Prop45
280
     0
102
RTVSPost2010PropOp45
 70
     1
102
RTVSPost2010Prop46
 90
       50
102
RTVSPost2010PropOp46
 70
     1
102
RTVSPost2010Prop47
 90
       50
102
RTVSPost2010PropOp47
 70
     1
102
RTVSPost2010Prop48
 90
       50
102
RTVSPost2010PropOp48
 70
     1
102
RTVSPost2010Prop49
280
     0
102
RTVSPost2010PropOp49
 70
     1
102
RTVSPost2010Prop50
 90
       50
102
RTVSPost2010PropOp50
 70
     1
102
RTVSPost2010Prop51ColorIndex
 90
      256
102
RTVSPost2010Prop51ColorRGB
 90
-16777216
102
RTVSPost2010PropOp51
 70
     0
102
RTVSPost2010Prop52
140
1.0
102
RTVSPost2010PropOp52
 70
     0
102
RTVSPost2010Prop53
 90
        2
102
RTVSPost2010PropOp53
 70
     1
102
RTVSPost2010Prop54
  1
strokes_ogs.tif
102
RTVSPost2010PropOp54
 70
     1
102
RTVSPost2010Prop55
280
     0
102
RTVSPost2010PropOp55
 70
     1
102
RTVSPost2010Prop56
140
1.0
102
RTVSPost2010PropOp56
 70
     1
102
RTVSPost2010Prop57
140
1.0
102
RTVSPost2010PropOp57
 70
     1
  0
XRECORD
  5
46D
102
{ACAD_REACTORS
330
46C
102
}
330
46C
100
AcDbXrecord
280
     1
102
RTVSPropertyOp0
 70
     1
102
RTVSPropertyOp1
 70
     1
102
RTVSPropertyOp2
 70
     1
102
RTVSPropertyOp3
 70
     1
102
RTVSPropertyOp4
 70
     1
102
RTVSPropertyOp5
 70
     1
102
RTVSPropertyOp6
 70
     1
102
RTVSPropertyOp7
 70
     1
102
RTVSPropertyOp8
 70
     1
102
RTVSPropertyOp9
 70
     1
102
RTVSPropertyOp10
 70
     1
102
RTVSPropertyOp11
 70
     1
102
RTVSPropertyOp12
 70
     1
102
RTVSPropertyOp13
 70
     1
102
RTVSPropertyOp14
 70
     1
102
RTVSPropertyOp15
 70
     1
102
RTVSPropertyOp16
 70
     1
102
RTVSPropertyOp17
 70
     1
102
RTVSPropertyOp18
 70
     1
102
RTVSPropertyOp19
 70
     1
102
RTVSPropertyOp20
 70
     1
102
RTVSPropertyOp21
 70
     1
102
RTVSPropertyOp22
 70
     1
102
RTVSPropertyOp23
 70
     1
102
RTVSPropertyOp24
 70
     1
102
RTVSPropertyOp25
 70
     1
102
RTVSPropertyOp26
 70
     1
102
RTVSPropertyOp27
 70
     1
102
RTVSPropertyOp28
 70
     1
102
RTVSPropertyOp29
 70
     1
102
RTVSPropertyOp30
 70
     1
102
RTVSPropertyOp31
 70
     1
102
RTVSPropertyOp32
 70
     1
102
RTVSPropertyOp33
 70
     1
102
RTVSPropertyOp34
 70
     1
102
RTVSPropertyOp35
 70
     1
102
RTVSPropertyOp36
 70
     1
102
RTVSPropertyOp37
 70
     1
102
RTVSPropertyOp38
 70
     1
102
RTVSPropertyOp39
 70
     1
102
RTVSPropertyOp40
 70
     1
102
RTVSPropertyOp41
 70
     1
102
RTVSPropertyOp42
 70
     1
102
RTVSPropertyOp43
 70
     1
102
RTVSPropertyOp44
 70
     1
102
RTVSPropertyOp45
 70
     1
102
RTVSPropertyOp46
 70
     1
102
RTVSPropertyOp47
 70
     1
102
RTVSPropertyOp48
 70
     1
102
RTVSPropertyOp49
 70
     1
102
RTVSPropertyOp50
 70
     1
102
RTVSPropertyOp51
 70
     0
102
RTVSPropertyOp52
 70
     0
102
RTVSPropertyOp53
 70
     1
102
RTVSPropertyOp54
 70
     1
102
RTVSPropertyOp55
 70
     1
102
RTVSPropertyOp56
 70
     1
102
RTVSPropertyOp57
 70
     1
102
RTVSPost2010Prop28
280
     0
102
RTVSPost2010PropOp28
 70
     1
102
RTVSPost2010Prop29
280
     1
102
RTVSPost2010PropOp29
 70
     1
102
RTVSPost2010Prop30
280
     1
102
RTVSPost2010PropOp30
 70
     1
102
RTVSPost2010Prop31
280
     0
102
RTVSPost2010PropOp31
 70
     1
102
RTVSPost2010Prop32
280
     0
102
RTVSPost2010PropOp32
 70
     1
102
RTVSPost2010Prop33
280
     0
102
RTVSPost2010PropOp33
 70
     1
102
RTVSPost2010Prop34
280
     0
102
RTVSPost2010PropOp34
 70
     1
102
RTVSPost2010Prop35
280
     0
102
RTVSPost2010PropOp35
 70
     1
102
RTVSPost2010Prop36
280
     0
102
RTVSPost2010PropOp36
 70
     1
102
RTVSPost2010Prop37
 90
       50
102
RTVSPost2010PropOp37
 70
     1
102
RTVSPost2010Prop38
140
0.0
102
RTVSPost2010PropOp38
 70
     1
102
RTVSPost2010Prop39
140
1.0
102
RTVSPost2010PropOp39
 70
     1
102
RTVSPost2010Prop40
 90
        0
102
RTVSPost2010PropOp40
 70
     1
102
RTVSPost2010Prop41ColorIndex
 90
       18
102
RTVSPost2010Prop41ColorRGB
 90
        0
102
RTVSPost2010PropOp41
 70
     1
102
RTVSPost2010Prop42
 90
       50
102
RTVSPost2010PropOp42
 70
     1
102
RTVSPost2010Prop43
 90
        3
102
RTVSPost2010PropOp43
 70
     1
102
RTVSPost2010Prop44ColorIndex
 90
        5
102
RTVSPost2010Prop44ColorRGB
 90
      255
102
RTVSPost2010PropOp44
 70
     1
102
RTVSPost2010Prop45
280
     0
102
RTVSPost2010PropOp45
 70
     1
102
RTVSPost2010Prop46
 90
       50
102
RTVSPost2010PropOp46
 70
     1
102
RTVSPost2010Prop47
 90
       50
102
RTVSPost2010PropOp47
 70
     1
102
RTVSPost2010Prop48
 90
       50
102
RTVSPost2010PropOp48
 70
     1
102
RTVSPost2010Prop49
280
     0
102
RTVSPost2010PropOp49
 70
     1
102
RTVSPost2010Prop50
 90
       50
102
RTVSPost2010PropOp50
 70
     1
102
RTVSPost2010Prop51ColorIndex
 90
      256
102
RTVSPost2010Prop51ColorRGB
 90
-16777216
102
RTVSPost2010PropOp51
 70
     0
102
RTVSPost2010Prop52
140
1.0
102
RTVSPost2010PropOp52
 70
     0
102
RTVSPost2010Prop53
 90
        2
102
RTVSPost2010PropOp53
 70
     1
102
RTVSPost2010Prop54
  1
strokes_ogs.tif
102
RTVSPost2010PropOp54
 70
     1
102
RTVSPost2010Prop55
280
     0
102
RTVSPost2010PropOp55
 70
     1
102
RTVSPost2010Prop56
140
1.0
102
RTVSPost2010PropOp56
 70
     1
102
RTVSPost2010Prop57
140
1.0
102
RTVSPost2010PropOp57
 70
     1
  0
XRECORD
  5
481
102
{ACAD_REACTORS
330
480
102
}
330
480
100
AcDbXrecord
280
     1
102
RTVSPropertyOp0
 70
     0
102
RTVSPropertyOp1
 70
     0
102
RTVSPropertyOp2
 70
     0
102
RTVSPropertyOp3
 70
     0
102
RTVSPropertyOp4
 70
     0
102
RTVSPropertyOp5
 70
     0
102
RTVSPropertyOp6
 70
     0
102
RTVSPropertyOp7
 70
     0
102
RTVSPropertyOp8
 70
     0
102
RTVSPropertyOp9
 70
     0
102
RTVSPropertyOp10
 70
     0
102
RTVSPropertyOp11
 70
     0
102
RTVSPropertyOp12
 70
     0
102
RTVSPropertyOp13
 70
     0
102
RTVSPropertyOp14
 70
     2
102
RTVSPropertyOp15
 70
     0
102
RTVSPropertyOp16
 70
     0
102
RTVSPropertyOp17
 70
     0
102
RTVSPropertyOp18
 70
     0
102
RTVSPropertyOp19
 70
     0
102
RTVSPropertyOp20
 70
     0
102
RTVSPropertyOp21
 70
     0
102
RTVSPropertyOp22
 70
     0
102
RTVSPropertyOp23
 70
     0
102
RTVSPropertyOp24
 70
     0
102
RTVSPropertyOp25
 70
     0
102
RTVSPropertyOp26
 70
     0
102
RTVSPropertyOp27
 70
     0
102
RTVSPropertyOp28
 70
     0
102
RTVSPropertyOp29
 70
     0
102
RTVSPropertyOp30
 70
     0
102
RTVSPropertyOp31
 70
     0
102
RTVSPropertyOp32
 70
     0
102
RTVSPropertyOp33
 70
     0
102
RTVSPropertyOp34
 70
     0
102
RTVSPropertyOp35
 70
     0
102
RTVSPropertyOp36
 70
     0
102
RTVSPropertyOp37
 70
     0
102
RTVSPropertyOp38
 70
     0
102
RTVSPropertyOp39
 70
     0
102
RTVSPropertyOp40
 70
     0
102
RTVSPropertyOp41
 70
     0
102
RTVSPropertyOp42
 70
     0
102
RTVSPropertyOp43
 70
     0
102
RTVSPropertyOp44
 70
     0
102
RTVSPropertyOp45
 70
     0
102
RTVSPropertyOp46
 70
     0
102
RTVSPropertyOp47
 70
     0
102
RTVSPropertyOp48
 70
     0
102
RTVSPropertyOp49
 70
     0
102
RTVSPropertyOp50
 70
     0
102
RTVSPropertyOp51
 70
     0
102
RTVSPropertyOp52
 70
     0
102
RTVSPropertyOp53
 70
     0
102
RTVSPropertyOp54
 70
     0
102
RTVSPropertyOp55
 70
     0
102
RTVSPropertyOp56
 70
     0
102
RTVSPropertyOp57
 70
     0
102
RTVSPost2010Prop28
280
     0
102
RTVSPost2010PropOp28
 70
     0
102
RTVSPost2010Prop29
280
     1
102
RTVSPost2010PropOp29
 70
     0
102
RTVSPost2010Prop30
280
     1
102
RTVSPost2010PropOp30
 70
     0
102
RTVSPost2010Prop31
280
     0
102
RTVSPost2010PropOp31
 70
     0
102
RTVSPost2010Prop32
280
     0
102
RTVSPost2010PropOp32
 70
     0
102
RTVSPost2010Prop33
280
     0
102
RTVSPost2010PropOp33
 70
     0
102
RTVSPost2010Prop34
280
     0
102
RTVSPost2010PropOp34
 70
     0
102
RTVSPost2010Prop35
280
     0
102
RTVSPost2010PropOp35
 70
     0
102
RTVSPost2010Prop36
280
     0
102
RTVSPost2010PropOp36
 70
     0
102
RTVSPost2010Prop37
 90
       50
102
RTVSPost2010PropOp37
 70
     0
102
RTVSPost2010Prop38
140
0.0
102
RTVSPost2010PropOp38
 70
     0
102
RTVSPost2010Prop39
140
1.0
102
RTVSPost2010PropOp39
 70
     0
102
RTVSPost2010Prop40
 90
        0
102
RTVSPost2010PropOp40
 70
     0
102
RTVSPost2010Prop41ColorIndex
 90
       18
102
RTVSPost2010Prop41ColorRGB
 90
        0
102
RTVSPost2010PropOp41
 70
     0
102
RTVSPost2010Prop42
 90
       50
102
RTVSPost2010PropOp42
 70
     0
102
RTVSPost2010Prop43
 90
        3
102
RTVSPost2010PropOp43
 70
     0
102
RTVSPost2010Prop44ColorIndex
 90
        5
102
RTVSPost2010Prop44ColorRGB
 90
      255
102
RTVSPost2010PropOp44
 70
     0
102
RTVSPost2010Prop45
280
     0
102
RTVSPost2010PropOp45
 70
     0
102
RTVSPost2010Prop46
 90
       50
102
RTVSPost2010PropOp46
 70
     0
102
RTVSPost2010Prop47
 90
       50
102
RTVSPost2010PropOp47
 70
     0
102
RTVSPost2010Prop48
 90
       50
102
RTVSPost2010PropOp48
 70
     0
102
RTVSPost2010Prop49
280
     0
102
RTVSPost2010PropOp49
 70
     0
102
RTVSPost2010Prop50
 90
       50
102
RTVSPost2010PropOp50
 70
     0
102
RTVSPost2010Prop51ColorIndex
 90
      256
102
RTVSPost2010Prop51ColorRGB
 90
-16777216
102
RTVSPost2010PropOp51
 70
     0
102
RTVSPost2010Prop52
140
1.0
102
RTVSPost2010PropOp52
 70
     0
102
RTVSPost2010Prop53
 90
        2
102
RTVSPost2010PropOp53
 70
     0
102
RTVSPost2010Prop54
  1
strokes_ogs.tif
102
RTVSPost2010PropOp54
 70
     0
102
RTVSPost2010Prop55
280
     0
102
RTVSPost2010PropOp55
 70
     0
102
RTVSPost2010Prop56
140
1.0
102
RTVSPost2010PropOp56
 70
     0
102
RTVSPost2010Prop57
140
1.0
102
RTVSPost2010PropOp57
 70
     0
  0
XRECORD
  5
47B
102
{ACAD_REACTORS
330
47A
102
}
330
47A
100
AcDbXrecord
280
     1
102
RTVSPropertyOp0
 70
     1
102
RTVSPropertyOp1
 70
     1
102
RTVSPropertyOp2
 70
     1
102
RTVSPropertyOp3
 70
     1
102
RTVSPropertyOp4
 70
     1
102
RTVSPropertyOp5
 70
     1
102
RTVSPropertyOp6
 70
     1
102
RTVSPropertyOp7
 70
     1
102
RTVSPropertyOp8
 70
     1
102
RTVSPropertyOp9
 70
     1
102
RTVSPropertyOp10
 70
     1
102
RTVSPropertyOp11
 70
     1
102
RTVSPropertyOp12
 70
     1
102
RTVSPropertyOp13
 70
     1
102
RTVSPropertyOp14
 70
     1
102
RTVSPropertyOp15
 70
     1
102
RTVSPropertyOp16
 70
     1
102
RTVSPropertyOp17
 70
     1
102
RTVSPropertyOp18
 70
     1
102
RTVSPropertyOp19
 70
     1
102
RTVSPropertyOp20
 70
     1
102
RTVSPropertyOp21
 70
     1
102
RTVSPropertyOp22
 70
     1
102
RTVSPropertyOp23
 70
     1
102
RTVSPropertyOp24
 70
     1
102
RTVSPropertyOp25
 70
     1
102
RTVSPropertyOp26
 70
     1
102
RTVSPropertyOp27
 70
     1
102
RTVSPropertyOp28
 70
     1
102
RTVSPropertyOp29
 70
     1
102
RTVSPropertyOp30
 70
     1
102
RTVSPropertyOp31
 70
     1
102
RTVSPropertyOp32
 70
     1
102
RTVSPropertyOp33
 70
     1
102
RTVSPropertyOp34
 70
     1
102
RTVSPropertyOp35
 70
     1
102
RTVSPropertyOp36
 70
     1
102
RTVSPropertyOp37
 70
     1
102
RTVSPropertyOp38
 70
     1
102
RTVSPropertyOp39
 70
     1
102
RTVSPropertyOp40
 70
     1
102
RTVSPropertyOp41
 70
     1
102
RTVSPropertyOp42
 70
     1
102
RTVSPropertyOp43
 70
     1
102
RTVSPropertyOp44
 70
     1
102
RTVSPropertyOp45
 70
     1
102
RTVSPropertyOp46
 70
     1
102
RTVSPropertyOp47
 70
     1
102
RTVSPropertyOp48
 70
     1
102
RTVSPropertyOp49
 70
     1
102
RTVSPropertyOp50
 70
     1
102
RTVSPropertyOp51
 70
     0
102
RTVSPropertyOp52
 70
     0
102
RTVSPropertyOp53
 70
     1
102
RTVSPropertyOp54
 70
     1
102
RTVSPropertyOp55
 70
     1
102
RTVSPropertyOp56
 70
     1
102
RTVSPropertyOp57
 70
     1
102
RTVSPost2010Prop28
280
     0
102
RTVSPost2010PropOp28
 70
     1
102
RTVSPost2010Prop29
280
     1
102
RTVSPost2010PropOp29
 70
     1
102
RTVSPost2010Prop30
280
     1
102
RTVSPost2010PropOp30
 70
     1
102
RTVSPost2010Prop31
280
     0
102
RTVSPost2010PropOp31
 70
     1
102
RTVSPost2010Prop32
280
     0
102
RTVSPost2010PropOp32
 70
     1
102
RTVSPost2010Prop33
280
     0
102
RTVSPost2010PropOp33
 70
     1
102
RTVSPost2010Prop34
280
     0
102
RTVSPost2010PropOp34
 70
     1
102
RTVSPost2010Prop35
280
     0
102
RTVSPost2010PropOp35
 70
     1
102
RTVSPost2010Prop36
280
     0
102
RTVSPost2010PropOp36
 70
     1
102
RTVSPost2010Prop37
 90
       50
102
RTVSPost2010PropOp37
 70
     1
102
RTVSPost2010Prop38
140
0.0
102
RTVSPost2010PropOp38
 70
     1
102
RTVSPost2010Prop39
140
1.0
102
RTVSPost2010PropOp39
 70
     1
102
RTVSPost2010Prop40
 90
        0
102
RTVSPost2010PropOp40
 70
     1
102
RTVSPost2010Prop41ColorIndex
 90
       18
102
RTVSPost2010Prop41ColorRGB
 90
        0
102
RTVSPost2010PropOp41
 70
     1
102
RTVSPost2010Prop42
 90
       50
102
RTVSPost2010PropOp42
 70
     1
102
RTVSPost2010Prop43
 90
        3
102
RTVSPost2010PropOp43
 70
     1
102
RTVSPost2010Prop44ColorIndex
 90
        5
102
RTVSPost2010Prop44ColorRGB
 90
      255
102
RTVSPost2010PropOp44
 70
     1
102
RTVSPost2010Prop45
280
     0
102
RTVSPost2010PropOp45
 70
     1
102
RTVSPost2010Prop46
 90
       50
102
RTVSPost2010PropOp46
 70
     1
102
RTVSPost2010Prop47
 90
       50
102
RTVSPost2010PropOp47
 70
     1
102
RTVSPost2010Prop48
 90
       50
102
RTVSPost2010PropOp48
 70
     1
102
RTVSPost2010Prop49
280
     0
102
RTVSPost2010PropOp49
 70
     1
102
RTVSPost2010Prop50
 90
       50
102
RTVSPost2010PropOp50
 70
     1
102
RTVSPost2010Prop51ColorIndex
 90
      256
102
RTVSPost2010Prop51ColorRGB
 90
-16777216
102
RTVSPost2010PropOp51
 70
     0
102
RTVSPost2010Prop52
140
1.0
102
RTVSPost2010PropOp52
 70
     0
102
RTVSPost2010Prop53
 90
        2
102
RTVSPost2010PropOp53
 70
     1
102
RTVSPost2010Prop54
  1
strokes_ogs.tif
102
RTVSPost2010PropOp54
 70
     1
102
RTVSPost2010Prop55
280
     0
102
RTVSPost2010PropOp55
 70
     1
102
RTVSPost2010Prop56
140
1.0
102
RTVSPost2010PropOp56
 70
     1
102
RTVSPost2010Prop57
140
1.0
102
RTVSPost2010PropOp57
 70
     1
  0
XRECORD
  5
483
102
{ACAD_REACTORS
330
482
102
}
330
482
100
AcDbXrecord
280
     1
102
RTVSPropertyOp0
 70
     0
102
RTVSPropertyOp1
 70
     0
102
RTVSPropertyOp2
 70
     0
102
RTVSPropertyOp3
 70
     0
102
RTVSPropertyOp4
 70
     0
102
RTVSPropertyOp5
 70
     0
102
RTVSPropertyOp6
 70
     0
102
RTVSPropertyOp7
 70
     0
102
RTVSPropertyOp8
 70
     0
102
RTVSPropertyOp9
 70
     0
102
RTVSPropertyOp10
 70
     0
102
RTVSPropertyOp11
 70
     0
102
RTVSPropertyOp12
 70
     0
102
RTVSPropertyOp13
 70
     0
102
RTVSPropertyOp14
 70
     2
102
RTVSPropertyOp15
 70
     0
102
RTVSPropertyOp16
 70
     0
102
RTVSPropertyOp17
 70
     0
102
RTVSPropertyOp18
 70
     0
102
RTVSPropertyOp19
 70
     0
102
RTVSPropertyOp20
 70
     0
102
RTVSPropertyOp21
 70
     0
102
RTVSPropertyOp22
 70
     0
102
RTVSPropertyOp23
 70
     0
102
RTVSPropertyOp24
 70
     0
102
RTVSPropertyOp25
 70
     0
102
RTVSPropertyOp26
 70
     0
102
RTVSPropertyOp27
 70
     0
102
RTVSPropertyOp28
 70
     0
102
RTVSPropertyOp29
 70
     0
102
RTVSPropertyOp30
 70
     0
102
RTVSPropertyOp31
 70
     0
102
RTVSPropertyOp32
 70
     0
102
RTVSPropertyOp33
 70
     0
102
RTVSPropertyOp34
 70
     0
102
RTVSPropertyOp35
 70
     0
102
RTVSPropertyOp36
 70
     0
102
RTVSPropertyOp37
 70
     0
102
RTVSPropertyOp38
 70
     0
102
RTVSPropertyOp39
 70
     0
102
RTVSPropertyOp40
 70
     0
102
RTVSPropertyOp41
 70
     0
102
RTVSPropertyOp42
 70
     0
102
RTVSPropertyOp43
 70
     0
102
RTVSPropertyOp44
 70
     0
102
RTVSPropertyOp45
 70
     0
102
RTVSPropertyOp46
 70
     0
102
RTVSPropertyOp47
 70
     0
102
RTVSPropertyOp48
 70
     0
102
RTVSPropertyOp49
 70
     0
102
RTVSPropertyOp50
 70
     0
102
RTVSPropertyOp51
 70
     0
102
RTVSPropertyOp52
 70
     0
102
RTVSPropertyOp53
 70
     0
102
RTVSPropertyOp54
 70
     0
102
RTVSPropertyOp55
 70
     0
102
RTVSPropertyOp56
 70
     0
102
RTVSPropertyOp57
 70
     0
102
RTVSPost2010Prop28
280
     0
102
RTVSPost2010PropOp28
 70
     0
102
RTVSPost2010Prop29
280
     1
102
RTVSPost2010PropOp29
 70
     0
102
RTVSPost2010Prop30
280
     1
102
RTVSPost2010PropOp30
 70
     0
102
RTVSPost2010Prop31
280
     0
102
RTVSPost2010PropOp31
 70
     0
102
RTVSPost2010Prop32
280
     0
102
RTVSPost2010PropOp32
 70
     0
102
RTVSPost2010Prop33
280
     0
102
RTVSPost2010PropOp33
 70
     0
102
RTVSPost2010Prop34
280
     0
102
RTVSPost2010PropOp34
 70
     0
102
RTVSPost2010Prop35
280
     0
102
RTVSPost2010PropOp35
 70
     0
102
RTVSPost2010Prop36
280
     0
102
RTVSPost2010PropOp36
 70
     0
102
RTVSPost2010Prop37
 90
       50
102
RTVSPost2010PropOp37
 70
     0
102
RTVSPost2010Prop38
140
0.0
102
RTVSPost2010PropOp38
 70
     0
102
RTVSPost2010Prop39
140
1.0
102
RTVSPost2010PropOp39
 70
     0
102
RTVSPost2010Prop40
 90
        0
102
RTVSPost2010PropOp40
 70
     0
102
RTVSPost2010Prop41ColorIndex
 90
       18
102
RTVSPost2010Prop41ColorRGB
 90
        0
102
RTVSPost2010PropOp41
 70
     0
102
RTVSPost2010Prop42
 90
       50
102
RTVSPost2010PropOp42
 70
     0
102
RTVSPost2010Prop43
 90
        3
102
RTVSPost2010PropOp43
 70
     0
102
RTVSPost2010Prop44ColorIndex
 90
        5
102
RTVSPost2010Prop44ColorRGB
 90
      255
102
RTVSPost2010PropOp44
 70
     0
102
RTVSPost2010Prop45
280
     0
102
RTVSPost2010PropOp45
 70
     0
102
RTVSPost2010Prop46
 90
       50
102
RTVSPost2010PropOp46
 70
     0
102
RTVSPost2010Prop47
 90
       50
102
RTVSPost2010PropOp47
 70
     0
102
RTVSPost2010Prop48
 90
       50
102
RTVSPost2010PropOp48
 70
     0
102
RTVSPost2010Prop49
280
     0
102
RTVSPost2010PropOp49
 70
     0
102
RTVSPost2010Prop50
 90
       50
102
RTVSPost2010PropOp50
 70
     0
102
RTVSPost2010Prop51ColorIndex
 90
      256
102
RTVSPost2010Prop51ColorRGB
 90
-16777216
102
RTVSPost2010PropOp51
 70
     0
102
RTVSPost2010Prop52
140
1.0
102
RTVSPost2010PropOp52
 70
     0
102
RTVSPost2010Prop53
 90
        2
102
RTVSPost2010PropOp53
 70
     0
102
RTVSPost2010Prop54
  1
strokes_ogs.tif
102
RTVSPost2010PropOp54
 70
     0
102
RTVSPost2010Prop55
280
     0
102
RTVSPost2010PropOp55
 70
     0
102
RTVSPost2010Prop56
140
1.0
102
RTVSPost2010PropOp56
 70
     0
102
RTVSPost2010Prop57
140
1.0
102
RTVSPost2010PropOp57
 70
     0
  0
XRECORD
  5
471
102
{ACAD_REACTORS
330
470
102
}
330
470
100
AcDbXrecord
280
     1
102
RTVSPropertyOp0
 70
     1
102
RTVSPropertyOp1
 70
     1
102
RTVSPropertyOp2
 70
     1
102
RTVSPropertyOp3
 70
     1
102
RTVSPropertyOp4
 70
     1
102
RTVSPropertyOp5
 70
     1
102
RTVSPropertyOp6
 70
     1
102
RTVSPropertyOp7
 70
     1
102
RTVSPropertyOp8
 70
     1
102
RTVSPropertyOp9
 70
     1
102
RTVSPropertyOp10
 70
     1
102
RTVSPropertyOp11
 70
     1
102
RTVSPropertyOp12
 70
     1
102
RTVSPropertyOp13
 70
     1
102
RTVSPropertyOp14
 70
     1
102
RTVSPropertyOp15
 70
     1
102
RTVSPropertyOp16
 70
     1
102
RTVSPropertyOp17
 70
     1
102
RTVSPropertyOp18
 70
     1
102
RTVSPropertyOp19
 70
     1
102
RTVSPropertyOp20
 70
     1
102
RTVSPropertyOp21
 70
     1
102
RTVSPropertyOp22
 70
     1
102
RTVSPropertyOp23
 70
     1
102
RTVSPropertyOp24
 70
     1
102
RTVSPropertyOp25
 70
     1
102
RTVSPropertyOp26
 70
     1
102
RTVSPropertyOp27
 70
     1
102
RTVSPropertyOp28
 70
     1
102
RTVSPropertyOp29
 70
     1
102
RTVSPropertyOp30
 70
     1
102
RTVSPropertyOp31
 70
     1
102
RTVSPropertyOp32
 70
     1
102
RTVSPropertyOp33
 70
     1
102
RTVSPropertyOp34
 70
     1
102
RTVSPropertyOp35
 70
     1
102
RTVSPropertyOp36
 70
     1
102
RTVSPropertyOp37
 70
     1
102
RTVSPropertyOp38
 70
     1
102
RTVSPropertyOp39
 70
     1
102
RTVSPropertyOp40
 70
     1
102
RTVSPropertyOp41
 70
     1
102
RTVSPropertyOp42
 70
     1
102
RTVSPropertyOp43
 70
     1
102
RTVSPropertyOp44
 70
     1
102
RTVSPropertyOp45
 70
     1
102
RTVSPropertyOp46
 70
     1
102
RTVSPropertyOp47
 70
     1
102
RTVSPropertyOp48
 70
     1
102
RTVSPropertyOp49
 70
     1
102
RTVSPropertyOp50
 70
     1
102
RTVSPropertyOp51
 70
     0
102
RTVSPropertyOp52
 70
     0
102
RTVSPropertyOp53
 70
     1
102
RTVSPropertyOp54
 70
     1
102
RTVSPropertyOp55
 70
     1
102
RTVSPropertyOp56
 70
     1
102
RTVSPropertyOp57
 70
     1
102
RTVSPost2010Prop28
280
     0
102
RTVSPost2010PropOp28
 70
     1
102
RTVSPost2010Prop29
280
     1
102
RTVSPost2010PropOp29
 70
     1
102
RTVSPost2010Prop30
280
     1
102
RTVSPost2010PropOp30
 70
     1
102
RTVSPost2010Prop31
280
     0
102
RTVSPost2010PropOp31
 70
     1
102
RTVSPost2010Prop32
280
     0
102
RTVSPost2010PropOp32
 70
     1
102
RTVSPost2010Prop33
280
     0
102
RTVSPost2010PropOp33
 70
     1
102
RTVSPost2010Prop34
280
     0
102
RTVSPost2010PropOp34
 70
     1
102
RTVSPost2010Prop35
280
     0
102
RTVSPost2010PropOp35
 70
     1
102
RTVSPost2010Prop36
280
     0
102
RTVSPost2010PropOp36
 70
     1
102
RTVSPost2010Prop37
 90
       50
102
RTVSPost2010PropOp37
 70
     1
102
RTVSPost2010Prop38
140
0.0
102
RTVSPost2010PropOp38
 70
     1
102
RTVSPost2010Prop39
140
1.0
102
RTVSPost2010PropOp39
 70
     1
102
RTVSPost2010Prop40
 90
        0
102
RTVSPost2010PropOp40
 70
     1
102
RTVSPost2010Prop41ColorIndex
 90
       18
102
RTVSPost2010Prop41ColorRGB
 90
        0
102
RTVSPost2010PropOp41
 70
     1
102
RTVSPost2010Prop42
 90
       50
102
RTVSPost2010PropOp42
 70
     1
102
RTVSPost2010Prop43
 90
        3
102
RTVSPost2010PropOp43
 70
     1
102
RTVSPost2010Prop44ColorIndex
 90
        5
102
RTVSPost2010Prop44ColorRGB
 90
      255
102
RTVSPost2010PropOp44
 70
     1
102
RTVSPost2010Prop45
280
     0
102
RTVSPost2010PropOp45
 70
     1
102
RTVSPost2010Prop46
 90
       50
102
RTVSPost2010PropOp46
 70
     1
102
RTVSPost2010Prop47
 90
       50
102
RTVSPost2010PropOp47
 70
     1
102
RTVSPost2010Prop48
 90
       50
102
RTVSPost2010PropOp48
 70
     1
102
RTVSPost2010Prop49
280
     0
102
RTVSPost2010PropOp49
 70
     1
102
RTVSPost2010Prop50
 90
       50
102
RTVSPost2010PropOp50
 70
     1
102
RTVSPost2010Prop51ColorIndex
 90
      256
102
RTVSPost2010Prop51ColorRGB
 90
-16777216
102
RTVSPost2010PropOp51
 70
     0
102
RTVSPost2010Prop52
140
1.0
102
RTVSPost2010PropOp52
 70
     0
102
RTVSPost2010Prop53
 90
        2
102
RTVSPost2010PropOp53
 70
     1
102
RTVSPost2010Prop54
  1
strokes_ogs.tif
102
RTVSPost2010PropOp54
 70
     1
102
RTVSPost2010Prop55
280
     0
102
RTVSPost2010PropOp55
 70
     1
102
RTVSPost2010Prop56
140
1.0
102
RTVSPost2010PropOp56
 70
     1
102
RTVSPost2010Prop57
140
1.0
102
RTVSPost2010PropOp57
 70
     1
  0
XRECORD
  5
48F
102
{ACAD_REACTORS
330
48E
102
}
330
48E
100
AcDbXrecord
280
     1
102
RTVSPropertyOp0
 70
     1
102
RTVSPropertyOp1
 70
     1
102
RTVSPropertyOp2
 70
     1
102
RTVSPropertyOp3
 70
     1
102
RTVSPropertyOp4
 70
     1
102
RTVSPropertyOp5
 70
     1
102
RTVSPropertyOp6
 70
     1
102
RTVSPropertyOp7
 70
     1
102
RTVSPropertyOp8
 70
     1
102
RTVSPropertyOp9
 70
     1
102
RTVSPropertyOp10
 70
     1
102
RTVSPropertyOp11
 70
     1
102
RTVSPropertyOp12
 70
     1
102
RTVSPropertyOp13
 70
     1
102
RTVSPropertyOp14
 70
     1
102
RTVSPropertyOp15
 70
     1
102
RTVSPropertyOp16
 70
     1
102
RTVSPropertyOp17
 70
     1
102
RTVSPropertyOp18
 70
     1
102
RTVSPropertyOp19
 70
     1
102
RTVSPropertyOp20
 70
     1
102
RTVSPropertyOp21
 70
     1
102
RTVSPropertyOp22
 70
     1
102
RTVSPropertyOp23
 70
     1
102
RTVSPropertyOp24
 70
     1
102
RTVSPropertyOp25
 70
     1
102
RTVSPropertyOp26
 70
     1
102
RTVSPropertyOp27
 70
     1
102
RTVSPropertyOp28
 70
     1
102
RTVSPropertyOp29
 70
     1
102
RTVSPropertyOp30
 70
     1
102
RTVSPropertyOp31
 70
     1
102
RTVSPropertyOp32
 70
     1
102
RTVSPropertyOp33
 70
     1
102
RTVSPropertyOp34
 70
     1
102
RTVSPropertyOp35
 70
     1
102
RTVSPropertyOp36
 70
     1
102
RTVSPropertyOp37
 70
     1
102
RTVSPropertyOp38
 70
     1
102
RTVSPropertyOp39
 70
     1
102
RTVSPropertyOp40
 70
     1
102
RTVSPropertyOp41
 70
     1
102
RTVSPropertyOp42
 70
     1
102
RTVSPropertyOp43
 70
     1
102
RTVSPropertyOp44
 70
     1
102
RTVSPropertyOp45
 70
     1
102
RTVSPropertyOp46
 70
     1
102
RTVSPropertyOp47
 70
     1
102
RTVSPropertyOp48
 70
     1
102
RTVSPropertyOp49
 70
     1
102
RTVSPropertyOp50
 70
     1
102
RTVSPropertyOp51
 70
     0
102
RTVSPropertyOp52
 70
     0
102
RTVSPropertyOp53
 70
     1
102
RTVSPropertyOp54
 70
     1
102
RTVSPropertyOp55
 70
     1
102
RTVSPropertyOp56
 70
     1
102
RTVSPropertyOp57
 70
     1
102
RTVSPost2010Prop28
280
     0
102
RTVSPost2010PropOp28
 70
     1
102
RTVSPost2010Prop29
280
     1
102
RTVSPost2010PropOp29
 70
     1
102
RTVSPost2010Prop30
280
     1
102
RTVSPost2010PropOp30
 70
     1
102
RTVSPost2010Prop31
280
     0
102
RTVSPost2010PropOp31
 70
     1
102
RTVSPost2010Prop32
280
     0
102
RTVSPost2010PropOp32
 70
     1
102
RTVSPost2010Prop33
280
     0
102
RTVSPost2010PropOp33
 70
     1
102
RTVSPost2010Prop34
280
     0
102
RTVSPost2010PropOp34
 70
     1
102
RTVSPost2010Prop35
280
     0
102
RTVSPost2010PropOp35
 70
     1
102
RTVSPost2010Prop36
280
     0
102
RTVSPost2010PropOp36
 70
     1
102
RTVSPost2010Prop37
 90
       50
102
RTVSPost2010PropOp37
 70
     1
102
RTVSPost2010Prop38
140
0.0
102
RTVSPost2010PropOp38
 70
     1
102
RTVSPost2010Prop39
140
1.0
102
RTVSPost2010PropOp39
 70
     1
102
RTVSPost2010Prop40
 90
        0
102
RTVSPost2010PropOp40
 70
     1
102
RTVSPost2010Prop41ColorIndex
 90
       18
102
RTVSPost2010Prop41ColorRGB
 90
        0
102
RTVSPost2010PropOp41
 70
     1
102
RTVSPost2010Prop42
 90
       50
102
RTVSPost2010PropOp42
 70
     1
102
RTVSPost2010Prop43
 90
        3
102
RTVSPost2010PropOp43
 70
     1
102
RTVSPost2010Prop44ColorIndex
 90
        5
102
RTVSPost2010Prop44ColorRGB
 90
      255
102
RTVSPost2010PropOp44
 70
     1
102
RTVSPost2010Prop45
280
     0
102
RTVSPost2010PropOp45
 70
     1
102
RTVSPost2010Prop46
 90
       50
102
RTVSPost2010PropOp46
 70
     1
102
RTVSPost2010Prop47
 90
       50
102
RTVSPost2010PropOp47
 70
     1
102
RTVSPost2010Prop48
 90
       50
102
RTVSPost2010PropOp48
 70
     1
102
RTVSPost2010Prop49
280
     0
102
RTVSPost2010PropOp49
 70
     1
102
RTVSPost2010Prop50
 90
       50
102
RTVSPost2010PropOp50
 70
     1
102
RTVSPost2010Prop51ColorIndex
 90
      256
102
RTVSPost2010Prop51ColorRGB
 90
-16777216
102
RTVSPost2010PropOp51
 70
     0
102
RTVSPost2010Prop52
140
1.0
102
RTVSPost2010PropOp52
 70
     0
102
RTVSPost2010Prop53
 90
        2
102
RTVSPost2010PropOp53
 70
     1
102
RTVSPost2010Prop54
  1
strokes_ogs.tif
102
RTVSPost2010PropOp54
 70
     1
102
RTVSPost2010Prop55
280
     0
102
RTVSPost2010PropOp55
 70
     1
102
RTVSPost2010Prop56
140
1.0
102
RTVSPost2010PropOp56
 70
     1
102
RTVSPost2010Prop57
140
1.0
102
RTVSPost2010PropOp57
 70
     1
  0
XRECORD
  5
48D
102
{ACAD_REACTORS
330
48C
102
}
330
48C
100
AcDbXrecord
280
     1
102
RTVSPropertyOp0
 70
     1
102
RTVSPropertyOp1
 70
     1
102
RTVSPropertyOp2
 70
     1
102
RTVSPropertyOp3
 70
     1
102
RTVSPropertyOp4
 70
     1
102
RTVSPropertyOp5
 70
     1
102
RTVSPropertyOp6
 70
     1
102
RTVSPropertyOp7
 70
     1
102
RTVSPropertyOp8
 70
     1
102
RTVSPropertyOp9
 70
     1
102
RTVSPropertyOp10
 70
     1
102
RTVSPropertyOp11
 70
     1
102
RTVSPropertyOp12
 70
     1
102
RTVSPropertyOp13
 70
     1
102
RTVSPropertyOp14
 70
     1
102
RTVSPropertyOp15
 70
     1
102
RTVSPropertyOp16
 70
     1
102
RTVSPropertyOp17
 70
     1
102
RTVSPropertyOp18
 70
     1
102
RTVSPropertyOp19
 70
     1
102
RTVSPropertyOp20
 70
     1
102
RTVSPropertyOp21
 70
     1
102
RTVSPropertyOp22
 70
     1
102
RTVSPropertyOp23
 70
     1
102
RTVSPropertyOp24
 70
     1
102
RTVSPropertyOp25
 70
     1
102
RTVSPropertyOp26
 70
     1
102
RTVSPropertyOp27
 70
     1
102
RTVSPropertyOp28
 70
     1
102
RTVSPropertyOp29
 70
     1
102
RTVSPropertyOp30
 70
     1
102
RTVSPropertyOp31
 70
     1
102
RTVSPropertyOp32
 70
     1
102
RTVSPropertyOp33
 70
     1
102
RTVSPropertyOp34
 70
     1
102
RTVSPropertyOp35
 70
     1
102
RTVSPropertyOp36
 70
     1
102
RTVSPropertyOp37
 70
     1
102
RTVSPropertyOp38
 70
     1
102
RTVSPropertyOp39
 70
     1
102
RTVSPropertyOp40
 70
     1
102
RTVSPropertyOp41
 70
     1
102
RTVSPropertyOp42
 70
     1
102
RTVSPropertyOp43
 70
     1
102
RTVSPropertyOp44
 70
     1
102
RTVSPropertyOp45
 70
     1
102
RTVSPropertyOp46
 70
     1
102
RTVSPropertyOp47
 70
     1
102
RTVSPropertyOp48
 70
     1
102
RTVSPropertyOp49
 70
     1
102
RTVSPropertyOp50
 70
     1
102
RTVSPropertyOp51
 70
     0
102
RTVSPropertyOp52
 70
     0
102
RTVSPropertyOp53
 70
     1
102
RTVSPropertyOp54
 70
     1
102
RTVSPropertyOp55
 70
     1
102
RTVSPropertyOp56
 70
     1
102
RTVSPropertyOp57
 70
     1
102
RTVSPost2010Prop28
280
     0
102
RTVSPost2010PropOp28
 70
     1
102
RTVSPost2010Prop29
280
     1
102
RTVSPost2010PropOp29
 70
     1
102
RTVSPost2010Prop30
280
     1
102
RTVSPost2010PropOp30
 70
     1
102
RTVSPost2010Prop31
280
     0
102
RTVSPost2010PropOp31
 70
     1
102
RTVSPost2010Prop32
280
     0
102
RTVSPost2010PropOp32
 70
     1
102
RTVSPost2010Prop33
280
     0
102
RTVSPost2010PropOp33
 70
     1
102
RTVSPost2010Prop34
280
     0
102
RTVSPost2010PropOp34
 70
     1
102
RTVSPost2010Prop35
280
     0
102
RTVSPost2010PropOp35
 70
     1
102
RTVSPost2010Prop36
280
     0
102
RTVSPost2010PropOp36
 70
     1
102
RTVSPost2010Prop37
 90
       50
102
RTVSPost2010PropOp37
 70
     1
102
RTVSPost2010Prop38
140
0.0
102
RTVSPost2010PropOp38
 70
     1
102
RTVSPost2010Prop39
140
1.0
102
RTVSPost2010PropOp39
 70
     1
102
RTVSPost2010Prop40
 90
        0
102
RTVSPost2010PropOp40
 70
     1
102
RTVSPost2010Prop41ColorIndex
 90
       18
102
RTVSPost2010Prop41ColorRGB
 90
        0
102
RTVSPost2010PropOp41
 70
     1
102
RTVSPost2010Prop42
 90
       50
102
RTVSPost2010PropOp42
 70
     1
102
RTVSPost2010Prop43
 90
        3
102
RTVSPost2010PropOp43
 70
     1
102
RTVSPost2010Prop44ColorIndex
 90
        5
102
RTVSPost2010Prop44ColorRGB
 90
      255
102
RTVSPost2010PropOp44
 70
     1
102
RTVSPost2010Prop45
280
     0
102
RTVSPost2010PropOp45
 70
     1
102
RTVSPost2010Prop46
 90
       50
102
RTVSPost2010PropOp46
 70
     1
102
RTVSPost2010Prop47
 90
       50
102
RTVSPost2010PropOp47
 70
     1
102
RTVSPost2010Prop48
 90
       50
102
RTVSPost2010PropOp48
 70
     1
102
RTVSPost2010Prop49
280
     0
102
RTVSPost2010PropOp49
 70
     1
102
RTVSPost2010Prop50
 90
       50
102
RTVSPost2010PropOp50
 70
     1
102
RTVSPost2010Prop51ColorIndex
 90
      256
102
RTVSPost2010Prop51ColorRGB
 90
-16777216
102
RTVSPost2010PropOp51
 70
     0
102
RTVSPost2010Prop52
140
1.0
102
RTVSPost2010PropOp52
 70
     0
102
RTVSPost2010Prop53
 90
        2
102
RTVSPost2010PropOp53
 70
     1
102
RTVSPost2010Prop54
  1
strokes_ogs.tif
102
RTVSPost2010PropOp54
 70
     1
102
RTVSPost2010Prop55
280
     0
102
RTVSPost2010PropOp55
 70
     1
102
RTVSPost2010Prop56
140
1.0
102
RTVSPost2010PropOp56
 70
     1
102
RTVSPost2010Prop57
140
1.0
102
RTVSPost2010PropOp57
 70
     1
  0
XRECORD
  5
487
102
{ACAD_REACTORS
330
486
102
}
330
486
100
AcDbXrecord
280
     1
102
RTVSPropertyOp0
 70
     1
102
RTVSPropertyOp1
 70
     1
102
RTVSPropertyOp2
 70
     1
102
RTVSPropertyOp3
 70
     1
102
RTVSPropertyOp4
 70
     1
102
RTVSPropertyOp5
 70
     1
102
RTVSPropertyOp6
 70
     1
102
RTVSPropertyOp7
 70
     1
102
RTVSPropertyOp8
 70
     1
102
RTVSPropertyOp9
 70
     1
102
RTVSPropertyOp10
 70
     1
102
RTVSPropertyOp11
 70
     1
102
RTVSPropertyOp12
 70
     1
102
RTVSPropertyOp13
 70
     1
102
RTVSPropertyOp14
 70
     1
102
RTVSPropertyOp15
 70
     1
102
RTVSPropertyOp16
 70
     1
102
RTVSPropertyOp17
 70
     1
102
RTVSPropertyOp18
 70
     1
102
RTVSPropertyOp19
 70
     1
102
RTVSPropertyOp20
 70
     1
102
RTVSPropertyOp21
 70
     1
102
RTVSPropertyOp22
 70
     1
102
RTVSPropertyOp23
 70
     1
102
RTVSPropertyOp24
 70
     1
102
RTVSPropertyOp25
 70
     1
102
RTVSPropertyOp26
 70
     1
102
RTVSPropertyOp27
 70
     1
102
RTVSPropertyOp28
 70
     1
102
RTVSPropertyOp29
 70
     1
102
RTVSPropertyOp30
 70
     1
102
RTVSPropertyOp31
 70
     1
102
RTVSPropertyOp32
 70
     1
102
RTVSPropertyOp33
 70
     1
102
RTVSPropertyOp34
 70
     1
102
RTVSPropertyOp35
 70
     1
102
RTVSPropertyOp36
 70
     1
102
RTVSPropertyOp37
 70
     1
102
RTVSPropertyOp38
 70
     1
102
RTVSPropertyOp39
 70
     1
102
RTVSPropertyOp40
 70
     1
102
RTVSPropertyOp41
 70
     1
102
RTVSPropertyOp42
 70
     1
102
RTVSPropertyOp43
 70
     1
102
RTVSPropertyOp44
 70
     1
102
RTVSPropertyOp45
 70
     1
102
RTVSPropertyOp46
 70
     1
102
RTVSPropertyOp47
 70
     1
102
RTVSPropertyOp48
 70
     1
102
RTVSPropertyOp49
 70
     1
102
RTVSPropertyOp50
 70
     1
102
RTVSPropertyOp51
 70
     0
102
RTVSPropertyOp52
 70
     0
102
RTVSPropertyOp53
 70
     1
102
RTVSPropertyOp54
 70
     1
102
RTVSPropertyOp55
 70
     1
102
RTVSPropertyOp56
 70
     1
102
RTVSPropertyOp57
 70
     1
102
RTVSPost2010Prop28
280
     0
102
RTVSPost2010PropOp28
 70
     1
102
RTVSPost2010Prop29
280
     1
102
RTVSPost2010PropOp29
 70
     1
102
RTVSPost2010Prop30
280
     1
102
RTVSPost2010PropOp30
 70
     1
102
RTVSPost2010Prop31
280
     0
102
RTVSPost2010PropOp31
 70
     1
102
RTVSPost2010Prop32
280
     0
102
RTVSPost2010PropOp32
 70
     1
102
RTVSPost2010Prop33
280
     0
102
RTVSPost2010PropOp33
 70
     1
102
RTVSPost2010Prop34
280
     0
102
RTVSPost2010PropOp34
 70
     1
102
RTVSPost2010Prop35
280
     0
102
RTVSPost2010PropOp35
 70
     1
102
RTVSPost2010Prop36
280
     0
102
RTVSPost2010PropOp36
 70
     1
102
RTVSPost2010Prop37
 90
       50
102
RTVSPost2010PropOp37
 70
     1
102
RTVSPost2010Prop38
140
0.0
102
RTVSPost2010PropOp38
 70
     1
102
RTVSPost2010Prop39
140
1.0
102
RTVSPost2010PropOp39
 70
     1
102
RTVSPost2010Prop40
 90
        0
102
RTVSPost2010PropOp40
 70
     1
102
RTVSPost2010Prop41ColorIndex
 90
       18
102
RTVSPost2010Prop41ColorRGB
 90
        0
102
RTVSPost2010PropOp41
 70
     1
102
RTVSPost2010Prop42
 90
       50
102
RTVSPost2010PropOp42
 70
     1
102
RTVSPost2010Prop43
 90
        3
102
RTVSPost2010PropOp43
 70
     1
102
RTVSPost2010Prop44ColorIndex
 90
        5
102
RTVSPost2010Prop44ColorRGB
 90
      255
102
RTVSPost2010PropOp44
 70
     1
102
RTVSPost2010Prop45
280
     0
102
RTVSPost2010PropOp45
 70
     1
102
RTVSPost2010Prop46
 90
       50
102
RTVSPost2010PropOp46
 70
     1
102
RTVSPost2010Prop47
 90
       50
102
RTVSPost2010PropOp47
 70
     1
102
RTVSPost2010Prop48
 90
       50
102
RTVSPost2010PropOp48
 70
     1
102
RTVSPost2010Prop49
280
     0
102
RTVSPost2010PropOp49
 70
     1
102
RTVSPost2010Prop50
 90
       50
102
RTVSPost2010PropOp50
 70
     1
102
RTVSPost2010Prop51ColorIndex
 90
      256
102
RTVSPost2010Prop51ColorRGB
 90
-16777216
102
RTVSPost2010PropOp51
 70
     0
102
RTVSPost2010Prop52
140
1.0
102
RTVSPost2010PropOp52
 70
     0
102
RTVSPost2010Prop53
 90
        2
102
RTVSPost2010PropOp53
 70
     1
102
RTVSPost2010Prop54
  1
strokes_ogs.tif
102
RTVSPost2010PropOp54
 70
     1
102
RTVSPost2010Prop55
280
     0
102
RTVSPost2010PropOp55
 70
     1
102
RTVSPost2010Prop56
140
1.0
102
RTVSPost2010PropOp56
 70
     1
102
RTVSPost2010Prop57
140
1.0
102
RTVSPost2010PropOp57
 70
     1
  0
XRECORD
  5
489
102
{ACAD_REACTORS
330
488
102
}
330
488
100
AcDbXrecord
280
     1
102
RTVSPropertyOp0
 70
     1
102
RTVSPropertyOp1
 70
     1
102
RTVSPropertyOp2
 70
     1
102
RTVSPropertyOp3
 70
     1
102
RTVSPropertyOp4
 70
     1
102
RTVSPropertyOp5
 70
     1
102
RTVSPropertyOp6
 70
     1
102
RTVSPropertyOp7
 70
     1
102
RTVSPropertyOp8
 70
     1
102
RTVSPropertyOp9
 70
     1
102
RTVSPropertyOp10
 70
     1
102
RTVSPropertyOp11
 70
     1
102
RTVSPropertyOp12
 70
     1
102
RTVSPropertyOp13
 70
     1
102
RTVSPropertyOp14
 70
     1
102
RTVSPropertyOp15
 70
     1
102
RTVSPropertyOp16
 70
     1
102
RTVSPropertyOp17
 70
     1
102
RTVSPropertyOp18
 70
     1
102
RTVSPropertyOp19
 70
     1
102
RTVSPropertyOp20
 70
     1
102
RTVSPropertyOp21
 70
     1
102
RTVSPropertyOp22
 70
     1
102
RTVSPropertyOp23
 70
     1
102
RTVSPropertyOp24
 70
     1
102
RTVSPropertyOp25
 70
     1
102
RTVSPropertyOp26
 70
     1
102
RTVSPropertyOp27
 70
     1
102
RTVSPropertyOp28
 70
     1
102
RTVSPropertyOp29
 70
     1
102
RTVSPropertyOp30
 70
     1
102
RTVSPropertyOp31
 70
     1
102
RTVSPropertyOp32
 70
     1
102
RTVSPropertyOp33
 70
     1
102
RTVSPropertyOp34
 70
     1
102
RTVSPropertyOp35
 70
     1
102
RTVSPropertyOp36
 70
     1
102
RTVSPropertyOp37
 70
     1
102
RTVSPropertyOp38
 70
     1
102
RTVSPropertyOp39
 70
     1
102
RTVSPropertyOp40
 70
     1
102
RTVSPropertyOp41
 70
     1
102
RTVSPropertyOp42
 70
     1
102
RTVSPropertyOp43
 70
     1
102
RTVSPropertyOp44
 70
     1
102
RTVSPropertyOp45
 70
     1
102
RTVSPropertyOp46
 70
     1
102
RTVSPropertyOp47
 70
     1
102
RTVSPropertyOp48
 70
     1
102
RTVSPropertyOp49
 70
     1
102
RTVSPropertyOp50
 70
     1
102
RTVSPropertyOp51
 70
     0
102
RTVSPropertyOp52
 70
     0
102
RTVSPropertyOp53
 70
     1
102
RTVSPropertyOp54
 70
     1
102
RTVSPropertyOp55
 70
     1
102
RTVSPropertyOp56
 70
     1
102
RTVSPropertyOp57
 70
     1
102
RTVSPost2010Prop28
280
     0
102
RTVSPost2010PropOp28
 70
     1
102
RTVSPost2010Prop29
280
     1
102
RTVSPost2010PropOp29
 70
     1
102
RTVSPost2010Prop30
280
     1
102
RTVSPost2010PropOp30
 70
     1
102
RTVSPost2010Prop31
280
     0
102
RTVSPost2010PropOp31
 70
     1
102
RTVSPost2010Prop32
280
     0
102
RTVSPost2010PropOp32
 70
     1
102
RTVSPost2010Prop33
280
     0
102
RTVSPost2010PropOp33
 70
     1
102
RTVSPost2010Prop34
280
     0
102
RTVSPost2010PropOp34
 70
     1
102
RTVSPost2010Prop35
280
     0
102
RTVSPost2010PropOp35
 70
     1
102
RTVSPost2010Prop36
280
     0
102
RTVSPost2010PropOp36
 70
     1
102
RTVSPost2010Prop37
 90
       50
102
RTVSPost2010PropOp37
 70
     1
102
RTVSPost2010Prop38
140
0.0
102
RTVSPost2010PropOp38
 70
     1
102
RTVSPost2010Prop39
140
1.0
102
RTVSPost2010PropOp39
 70
     1
102
RTVSPost2010Prop40
 90
        0
102
RTVSPost2010PropOp40
 70
     1
102
RTVSPost2010Prop41ColorIndex
 90
       18
102
RTVSPost2010Prop41ColorRGB
 90
        0
102
RTVSPost2010PropOp41
 70
     1
102
RTVSPost2010Prop42
 90
       50
102
RTVSPost2010PropOp42
 70
     1
102
RTVSPost2010Prop43
 90
        3
102
RTVSPost2010PropOp43
 70
     1
102
RTVSPost2010Prop44ColorIndex
 90
        5
102
RTVSPost2010Prop44ColorRGB
 90
      255
102
RTVSPost2010PropOp44
 70
     1
102
RTVSPost2010Prop45
280
     0
102
RTVSPost2010PropOp45
 70
     1
102
RTVSPost2010Prop46
 90
       50
102
RTVSPost2010PropOp46
 70
     1
102
RTVSPost2010Prop47
 90
       50
102
RTVSPost2010PropOp47
 70
     1
102
RTVSPost2010Prop48
 90
       50
102
RTVSPost2010PropOp48
 70
     1
102
RTVSPost2010Prop49
280
     0
102
RTVSPost2010PropOp49
 70
     1
102
RTVSPost2010Prop50
 90
       50
102
RTVSPost2010PropOp50
 70
     1
102
RTVSPost2010Prop51ColorIndex
 90
      256
102
RTVSPost2010Prop51ColorRGB
 90
-16777216
102
RTVSPost2010PropOp51
 70
     0
102
RTVSPost2010Prop52
140
1.0
102
RTVSPost2010PropOp52
 70
     0
102
RTVSPost2010Prop53
 90
        2
102
RTVSPost2010PropOp53
 70
     1
102
RTVSPost2010Prop54
  1
strokes_ogs.tif
102
RTVSPost2010PropOp54
 70
     1
102
RTVSPost2010Prop55
280
     0
102
RTVSPost2010PropOp55
 70
     1
102
RTVSPost2010Prop56
140
1.0
102
RTVSPost2010PropOp56
 70
     1
102
RTVSPost2010Prop57
140
1.0
102
RTVSPost2010PropOp57
 70
     1
  0
XRECORD
  5
479
102
{ACAD_REACTORS
330
478
102
}
330
478
100
AcDbXrecord
280
     1
102
RTVSPropertyOp0
 70
     1
102
RTVSPropertyOp1
 70
     1
102
RTVSPropertyOp2
 70
     1
102
RTVSPropertyOp3
 70
     1
102
RTVSPropertyOp4
 70
     1
102
RTVSPropertyOp5
 70
     1
102
RTVSPropertyOp6
 70
     1
102
RTVSPropertyOp7
 70
     1
102
RTVSPropertyOp8
 70
     1
102
RTVSPropertyOp9
 70
     1
102
RTVSPropertyOp10
 70
     1
102
RTVSPropertyOp11
 70
     1
102
RTVSPropertyOp12
 70
     1
102
RTVSPropertyOp13
 70
     1
102
RTVSPropertyOp14
 70
     1
102
RTVSPropertyOp15
 70
     1
102
RTVSPropertyOp16
 70
     1
102
RTVSPropertyOp17
 70
     1
102
RTVSPropertyOp18
 70
     1
102
RTVSPropertyOp19
 70
     1
102
RTVSPropertyOp20
 70
     1
102
RTVSPropertyOp21
 70
     1
102
RTVSPropertyOp22
 70
     1
102
RTVSPropertyOp23
 70
     1
102
RTVSPropertyOp24
 70
     1
102
RTVSPropertyOp25
 70
     1
102
RTVSPropertyOp26
 70
     1
102
RTVSPropertyOp27
 70
     1
102
RTVSPropertyOp28
 70
     1
102
RTVSPropertyOp29
 70
     1
102
RTVSPropertyOp30
 70
     1
102
RTVSPropertyOp31
 70
     1
102
RTVSPropertyOp32
 70
     1
102
RTVSPropertyOp33
 70
     1
102
RTVSPropertyOp34
 70
     1
102
RTVSPropertyOp35
 70
     1
102
RTVSPropertyOp36
 70
     1
102
RTVSPropertyOp37
 70
     1
102
RTVSPropertyOp38
 70
     1
102
RTVSPropertyOp39
 70
     1
102
RTVSPropertyOp40
 70
     1
102
RTVSPropertyOp41
 70
     1
102
RTVSPropertyOp42
 70
     1
102
RTVSPropertyOp43
 70
     1
102
RTVSPropertyOp44
 70
     1
102
RTVSPropertyOp45
 70
     1
102
RTVSPropertyOp46
 70
     1
102
RTVSPropertyOp47
 70
     1
102
RTVSPropertyOp48
 70
     1
102
RTVSPropertyOp49
 70
     1
102
RTVSPropertyOp50
 70
     1
102
RTVSPropertyOp51
 70
     0
102
RTVSPropertyOp52
 70
     0
102
RTVSPropertyOp53
 70
     1
102
RTVSPropertyOp54
 70
     1
102
RTVSPropertyOp55
 70
     1
102
RTVSPropertyOp56
 70
     1
102
RTVSPropertyOp57
 70
     1
102
RTVSPost2010Prop28
280
     0
102
RTVSPost2010PropOp28
 70
     1
102
RTVSPost2010Prop29
280
     1
102
RTVSPost2010PropOp29
 70
     1
102
RTVSPost2010Prop30
280
     1
102
RTVSPost2010PropOp30
 70
     1
102
RTVSPost2010Prop31
280
     0
102
RTVSPost2010PropOp31
 70
     1
102
RTVSPost2010Prop32
280
     0
102
RTVSPost2010PropOp32
 70
     1
102
RTVSPost2010Prop33
280
     0
102
RTVSPost2010PropOp33
 70
     1
102
RTVSPost2010Prop34
280
     0
102
RTVSPost2010PropOp34
 70
     1
102
RTVSPost2010Prop35
280
     0
102
RTVSPost2010PropOp35
 70
     1
102
RTVSPost2010Prop36
280
     0
102
RTVSPost2010PropOp36
 70
     1
102
RTVSPost2010Prop37
 90
       50
102
RTVSPost2010PropOp37
 70
     1
102
RTVSPost2010Prop38
140
0.0
102
RTVSPost2010PropOp38
 70
     1
102
RTVSPost2010Prop39
140
1.0
102
RTVSPost2010PropOp39
 70
     1
102
RTVSPost2010Prop40
 90
        0
102
RTVSPost2010PropOp40
 70
     1
102
RTVSPost2010Prop41ColorIndex
 90
       18
102
RTVSPost2010Prop41ColorRGB
 90
        0
102
RTVSPost2010PropOp41
 70
     1
102
RTVSPost2010Prop42
 90
       50
102
RTVSPost2010PropOp42
 70
     1
102
RTVSPost2010Prop43
 90
        3
102
RTVSPost2010PropOp43
 70
     1
102
RTVSPost2010Prop44ColorIndex
 90
        5
102
RTVSPost2010Prop44ColorRGB
 90
      255
102
RTVSPost2010PropOp44
 70
     1
102
RTVSPost2010Prop45
280
     0
102
RTVSPost2010PropOp45
 70
     1
102
RTVSPost2010Prop46
 90
       50
102
RTVSPost2010PropOp46
 70
     1
102
RTVSPost2010Prop47
 90
       50
102
RTVSPost2010PropOp47
 70
     1
102
RTVSPost2010Prop48
 90
       50
102
RTVSPost2010PropOp48
 70
     1
102
RTVSPost2010Prop49
280
     0
102
RTVSPost2010PropOp49
 70
     1
102
RTVSPost2010Prop50
 90
       50
102
RTVSPost2010PropOp50
 70
     1
102
RTVSPost2010Prop51ColorIndex
 90
      256
102
RTVSPost2010Prop51ColorRGB
 90
-16777216
102
RTVSPost2010PropOp51
 70
     0
102
RTVSPost2010Prop52
140
1.0
102
RTVSPost2010PropOp52
 70
     0
102
RTVSPost2010Prop53
 90
        2
102
RTVSPost2010PropOp53
 70
     1
102
RTVSPost2010Prop54
  1
strokes_ogs.tif
102
RTVSPost2010PropOp54
 70
     1
102
RTVSPost2010Prop55
280
     0
102
RTVSPost2010PropOp55
 70
     1
102
RTVSPost2010Prop56
140
1.0
102
RTVSPost2010PropOp56
 70
     1
102
RTVSPost2010Prop57
140
1.0
102
RTVSPost2010PropOp57
 70
     1
  0
XRECORD
  5
46B
102
{ACAD_REACTORS
330
46A
102
}
330
46A
100
AcDbXrecord
280
     1
102
RTVSPropertyOp0
 70
     1
102
RTVSPropertyOp1
 70
     1
102
RTVSPropertyOp2
 70
     1
102
RTVSPropertyOp3
 70
     1
102
RTVSPropertyOp4
 70
     1
102
RTVSPropertyOp5
 70
     1
102
RTVSPropertyOp6
 70
     1
102
RTVSPropertyOp7
 70
     1
102
RTVSPropertyOp8
 70
     1
102
RTVSPropertyOp9
 70
     1
102
RTVSPropertyOp10
 70
     1
102
RTVSPropertyOp11
 70
     1
102
RTVSPropertyOp12
 70
     1
102
RTVSPropertyOp13
 70
     1
102
RTVSPropertyOp14
 70
     1
102
RTVSPropertyOp15
 70
     1
102
RTVSPropertyOp16
 70
     1
102
RTVSPropertyOp17
 70
     1
102
RTVSPropertyOp18
 70
     1
102
RTVSPropertyOp19
 70
     1
102
RTVSPropertyOp20
 70
     1
102
RTVSPropertyOp21
 70
     1
102
RTVSPropertyOp22
 70
     1
102
RTVSPropertyOp23
 70
     1
102
RTVSPropertyOp24
 70
     1
102
RTVSPropertyOp25
 70
     1
102
RTVSPropertyOp26
 70
     1
102
RTVSPropertyOp27
 70
     1
102
RTVSPropertyOp28
 70
     1
102
RTVSPropertyOp29
 70
     1
102
RTVSPropertyOp30
 70
     1
102
RTVSPropertyOp31
 70
     1
102
RTVSPropertyOp32
 70
     1
102
RTVSPropertyOp33
 70
     1
102
RTVSPropertyOp34
 70
     1
102
RTVSPropertyOp35
 70
     1
102
RTVSPropertyOp36
 70
     1
102
RTVSPropertyOp37
 70
     1
102
RTVSPropertyOp38
 70
     1
102
RTVSPropertyOp39
 70
     1
102
RTVSPropertyOp40
 70
     1
102
RTVSPropertyOp41
 70
     1
102
RTVSPropertyOp42
 70
     1
102
RTVSPropertyOp43
 70
     1
102
RTVSPropertyOp44
 70
     1
102
RTVSPropertyOp45
 70
     1
102
RTVSPropertyOp46
 70
     1
102
RTVSPropertyOp47
 70
     1
102
RTVSPropertyOp48
 70
     1
102
RTVSPropertyOp49
 70
     1
102
RTVSPropertyOp50
 70
     1
102
RTVSPropertyOp51
 70
     0
102
RTVSPropertyOp52
 70
     0
102
RTVSPropertyOp53
 70
     1
102
RTVSPropertyOp54
 70
     1
102
RTVSPropertyOp55
 70
     1
102
RTVSPropertyOp56
 70
     1
102
RTVSPropertyOp57
 70
     1
102
RTVSPost2010Prop28
280
     0
102
RTVSPost2010PropOp28
 70
     1
102
RTVSPost2010Prop29
280
     1
102
RTVSPost2010PropOp29
 70
     1
102
RTVSPost2010Prop30
280
     1
102
RTVSPost2010PropOp30
 70
     1
102
RTVSPost2010Prop31
280
     0
102
RTVSPost2010PropOp31
 70
     1
102
RTVSPost2010Prop32
280
     0
102
RTVSPost2010PropOp32
 70
     1
102
RTVSPost2010Prop33
280
     0
102
RTVSPost2010PropOp33
 70
     1
102
RTVSPost2010Prop34
280
     0
102
RTVSPost2010PropOp34
 70
     1
102
RTVSPost2010Prop35
280
     0
102
RTVSPost2010PropOp35
 70
     1
102
RTVSPost2010Prop36
280
     0
102
RTVSPost2010PropOp36
 70
     1
102
RTVSPost2010Prop37
 90
       50
102
RTVSPost2010PropOp37
 70
     1
102
RTVSPost2010Prop38
140
0.0
102
RTVSPost2010PropOp38
 70
     1
102
RTVSPost2010Prop39
140
1.0
102
RTVSPost2010PropOp39
 70
     1
102
RTVSPost2010Prop40
 90
        0
102
RTVSPost2010PropOp40
 70
     1
102
RTVSPost2010Prop41ColorIndex
 90
       18
102
RTVSPost2010Prop41ColorRGB
 90
        0
102
RTVSPost2010PropOp41
 70
     1
102
RTVSPost2010Prop42
 90
       50
102
RTVSPost2010PropOp42
 70
     1
102
RTVSPost2010Prop43
 90
        3
102
RTVSPost2010PropOp43
 70
     1
102
RTVSPost2010Prop44ColorIndex
 90
        5
102
RTVSPost2010Prop44ColorRGB
 90
      255
102
RTVSPost2010PropOp44
 70
     1
102
RTVSPost2010Prop45
280
     0
102
RTVSPost2010PropOp45
 70
     1
102
RTVSPost2010Prop46
 90
       50
102
RTVSPost2010PropOp46
 70
     1
102
RTVSPost2010Prop47
 90
       50
102
RTVSPost2010PropOp47
 70
     1
102
RTVSPost2010Prop48
 90
       50
102
RTVSPost2010PropOp48
 70
     1
102
RTVSPost2010Prop49
280
     0
102
RTVSPost2010PropOp49
 70
     1
102
RTVSPost2010Prop50
 90
       50
102
RTVSPost2010PropOp50
 70
     1
102
RTVSPost2010Prop51ColorIndex
 90
      256
102
RTVSPost2010Prop51ColorRGB
 90
-16777216
102
RTVSPost2010PropOp51
 70
     0
102
RTVSPost2010Prop52
140
1.0
102
RTVSPost2010PropOp52
 70
     0
102
RTVSPost2010Prop53
 90
        2
102
RTVSPost2010PropOp53
 70
     1
102
RTVSPost2010Prop54
  1
strokes_ogs.tif
102
RTVSPost2010PropOp54
 70
     1
102
RTVSPost2010Prop55
280
     0
102
RTVSPost2010PropOp55
 70
     1
102
RTVSPost2010Prop56
140
1.0
102
RTVSPost2010PropOp56
 70
     1
102
RTVSPost2010Prop57
140
1.0
102
RTVSPost2010PropOp57
 70
     1
  0
XRECORD
  5
48B
102
{ACAD_REACTORS
330
48A
102
}
330
48A
100
AcDbXrecord
280
     1
102
RTVSPropertyOp0
 70
     1
102
RTVSPropertyOp1
 70
     1
102
RTVSPropertyOp2
 70
     1
102
RTVSPropertyOp3
 70
     1
102
RTVSPropertyOp4
 70
     1
102
RTVSPropertyOp5
 70
     1
102
RTVSPropertyOp6
 70
     1
102
RTVSPropertyOp7
 70
     1
102
RTVSPropertyOp8
 70
     1
102
RTVSPropertyOp9
 70
     1
102
RTVSPropertyOp10
 70
     1
102
RTVSPropertyOp11
 70
     1
102
RTVSPropertyOp12
 70
     1
102
RTVSPropertyOp13
 70
     1
102
RTVSPropertyOp14
 70
     1
102
RTVSPropertyOp15
 70
     1
102
RTVSPropertyOp16
 70
     1
102
RTVSPropertyOp17
 70
     1
102
RTVSPropertyOp18
 70
     1
102
RTVSPropertyOp19
 70
     1
102
RTVSPropertyOp20
 70
     1
102
RTVSPropertyOp21
 70
     1
102
RTVSPropertyOp22
 70
     1
102
RTVSPropertyOp23
 70
     1
102
RTVSPropertyOp24
 70
     1
102
RTVSPropertyOp25
 70
     1
102
RTVSPropertyOp26
 70
     1
102
RTVSPropertyOp27
 70
     1
102
RTVSPropertyOp28
 70
     1
102
RTVSPropertyOp29
 70
     1
102
RTVSPropertyOp30
 70
     1
102
RTVSPropertyOp31
 70
     1
102
RTVSPropertyOp32
 70
     1
102
RTVSPropertyOp33
 70
     1
102
RTVSPropertyOp34
 70
     1
102
RTVSPropertyOp35
 70
     1
102
RTVSPropertyOp36
 70
     1
102
RTVSPropertyOp37
 70
     1
102
RTVSPropertyOp38
 70
     1
102
RTVSPropertyOp39
 70
     1
102
RTVSPropertyOp40
 70
     1
102
RTVSPropertyOp41
 70
     1
102
RTVSPropertyOp42
 70
     1
102
RTVSPropertyOp43
 70
     1
102
RTVSPropertyOp44
 70
     1
102
RTVSPropertyOp45
 70
     1
102
RTVSPropertyOp46
 70
     1
102
RTVSPropertyOp47
 70
     1
102
RTVSPropertyOp48
 70
     1
102
RTVSPropertyOp49
 70
     1
102
RTVSPropertyOp50
 70
     1
102
RTVSPropertyOp51
 70
     0
102
RTVSPropertyOp52
 70
     0
102
RTVSPropertyOp53
 70
     1
102
RTVSPropertyOp54
 70
     1
102
RTVSPropertyOp55
 70
     1
102
RTVSPropertyOp56
 70
     1
102
RTVSPropertyOp57
 70
     1
102
RTVSPost2010Prop28
280
     0
102
RTVSPost2010PropOp28
 70
     1
102
RTVSPost2010Prop29
280
     1
102
RTVSPost2010PropOp29
 70
     1
102
RTVSPost2010Prop30
280
     1
102
RTVSPost2010PropOp30
 70
     1
102
RTVSPost2010Prop31
280
     0
102
RTVSPost2010PropOp31
 70
     1
102
RTVSPost2010Prop32
280
     0
102
RTVSPost2010PropOp32
 70
     1
102
RTVSPost2010Prop33
280
     0
102
RTVSPost2010PropOp33
 70
     1
102
RTVSPost2010Prop34
280
     0
102
RTVSPost2010PropOp34
 70
     1
102
RTVSPost2010Prop35
280
     0
102
RTVSPost2010PropOp35
 70
     1
102
RTVSPost2010Prop36
280
     0
102
RTVSPost2010PropOp36
 70
     1
102
RTVSPost2010Prop37
 90
       50
102
RTVSPost2010PropOp37
 70
     1
102
RTVSPost2010Prop38
140
0.0
102
RTVSPost2010PropOp38
 70
     1
102
RTVSPost2010Prop39
140
1.0
102
RTVSPost2010PropOp39
 70
     1
102
RTVSPost2010Prop40
 90
        0
102
RTVSPost2010PropOp40
 70
     1
102
RTVSPost2010Prop41ColorIndex
 90
       18
102
RTVSPost2010Prop41ColorRGB
 90
        0
102
RTVSPost2010PropOp41
 70
     1
102
RTVSPost2010Prop42
 90
       50
102
RTVSPost2010PropOp42
 70
     1
102
RTVSPost2010Prop43
 90
        3
102
RTVSPost2010PropOp43
 70
     1
102
RTVSPost2010Prop44ColorIndex
 90
        5
102
RTVSPost2010Prop44ColorRGB
 90
      255
102
RTVSPost2010PropOp44
 70
     1
102
RTVSPost2010Prop45
280
     0
102
RTVSPost2010PropOp45
 70
     1
102
RTVSPost2010Prop46
 90
       50
102
RTVSPost2010PropOp46
 70
     1
102
RTVSPost2010Prop47
 90
       50
102
RTVSPost2010PropOp47
 70
     1
102
RTVSPost2010Prop48
 90
       50
102
RTVSPost2010PropOp48
 70
     1
102
RTVSPost2010Prop49
280
     0
102
RTVSPost2010PropOp49
 70
     1
102
RTVSPost2010Prop50
 90
       50
102
RTVSPost2010PropOp50
 70
     1
102
RTVSPost2010Prop51ColorIndex
 90
      256
102
RTVSPost2010Prop51ColorRGB
 90
-16777216
102
RTVSPost2010PropOp51
 70
     0
102
RTVSPost2010Prop52
140
1.0
102
RTVSPost2010PropOp52
 70
     0
102
RTVSPost2010Prop53
 90
        2
102
RTVSPost2010PropOp53
 70
     1
102
RTVSPost2010Prop54
  1
strokes_ogs.tif
102
RTVSPost2010PropOp54
 70
     1
102
RTVSPost2010Prop55
280
     0
102
RTVSPost2010PropOp55
 70
     1
102
RTVSPost2010Prop56
140
1.0
102
RTVSPost2010PropOp56
 70
     1
102
RTVSPost2010Prop57
140
1.0
102
RTVSPost2010PropOp57
 70
     1
  0
ENDSEC
  0
EOF
