  0
SECTION
  2
HEADER
  9
$ACADVER
  1
AC1018
  9
$ACADMAINTVER
 70
     0
  9
$DWGCODEPAGE
  3
ANSI_1252
  9
$LASTSAVEDBY
  1
cloudconvert
  9
$INSBASE
 10
0.0
 20
0.0
 30
0.0
  9
$EXTMIN
 10
-646.43993451
 20
160.34532494
 30
0.0
  9
$EXTMAX
 10
410.15210165
 20
669.20995511
 30
0.0
  9
$LIMMIN
 10
-646.43993451
 20
160.34532494
  9
$LIMMAX
 10
410.15210165
 20
669.20995511
  9
$ORTHOMODE
 70
     0
  9
$REGENMODE
 70
     1
  9
$FILLMODE
 70
     1
  9
$QTEXTMODE
 70
     0
  9
$MIRRTEXT
 70
     1
  9
$LTSCALE
 40
1.0
  9
$ATTMODE
 70
     1
  9
$TEXTSIZE
 40
1.0
  9
$TRACEWID
 40
0.05
  9
$TEXTSTYLE
  7
STANDARD
  9
$CLAYER
  8
0
  9
$CELTYPE
  6
ByBlock
  9
$CECOLOR
 62
   256
  9
$CELTSCALE
 40
1.0
  9
$DISPSILH
 70
     0
  9
$DIMSCALE
 40
1.0
  9
$DIMASZ
 40
0.18
  9
$DIMEXO
 40
0.0625
  9
$DIMDLI
 40
0.38
  9
$DIMRND
 40
0.0
  9
$DIMDLE
 40
0.0
  9
$DIMEXE
 40
0.18
  9
$DIMTP
 40
0.0
  9
$DIMTM
 40
0.0
  9
$DIMTXT
 40
0.18
  9
$DIMCEN
 40
0.09
  9
$DIMTSZ
 40
0.0
  9
$DIMTOL
 70
     0
  9
$DIMLIM
 70
     0
  9
$DIMTIH
 70
     1
  9
$DIMTOH
 70
     1
  9
$DIMSE1
 70
     0
  9
$DIMSE2
 70
     0
  9
$DIMTAD
 70
     0
  9
$DIMZIN
 70
     0
  9
$DIMBLK
  1

  9
$DIMASO
 70
     1
  9
$DIMSHO
 70
     1
  9
$DIMPOST
  1

  9
$DIMAPOST
  1

  9
$DIMALT
 70
     0
  9
$DIMALTD
 70
     2
  9
$DIMALTF
 40
25.4
  9
$DIMLFAC
 40
1.0
  9
$DIMTOFL
 70
     0
  9
$DIMTVP
 40
0.0
  9
$DIMTIX
 70
     0
  9
$DIMSOXD
 70
     0
  9
$DIMSAH
 70
     0
  9
$DIMBLK1
  1

  9
$DIMBLK2
  1

  9
$DIMSTYLE
  2
ISO-25
  9
$DIMCLRD
 70
     0
  9
$DIMCLRE
 70
     0
  9
$DIMCLRT
 70
     0
  9
$DIMTFAC
 40
1.0
  9
$DIMGAP
 40
0.09
  9
$DIMJUST
 70
     0
  9
$DIMSD1
 70
     0
  9
$DIMSD2
 70
     0
  9
$DIMTOLJ
 70
     1
  9
$DIMTZIN
 70
     0
  9
$DIMALTZ
 70
     0
  9
$DIMALTTZ
 70
     0
  9
$DIMUPT
 70
     0
  9
$DIMDEC
 70
     4
  9
$DIMTDEC
 70
     4
  9
$DIMALTU
 70
     2
  9
$DIMALTTD
 70
     2
  9
$DIMTXSTY
  7
STANDARD
  9
$DIMAUNIT
 70
     0
  9
$DIMADEC
 70
     0
  9
$DIMALTRND
 40
0.0
  9
$DIMAZIN
 70
     0
  9
$DIMDSEP
 70
    46
  9
$DIMATFIT
 70
     3
  9
$DIMFRAC
 70
     0
  9
$DIMLDRBLK
  1

  9
$DIMLUNIT
 70
     2
  9
$DIMLWD
 70
    -2
  9
$DIMLWE
 70
    -2
  9
$DIMTMOVE
 70
     0
  9
$LUNITS
 70
     2
  9
$LUPREC
 70
     4
  9
$SKETCHINC
 40
0.1
  9
$FILLETRAD
 40
0.0
  9
$AUNITS
 70
     0
  9
$AUPREC
 70
     0
  9
$MENU
  1
.
  9
$ELEVATION
 40
0.0
  9
$PELEVATION
 40
0.0
  9
$THICKNESS
 40
0.0
  9
$LIMCHECK
 70
     0
  9
$CHAMFERA
 40
0.0
  9
$CHAMFERB
 40
0.0
  9
$CHAMFERC
 40
0.0
  9
$CHAMFERD
 40
0.0
  9
$SKPOLY
 70
     0
  9
$TDCREATE
 40
2447893.0
  9
$TDUCREATE
 40
0.0
  9
$TDUPDATE
 40
2460790.419723206
  9
$TDUUPDATE
 40
2460790.419723206
  9
$TDINDWG
 40
0.0
  9
$TDUSRTIMER
 40
0.0
  9
$USRTIMER
 70
     1
  9
$ANGBASE
 50
0.0
  9
$ANGDIR
 70
     0
  9
$PDMODE
 70
     0
  9
$PDSIZE
 40
0.0
  9
$PLINEWID
 40
0.0
  9
$SPLFRAME
 70
     0
  9
$SPLINETYPE
 70
     6
  9
$SPLINESEGS
 70
     8
  9
$HANDSEED
  5
477
  9
$SURFTAB1
 70
     6
  9
$SURFTAB2
 70
     6
  9
$SURFTYPE
 70
     6
  9
$SURFU
 70
     6
  9
$SURFV
 70
     6
  9
$UCSBASE
  2

  9
$UCSNAME
  2

  9
$UCSORG
 10
0.0
 20
0.0
 30
0.0
  9
$UCSXDIR
 10
1.0
 20
0.0
 30
0.0
  9
$UCSYDIR
 10
0.0
 20
1.0
 30
0.0
  9
$UCSORTHOREF
  2

  9
$UCSORTHOVIEW
 70
     0
  9
$UCSORGTOP
 10
0.0
 20
0.0
 30
0.0
  9
$UCSORGBOTTOM
 10
0.0
 20
0.0
 30
0.0
  9
$UCSORGLEFT
 10
0.0
 20
0.0
 30
0.0
  9
$UCSORGRIGHT
 10
0.0
 20
0.0
 30
0.0
  9
$UCSORGFRONT
 10
0.0
 20
0.0
 30
0.0
  9
$UCSORGBACK
 10
0.0
 20
0.0
 30
0.0
  9
$PUCSBASE
  2

  9
$PUCSNAME
  2

  9
$PUCSORG
 10
0.0
 20
0.0
 30
0.0
  9
$PUCSXDIR
 10
1.0
 20
0.0
 30
0.0
  9
$PUCSYDIR
 10
0.0
 20
1.0
 30
0.0
  9
$PUCSORTHOREF
  2

  9
$PUCSORTHOVIEW
 70
     0
  9
$PUCSORGTOP
 10
0.0
 20
0.0
 30
0.0
  9
$PUCSORGBOTTOM
 10
0.0
 20
0.0
 30
0.0
  9
$PUCSORGLEFT
 10
0.0
 20
0.0
 30
0.0
  9
$PUCSORGRIGHT
 10
0.0
 20
0.0
 30
0.0
  9
$PUCSORGFRONT
 10
0.0
 20
0.0
 30
0.0
  9
$PUCSORGBACK
 10
0.0
 20
0.0
 30
0.0
  9
$USERI1
 70
     0
  9
$USERI2
 70
     0
  9
$USERI3
 70
     0
  9
$USERI4
 70
     0
  9
$USERI5
 70
     0
  9
$USERR1
 40
0.0
  9
$USERR2
 40
0.0
  9
$USERR3
 40
0.0
  9
$USERR4
 40
0.0
  9
$USERR5
 40
0.0
  9
$WORLDVIEW
 70
     1
  9
$SHADEDGE
 70
     3
  9
$SHADEDIF
 70
    70
  9
$TILEMODE
 70
     1
  9
$MAXACTVP
 70
    64
  9
$PINSBASE
 10
0.0
 20
0.0
 30
0.0
  9
$PLIMCHECK
 70
     0
  9
$PEXTMIN
 10
1.000000000000000E+20
 20
1.000000000000000E+20
 30
1.000000000000000E+20
  9
$PEXTMAX
 10
-1.000000000000000E+20
 20
-1.000000000000000E+20
 30
-1.000000000000000E+20
  9
$PLIMMIN
 10
0.0
 20
0.0
  9
$PLIMMAX
 10
12.0
 20
9.0
  9
$UNITMODE
 70
     0
  9
$VISRETAIN
 70
     0
  9
$PLINEGEN
 70
     0
  9
$PSLTSCALE
 70
     1
  9
$TREEDEPTH
 70
  3020
  9
$CMLSTYLE
  2
Standard
  9
$CMLJUST
 70
     0
  9
$CMLSCALE
 40
1.0
  9
$PROXYGRAPHICS
 70
     1
  9
$MEASUREMENT
 70
     1
  9
$CELWEIGHT
370
    -1
  9
$ENDCAPS
280
     0
  9
$JOINSTYLE
280
     0
  9
$LWDISPLAY
290
     0
  9
$INSUNITS
 70
     4
  9
$HYPERLINKBASE
  1

  9
$STYLESHEET
  1

  9
$XEDIT
290
     1
  9
$CEPSNTYPE
380
     0
  9
$PSTYLEMODE
290
     1
  9
$FINGERPRINTGUID
  2
{5100f08a-6e8b-440c-b5eb-c4c646bb9aa2}
  9
$VERSIONGUID
  2
{FAEB1C32-E019-11D5-929B-00C0DF256EC4}
  9
$EXTNAMES
290
     1
  9
$PSVPSCALE
 40
0.0
  9
$OLESTARTUP
290
     0
  9
$SORTENTS
280
   127
  9
$INDEXCTL
280
     0
  9
$HIDETEXT
280
     1
  9
$XCLIPFRAME
290
     0
  9
$HALOGAP
280
     0
  9
$OBSCOLOR
 70
   257
  9
$OBSLTYPE
280
     0
  9
$INTERSECTIONDISPLAY
280
     0
  9
$INTERSECTIONCOLOR
 70
   257
  9
$DIMASSOC
280
     2
  9
$PROJECTNAME
  1

  0
ENDSEC
  0
SECTION
  2
CLASSES
  0
CLASS
  1
DICTIONARYVAR
  2
AcDbDictionaryVar
  3
ObjectDBX Classes
 90
        0
 91
        3
280
     0
281
     0
  0
CLASS
  1
ACDBDICTIONARYWDFLT
  2
AcDbDictionaryWithDefault
  3
ObjectDBX Classes
 90
        0
 91
        3
280
     0
281
     0
  0
CLASS
  1
SCALE
  2
AcDbScale
  3
ObjectDBX Classes
 90
     1153
 91
        3
280
     0
281
     0
  0
CLASS
  1
VISUALSTYLE
  2
AcDbVisualStyle
  3
ObjectDBX Classes
 90
     4095
 91
        3
280
     0
281
     0
  0
CLASS
  1
MATERIAL
  2
AcDbMaterial
  3
ObjectDBX Classes
 90
     1153
 91
        3
280
     0
281
     0
  0
CLASS
  1
TABLESTYLE
  2
AcDbTableStyle
  3
ObjectDBX Classes
 90
     4095
 91
        3
280
     0
281
     0
  0
CLASS
  1
MLEADERSTYLE
  2
AcDbMLeaderStyle
  3
ACDB_MLEADERSTYLE_CLASS
 90
     4095
 91
        3
280
     0
281
     0
  0
CLASS
  1
CELLSTYLEMAP
  2
AcDbCellStyleMap
  3
ObjectDBX Classes
 90
     1152
 91
        3
280
     0
281
     0
  0
ENDSEC
  0
SECTION
  2
TABLES
  0
TABLE
  2
VPORT
  5
1
102
{ACAD_XDICTIONARY
360
430
102
}
330
0
100
AcDbSymbolTable
 70
     1
  0
VPORT
  5
2
330
1
100
AcDbSymbolTableRecord
100
AcDbViewportTableRecord
  2
*Active
 70
     0
 10
0.0
 20
0.0
 11
1.0
 21
1.0
 12
-118.14391643
 22
414.77764003
 13
0.0
 23
0.0
 14
1.0
 24
1.0
 15
0.0
 25
0.0
 16
0.0
 26
0.0
 36
1.0
 17
0.0
 27
0.0
 37
0.0
 40
508.864630169
 41
2.076371541
 42
50.0
 43
0.0
 44
0.0
 50
0.0
 51
0.0
 71
     0
 72
   100
 73
     1
 74
     1
 75
     0
 76
     0
 77
     0
 78
     0
281
     0
 65
     1
110
0.0
120
0.0
130
0.0
111
1.0
121
0.0
131
0.0
112
0.0
122
1.0
132
0.0
 79
     0
146
0.0
  0
ENDTAB
  0
TABLE
  2
LTYPE
  5
3
330
0
100
AcDbSymbolTable
 70
    19
  0
LTYPE
  5
4
330
3
100
AcDbSymbolTableRecord
100
AcDbLinetypeTableRecord
  2
ByBlock
 70
     0
  3

 72
    65
 73
     0
 40
0.0
  0
LTYPE
  5
5
330
3
100
AcDbSymbolTableRecord
100
AcDbLinetypeTableRecord
  2
ByLayer
 70
     0
  3

 72
    65
 73
     0
 40
0.0
  0
LTYPE
  5
6
330
3
100
AcDbSymbolTableRecord
100
AcDbLinetypeTableRecord
  2
CONTINUOUS
 70
     0
  3
Solid line
 72
    65
 73
     0
 40
0.0
  0
LTYPE
  5
7
330
3
100
AcDbSymbolTableRecord
100
AcDbLinetypeTableRecord
  2
DOT
 70
     0
  3
..............
 72
    65
 73
     2
 40
2.0
 49
0.5
 74
     0
 49
-1.5
 74
     0
  0
LTYPE
  5
8
330
3
100
AcDbSymbolTableRecord
100
AcDbLinetypeTableRecord
  2
HIDDEN
 70
     0
  3
-- -- -- -- --
 72
    65
 73
     2
 40
7.0
 49
4.0
 74
     0
 49
-3.0
 74
     0
  0
LTYPE
  5
9
330
3
100
AcDbSymbolTableRecord
100
AcDbLinetypeTableRecord
  2
DASHDOT
 70
     0
  3
--.--.--.--.--
 72
    65
 73
     4
 40
8.5
 49
4.0
 74
     0
 49
-2.0
 74
     0
 49
0.5
 74
     0
 49
-2.0
 74
     0
  0
LTYPE
  5
A
330
3
100
AcDbSymbolTableRecord
100
AcDbLinetypeTableRecord
  2
STRICHPUNKT2
 70
     0
  3
--.--.--.--.--
 72
    65
 73
     4
 40
18.5
 49
10.0
 74
     0
 49
-4.0
 74
     0
 49
0.5
 74
     0
 49
-4.0
 74
     0
  0
LTYPE
  5
B
330
3
100
AcDbSymbolTableRecord
100
AcDbLinetypeTableRecord
  2
STRICHPUNKT3
 70
     0
  3
--.--.--.--.--
 72
    65
 73
     4
 40
35.5
 49
25.0
 74
     0
 49
-5.0
 74
     0
 49
0.5
 74
     0
 49
-5.0
 74
     0
  0
LTYPE
  5
13F
330
3
100
AcDbSymbolTableRecord
100
AcDbLinetypeTableRecord
  2
PHANTOM
 70
     0
  3
--..--..--..--
 72
    65
 73
     6
 40
23.0
 49
10.0
 74
     0
 49
-4.0
 74
     0
 49
0.5
 74
     0
 49
-4.0
 74
     0
 49
0.5
 74
     0
 49
-4.0
 74
     0
  0
LTYPE
  5
140
330
3
100
AcDbSymbolTableRecord
100
AcDbLinetypeTableRecord
  2
PHANTOM2
 70
     0
  3
--..--..--..--
 72
    65
 73
     6
 40
33.0
 49
20.0
 74
     0
 49
-4.0
 74
     0
 49
0.5
 74
     0
 49
-4.0
 74
     0
 49
0.5
 74
     0
 49
-4.0
 74
     0
  0
LTYPE
  5
141
330
3
100
AcDbSymbolTableRecord
100
AcDbLinetypeTableRecord
  2
PHANTOM3
 70
     0
  3
--..--..--..--
 72
    65
 73
     6
 40
50.0
 49
37.0
 74
     0
 49
-4.0
 74
     0
 49
0.5
 74
     0
 49
-4.0
 74
     0
 49
0.5
 74
     0
 49
-4.0
 74
     0
  0
LTYPE
  5
142
330
3
100
AcDbSymbolTableRecord
100
AcDbLinetypeTableRecord
  2
STR3PKT
 70
     0
  3
--...--...--...
 72
    65
 73
     8
 40
31.5
 49
20.0
 74
     0
 49
-2.5
 74
     0
 49
0.5
 74
     0
 49
-2.5
 74
     0
 49
0.5
 74
     0
 49
-2.5
 74
     0
 49
0.5
 74
     0
 49
-2.5
 74
     0
  0
LTYPE
  5
143
330
3
100
AcDbSymbolTableRecord
100
AcDbLinetypeTableRecord
  2
2STRPKT
 70
     0
  3
--.--.--.--.--
 72
    65
 73
     6
 40
28.0
 49
10.0
 74
     0
 49
-2.5
 74
     0
 49
10.0
 74
     0
 49
-2.5
 74
     0
 49
0.5
 74
     0
 49
-2.5
 74
     0
  0
LTYPE
  5
144
330
3
100
AcDbSymbolTableRecord
100
AcDbLinetypeTableRecord
  2
GESTRICHELT2
 70
     0
  3
-- -- -- -- --
 72
    65
 73
     2
 40
25.0
 49
10.0
 74
     0
 49
-15.0
 74
     0
  0
LTYPE
  5
145
330
3
100
AcDbSymbolTableRecord
100
AcDbLinetypeTableRecord
  2
2STR2PKT
 70
     0
  3
--..--..--..--
 72
    65
 73
     8
 40
31.0
 49
10.0
 74
     0
 49
-2.5
 74
     0
 49
10.0
 74
     0
 49
-2.5
 74
     0
 49
0.5
 74
     0
 49
-2.5
 74
     0
 49
0.5
 74
     0
 49
-2.5
 74
     0
  0
LTYPE
  5
146
330
3
100
AcDbSymbolTableRecord
100
AcDbLinetypeTableRecord
  2
STR3PKT2
 70
     0
  3
--...--...--...
 72
    65
 73
     8
 40
21.0
 49
10.0
 74
     0
 49
-2.5
 74
     0
 49
0.5
 74
     0
 49
-2.5
 74
     0
 49
0.5
 74
     0
 49
-2.5
 74
     0
 49
0.5
 74
     0
 49
-2.0
 74
     0
  0
LTYPE
  5
147
330
3
100
AcDbSymbolTableRecord
100
AcDbLinetypeTableRecord
  2
2STR3PKT
 70
     0
  3
--...--...--...
 72
    65
 73
    10
 40
34.0
 49
10.0
 74
     0
 49
-2.5
 74
     0
 49
10.0
 74
     0
 49
-2.5
 74
     0
 49
0.5
 74
     0
 49
-2.5
 74
     0
 49
0.5
 74
     0
 49
-2.5
 74
     0
 49
0.5
 74
     0
 49
-2.5
 74
     0
  0
LTYPE
  5
148
330
3
100
AcDbSymbolTableRecord
100
AcDbLinetypeTableRecord
  2
STRKSTR
 70
     0
  3
-- - -- - -- -
 72
    65
 73
     4
 40
30.0
 49
20.0
 74
     0
 49
-2.5
 74
     0
 49
5.0
 74
     0
 49
-2.5
 74
     0
  0
LTYPE
  5
149
330
3
100
AcDbSymbolTableRecord
100
AcDbLinetypeTableRecord
  2
STRKSTR2
 70
     0
  3
-- - -- - -- -
 72
    65
 73
     6
 40
37.5
 49
20.0
 74
     0
 49
-2.5
 74
     0
 49
5.0
 74
     0
 49
-2.5
 74
     0
 49
5.0
 74
     0
 49
-2.5
 74
     0
  0
LTYPE
  5
14A
330
3
100
AcDbSymbolTableRecord
100
AcDbLinetypeTableRecord
  2
STRKSTR3
 70
     0
  3
-- - -- - -- -
 72
    65
 73
     8
 40
45.0
 49
20.0
 74
     0
 49
-2.5
 74
     0
 49
5.0
 74
     0
 49
-2.5
 74
     0
 49
5.0
 74
     0
 49
-2.5
 74
     0
 49
5.0
 74
     0
 49
-2.5
 74
     0
  0
LTYPE
  5
14B
330
3
100
AcDbSymbolTableRecord
100
AcDbLinetypeTableRecord
  2
PUNKT2
 70
     0
  3
..............
 72
    65
 73
     2
 40
3.5
 49
0.5
 74
     0
 49
-3.0
 74
     0
  0
ENDTAB
  0
TABLE
  2
LAYER
  5
14C
330
0
100
AcDbSymbolTable
 70
    16
  0
LAYER
  5
14D
330
14C
100
AcDbSymbolTableRecord
100
AcDbLayerTableRecord
  2
0
 70
     0
 62
     7
  6
CONTINUOUS
370
    -3
390
3FC
  0
LAYER
  5
14E
330
14C
100
AcDbSymbolTableRecord
100
AcDbLayerTableRecord
  2
LE_GREEN
 70
     0
 62
     3
  6
CONTINUOUS
370
    -3
390
3FC
  0
LAYER
  5
14F
330
14C
100
AcDbSymbolTableRecord
100
AcDbLayerTableRecord
  2
LE_RED
 70
     0
 62
     1
  6
CONTINUOUS
370
    -3
390
3FC
  0
LAYER
  5
150
330
14C
100
AcDbSymbolTableRecord
100
AcDbLayerTableRecord
  2
LE_ALL
 70
     0
 62
     7
  6
CONTINUOUS
370
    50
390
3FC
  0
LAYER
  5
151
330
14C
100
AcDbSymbolTableRecord
100
AcDbLayerTableRecord
  2
LE_HIDDEN1
 70
     0
 62
     3
  6
HIDDEN
370
    -3
390
3FC
  0
LAYER
  5
152
330
14C
100
AcDbSymbolTableRecord
100
AcDbLayerTableRecord
  2
LE_HIDDEN
 70
     0
 62
     7
  6
CONTINUOUS
370
    -3
390
3FC
  0
LAYER
  5
153
330
14C
100
AcDbSymbolTableRecord
100
AcDbLayerTableRecord
  2
LE_MIDDLE
 70
     0
 62
     7
  6
CONTINUOUS
370
    -3
390
3FC
  0
LAYER
  5
154
330
14C
100
AcDbSymbolTableRecord
100
AcDbLayerTableRecord
  2
TXT_YELLOW
 70
     0
 62
     2
  6
CONTINUOUS
370
    -3
390
3FC
  0
LAYER
  5
155
330
14C
100
AcDbSymbolTableRecord
100
AcDbLayerTableRecord
  2
TXT_DIM49
 70
     0
 62
     2
  6
CONTINUOUS
370
    -3
390
3FC
  0
LAYER
  5
156
330
14C
100
AcDbSymbolTableRecord
100
AcDbLayerTableRecord
  2
TXT_ALL
 70
     0
 62
     7
  6
CONTINUOUS
370
    -3
390
3FC
  0
LAYER
  5
157
330
14C
100
AcDbSymbolTableRecord
100
AcDbLayerTableRecord
  2
DIM49
 70
     0
 62
     4
  6
CONTINUOUS
370
    -3
390
3FC
  0
LAYER
  5
158
330
14C
100
AcDbSymbolTableRecord
100
AcDbLayerTableRecord
  2
HATCH
 70
     0
 62
     3
  6
CONTINUOUS
370
    -3
390
3FC
  0
LAYER
  5
159
330
14C
100
AcDbSymbolTableRecord
100
AcDbLayerTableRecord
  2
APPLE
 70
     0
 62
     7
  6
CONTINUOUS
370
    -3
390
3FC
  0
LAYER
  5
15A
330
14C
100
AcDbSymbolTableRecord
100
AcDbLayerTableRecord
  2
10
 70
     0
 62
     7
  6
CONTINUOUS
370
    -3
390
3FC
  0
LAYER
  5
15B
330
14C
100
AcDbSymbolTableRecord
100
AcDbLayerTableRecord
  2
20
 70
     0
 62
     7
  6
CONTINUOUS
370
    -3
390
3FC
  0
LAYER
  5
15C
330
14C
100
AcDbSymbolTableRecord
100
AcDbLayerTableRecord
  2
49
 70
     0
 62
     7
  6
CONTINUOUS
370
    -3
390
3FC
  0
ENDTAB
  0
TABLE
  2
STYLE
  5
15D
330
0
100
AcDbSymbolTable
 70
     5
  0
STYLE
  5
15E
330
15D
100
AcDbSymbolTableRecord
100
AcDbTextStyleTableRecord
  2
MONOTXT
 70
     0
 40
0.0
 41
1.0
 50
0.0
 71
     0
 42
1.0
  3
monotxt.shx
  4

  0
STYLE
  5
15F
330
15D
100
AcDbSymbolTableRecord
100
AcDbTextStyleTableRecord
  2
STANDARD
 70
     0
 40
0.0
 41
1.0
 50
0.0
 71
     0
 42
1.0
  3
txt
  4

  0
STYLE
  5
160
330
15D
100
AcDbSymbolTableRecord
100
AcDbTextStyleTableRecord
  2
ARIAL
 70
     0
 40
0.0
 41
1.0
 50
0.0
 71
     0
 42
1.0
  3
arial.ttf
  4

  0
STYLE
  5
161
330
15D
100
AcDbSymbolTableRecord
100
AcDbTextStyleTableRecord
  2
ARIAL Narrow
 70
     0
 40
0.0
 41
1.0
 50
0.0
 71
     0
 42
1.0
  3
ArialN.ttf
  4

  0
STYLE
  5
162
330
15D
100
AcDbSymbolTableRecord
100
AcDbTextStyleTableRecord
  2
ISOCPEUR
 70
     0
 40
0.0
 41
1.0
 50
0.0
 71
     0
 42
1.0
  3
ISOCPEUR.ttf
  4

  0
ENDTAB
  0
TABLE
  2
VIEW
  5
163
330
0
100
AcDbSymbolTable
 70
     0
  0
ENDTAB
  0
TABLE
  2
UCS
  5
164
330
0
100
AcDbSymbolTable
 70
     0
  0
ENDTAB
  0
TABLE
  2
APPID
  5
165
330
0
100
AcDbSymbolTable
 70
     2
  0
APPID
  5
166
330
165
100
AcDbSymbolTableRecord
100
AcDbRegAppTableRecord
  2
ACAD
 70
     0
  0
APPID
  5
46E
330
165
100
AcDbSymbolTableRecord
100
AcDbRegAppTableRecord
  2
ACAD_MLEADERVER
 70
     0
  0
ENDTAB
  0
TABLE
  2
DIMSTYLE
  5
167
330
0
100
AcDbSymbolTable
 70
     1
100
AcDbDimStyleTable
  0
DIMSTYLE
105
3F9
330
167
100
AcDbSymbolTableRecord
100
AcDbDimStyleTableRecord
  2
ISO-25
 70
     0
 41
2.5
 42
0.625
 43
3.75
 44
1.25
 73
     0
 74
     0
 77
     1
 78
     8
140
2.5
141
2.5
143
0.03937007874016
147
0.625
171
     3
172
     1
178
     0
271
     2
272
     2
274
     3
278
    44
283
     0
284
     8
340
15F
  0
ENDTAB
  0
TABLE
  2
BLOCK_RECORD
  5
168
330
0
100
AcDbSymbolTable
 70
     0
  0
BLOCK_RECORD
  5
1E
330
168
100
AcDbSymbolTableRecord
100
AcDbBlockTableRecord
  2
*Model_Space
340
21
  0
BLOCK_RECORD
  5
1A
330
168
100
AcDbSymbolTableRecord
100
AcDbBlockTableRecord
  2
*Paper_Space
340
1D
  0
ENDTAB
  0
ENDSEC
  0
SECTION
  2
BLOCKS
  0
BLOCK
  5
169
330
1E
100
AcDbEntity
  8
0
100
AcDbBlockBegin
  2
*Model_Space
 70
     0
 10
0.0
 20
0.0
 30
0.0
  3
*Model_Space
  1

  0
ENDBLK
  5
16A
330
1E
100
AcDbEntity
  8
0
100
AcDbBlockEnd
  0
BLOCK
  5
16B
330
1A
100
AcDbEntity
 67
     1
  8
0
100
AcDbBlockBegin
  2
*Paper_Space
 70
     0
 10
0.0
 20
0.0
 30
0.0
  3
*Paper_Space
  1

  0
ENDBLK
  5
16C
330
1A
100
AcDbEntity
 67
     1
  8
0
100
AcDbBlockEnd
  0
ENDSEC
  0
SECTION
  2
ENTITIES
  0
POLYLINE
  5
16D
330
1E
100
AcDbEntity
  8
0
100
AcDb2dPolyline
 66
     1
 10
0.0
 20
0.0
 30
0.0
 70
     1
  0
VERTEX
  5
16E
330
16D
100
AcDbEntity
  8
0
100
AcDbVertex
100
AcDb2dVertex
 10
-482.97047974
 20
298.54518433
 30
0.0
  0
VERTEX
  5
16F
330
16D
100
AcDbEntity
  8
0
100
AcDbVertex
100
AcDb2dVertex
 10
-62.97047974
 20
298.54518433
 30
0.0
  0
VERTEX
  5
170
330
16D
100
AcDbEntity
  8
0
100
AcDbVertex
100
AcDb2dVertex
 10
-62.97047974
 20
595.54518433
 30
0.0
  0
VERTEX
  5
171
330
16D
100
AcDbEntity
  8
0
100
AcDbVertex
100
AcDb2dVertex
 10
-482.97047974
 20
595.54518433
 30
0.0
  0
SEQEND
  5
172
330
16D
100
AcDbEntity
  8
0
  0
POLYLINE
  5
173
330
1E
100
AcDbEntity
  8
0
100
AcDb2dPolyline
 66
     1
 10
0.0
 20
0.0
 30
0.0
 70
     1
  0
VERTEX
  5
174
330
173
100
AcDbEntity
  8
0
100
AcDbVertex
100
AcDb2dVertex
 10
-477.97047974
 20
303.54518433
 30
0.0
  0
VERTEX
  5
175
330
173
100
AcDbEntity
  8
0
100
AcDbVertex
100
AcDb2dVertex
 10
-67.97047974
 20
303.54518433
 30
0.0
  0
VERTEX
  5
176
330
173
100
AcDbEntity
  8
0
100
AcDbVertex
100
AcDb2dVertex
 10
-67.97047974
 20
590.54518433
 30
0.0
  0
VERTEX
  5
177
330
173
100
AcDbEntity
  8
0
100
AcDbVertex
100
AcDb2dVertex
 10
-477.97047974
 20
590.54518433
 30
0.0
  0
SEQEND
  5
178
330
173
100
AcDbEntity
  8
0
  0
LINE
  5
179
330
1E
100
AcDbEntity
  8
0
100
AcDbLine
 10
-252.97047974
 20
303.54518433
 30
0.0
 11
-252.97047974
 21
298.54518433
 31
0.0
  0
LINE
  5
17A
330
1E
100
AcDbEntity
  8
0
100
AcDbLine
 10
-252.97047974
 20
590.54518433
 30
0.0
 11
-252.97047974
 21
595.54518433
 31
0.0
  0
LINE
  5
17B
330
1E
100
AcDbEntity
  8
0
100
AcDbLine
 10
-462.97047974
 20
303.54518433
 30
0.0
 11
-462.97047974
 21
298.54518433
 31
0.0
  0
LINE
  5
17C
330
1E
100
AcDbEntity
  8
0
100
AcDbLine
 10
-462.97047974
 20
590.54518433
 30
0.0
 11
-462.97047974
 21
595.54518433
 31
0.0
  0
TEXT
  5
17D
330
1E
100
AcDbEntity
  8
TXT_ALL
 62
     4
100
AcDbText
 10
-63.97047974
 20
299.54518433
 30
0.0
 40
2.5
  1

 50
90.00020741
100
AcDbText
  0
POLYLINE
  5
17E
330
1E
100
AcDbEntity
  8
0
100
AcDb2dPolyline
 66
     1
 10
0.0
 20
0.0
 30
0.0
  0
VERTEX
  5
17F
330
17E
100
AcDbEntity
  8
0
100
AcDbVertex
100
AcDb2dVertex
 10
-67.97047974
 20
580.54518433
 30
0.0
  0
VERTEX
  5
180
330
17E
100
AcDbEntity
  8
0
100
AcDbVertex
100
AcDb2dVertex
 10
-136.96377974
 20
580.54518433
 30
0.0
  0
VERTEX
  5
181
330
17E
100
AcDbEntity
  8
0
100
AcDbVertex
100
AcDb2dVertex
 10
-136.96377974
 20
590.54518433
 30
0.0
  0
SEQEND
  5
182
330
17E
100
AcDbEntity
  8
0
  0
LINE
  5
183
330
1E
100
AcDbEntity
  8
0
100
AcDbLine
 10
-135.06047974
 20
323.04518433
 30
0.0
 11
-274.95047974
 21
323.04518433
 31
0.0
  0
LINE
  5
184
330
1E
100
AcDbEntity
  8
0
100
AcDbLine
 10
-274.95047974
 20
313.29518433
 30
0.0
 11
-135.06047974
 21
313.29518433
 31
0.0
  0
POLYLINE
  5
185
330
1E
100
AcDbEntity
  8
0
100
AcDb2dPolyline
 66
     1
 10
0.0
 20
0.0
 30
0.0
  0
VERTEX
  5
186
330
185
100
AcDbEntity
  8
0
100
AcDbVertex
100
AcDb2dVertex
 10
-274.95047974
 20
323.04518433
 30
0.0
  0
VERTEX
  5
187
330
185
100
AcDbEntity
  8
0
100
AcDbVertex
100
AcDb2dVertex
 10
-274.95047974
 20
313.29518433
 30
0.0
  0
VERTEX
  5
188
330
185
100
AcDbEntity
  8
0
100
AcDbVertex
100
AcDb2dVertex
 10
-274.95047974
 20
303.54518433
 30
0.0
  0
SEQEND
  5
189
330
185
100
AcDbEntity
  8
0
  0
POLYLINE
  5
18A
330
1E
100
AcDbEntity
  8
0
100
AcDb2dPolyline
 66
     1
 10
0.0
 20
0.0
 30
0.0
  0
VERTEX
  5
18B
330
18A
100
AcDbEntity
  8
0
100
AcDbVertex
100
AcDb2dVertex
 10
-205.00547974
 20
323.04518433
 30
0.0
  0
VERTEX
  5
18C
330
18A
100
AcDbEntity
  8
0
100
AcDbVertex
100
AcDb2dVertex
 10
-205.00547974
 20
313.29518433
 30
0.0
  0
VERTEX
  5
18D
330
18A
100
AcDbEntity
  8
0
100
AcDbVertex
100
AcDb2dVertex
 10
-205.00547974
 20
303.54518433
 30
0.0
  0
SEQEND
  5
18E
330
18A
100
AcDbEntity
  8
0
  0
TEXT
  5
18F
330
1E
100
AcDbEntity
  8
TXT_ALL
100
AcDbText
 10
-272.95047974
 20
316.87018438
 30
0.0
 40
2.5999999
  1
E-mail: verkoop@jonkers-bouwmetaal.nl
  7
ARIAL
 11
-272.95047974
 21
318.17018433
 31
0.0
100
AcDbText
 73
     2
  0
TEXT
  5
190
330
1E
100
AcDbEntity
  8
TXT_ALL
100
AcDbText
 10
-272.95047974
 20
307.12018438
 30
0.0
 40
2.5999999
  1
Telefoon: 0527-685156
  7
ARIAL
 11
-272.95047974
 21
308.42018433
 31
0.0
100
AcDbText
 73
     2
  0
TEXT
  5
191
330
1E
100
AcDbEntity
  8
TXT_ALL
100
AcDbText
 10
-203.00547974
 20
307.12018438
 30
0.0
 40
2.5999999
  1
Website: www.jonkers-bouwmetaal.nl
  7
ARIAL
 11
-203.00547974
 21
308.42018433
 31
0.0
100
AcDbText
 73
     2
  0
TEXT
  5
192
330
1E
100
AcDbEntity
  8
TXT_ALL
100
AcDbText
 10
-203.00547974
 20
316.87018438
 30
0.0
 40
2.5999999
  1
Adres: Hoornse Hop 10, 8321 WX Urk
  7
ARIAL
 11
-203.00547974
 21
318.17018433
 31
0.0
100
AcDbText
 73
     2
  0
TEXT
  5
193
330
1E
100
AcDbEntity
  8
TXT_ALL
100
AcDbText
 10
-474.52851949
 20
584.29518433
 30
0.0
 40
2.5
  1
Art. nr. 91003515
  7
ARIAL
 11
-474.52851949
 21
585.54518433
 31
0.0
100
AcDbText
 73
     2
  0
TEXT
  5
194
330
1E
100
AcDbEntity
  8
TXT_ALL
100
AcDbText
 10
-431.79048267
 20
584.29518433
 30
0.0
 40
2.5
  1
Omschrijving: F3-anker 315x175 80x8
  7
ARIAL
 11
-431.79048267
 21
585.54518433
 31
0.0
100
AcDbText
 73
     2
  0
LINE
  5
195
330
1E
100
AcDbEntity
  8
0
100
AcDbLine
 10
-67.97047974
 20
580.54518433
 30
0.0
 11
-477.97047974
 21
580.54518433
 31
0.0
  0
LINE
  5
196
330
1E
100
AcDbEntity
  8
0
100
AcDbLine
 10
-434.95047974
 20
580.54518433
 30
0.0
 11
-434.95047974
 21
590.54518433
 31
0.0
  0
LINE
  5
197
330
1E
100
AcDbEntity
  8
0
100
AcDbLine
 10
-274.95047974
 20
580.54518433
 30
0.0
 11
-274.95047974
 21
590.54518433
 31
0.0
  0
TEXT
  5
198
330
1E
100
AcDbEntity
  8
TXT_ALL
100
AcDbText
 10
-203.95677974
 20
584.29518433
 30
0.0
 40
2.5
  1
Behandeling: Thermisch Verzinkt
  7
ARIAL
 11
-203.95677974
 21
585.54518433
 31
0.0
100
AcDbText
 73
     2
  0
LINE
  5
199
330
1E
100
AcDbEntity
  8
0
100
AcDbLine
 10
-135.06047974
 20
323.04518433
 30
0.0
 11
-67.97047974
 21
323.04518433
 31
0.0
  0
LINE
  5
19A
330
1E
100
AcDbEntity
  8
0
100
AcDbLine
 10
-135.06047974
 20
303.54518433
 30
0.0
 11
-135.06047974
 21
323.04518433
 31
0.0
  0
LINE
  5
19B
330
1E
100
AcDbEntity
  8
0
100
AcDbLine
 10
-135.06047974
 20
303.54518433
 30
0.0
 11
-135.06047974
 21
323.04518433
 31
0.0
  0
TEXT
  5
19C
330
1E
100
AcDbEntity
  8
TXT_ALL
100
AcDbText
 10
-340.60528165
 20
304.69971775
 30
0.0
 40
2.5
  1

 11
-340.60528165
 21
305.94971775
 31
0.0
100
AcDbText
 73
     2
  0
TEXT
  5
19D
330
1E
100
AcDbEntity
  8
TXT_ALL
100
AcDbText
 10
-219.47009868
 20
314.79518433
 30
0.0
 40
2.5
  1

 11
-219.47009868
 21
316.04518433
 31
0.0
100
AcDbText
 73
     2
  0
POLYLINE
  5
19E
330
1E
100
AcDbEntity
  8
0
100
AcDb2dPolyline
 66
     1
 10
0.0
 20
0.0
 30
0.0
  0
VERTEX
  5
19F
330
19E
100
AcDbEntity
  8
0
100
AcDbVertex
100
AcDb2dVertex
 10
-136.96377974
 20
580.54518433
 30
0.0
  0
VERTEX
  5
1A0
330
19E
100
AcDbEntity
  8
0
100
AcDbVertex
100
AcDb2dVertex
 10
-205.95677974
 20
580.54518433
 30
0.0
  0
VERTEX
  5
1A1
330
19E
100
AcDbEntity
  8
0
100
AcDbVertex
100
AcDb2dVertex
 10
-205.95677974
 20
590.54518433
 30
0.0
  0
SEQEND
  5
1A2
330
19E
100
AcDbEntity
  8
0
  0
TEXT
  5
1A3
330
1E
100
AcDbEntity
  8
TXT_ALL
100
AcDbText
 10
-134.96377974
 20
584.29518433
 30
0.0
 40
2.5
  1
Verpakkingshoeveelheid: 1 st.
  7
ARIAL
 11
-134.96377974
 21
585.54518433
 31
0.0
100
AcDbText
 73
     2
  0
TEXT
  5
1A4
330
1E
100
AcDbEntity
  8
TXT_ALL
100
AcDbText
 10
-272.95047974
 20
584.29518433
 30
0.0
 40
2.5
  1
Materiaal: S355
  7
ARIAL
 11
-272.95047974
 21
585.54518433
 31
0.0
100
AcDbText
 73
     2
  0
TEXT
  5
1A5
330
1E
100
AcDbEntity
  8
TXT_ALL
100
AcDbText
 10
-100.74836932
 20
300.29567448
 30
0.0
 40
1.5
  1
Onderdeel van
  7
ARIAL
 11
-100.74836932
 21
301.04567448
 31
0.0
100
AcDbText
 73
     2
  0
ELLIPSE
  5
1A6
330
1E
100
AcDbEntity
  8
0
100
AcDbEllipse
 10
-448.92785519
 20
399.73327773
 30
0.0
 11
-0.35426922
 21
-1.96837327
 31
0.0
210
0.0
220
0.0
230
1.0
 40
0.4335791
 41
0.0
 42
3.14159265
  0
ELLIPSE
  5
1A7
330
1E
100
AcDbEntity
  8
0
100
AcDbEllipse
 10
-448.92785519
 20
399.73327773
 30
0.0
 11
-0.35426922
 21
-1.96837327
 31
0.0
210
0.0
220
0.0
230
1.0
 40
0.4335791
 41
3.14159265
 42
6.283185307179586
  0
ELLIPSE
  5
1A8
330
1E
100
AcDbEntity
  8
0
100
AcDbEllipse
 10
-453.54812549
 20
398.54623478
 30
0.0
 11
-0.42512306
 21
-2.36204792
 31
0.0
210
0.0
220
0.0
230
1.0
 40
0.4335791
 41
0.0
 42
3.14159265
  0
ELLIPSE
  5
1A9
330
1E
100
AcDbEntity
  8
0
100
AcDbEllipse
 10
-453.54812549
 20
398.54623478
 30
0.0
 11
-0.42512306
 21
-2.36204792
 31
0.0
210
0.0
220
0.0
230
1.0
 40
0.4335791
 41
3.14159265
 42
6.283185307179586
  0
POLYLINE
  5
1AA
330
1E
100
AcDbEntity
  8
0
100
AcDb2dPolyline
 66
     1
 10
0.0
 20
0.0
 30
0.0
  0
VERTEX
  5
1AB
330
1AA
100
AcDbEntity
  8
0
100
AcDbVertex
100
AcDb2dVertex
 10
-446.15569301
 20
412.83275295
 30
0.0
  0
VERTEX
  5
1AC
330
1AA
100
AcDbEntity
  8
0
100
AcDbVertex
100
AcDb2dVertex
 10
-460.94055798
 20
403.0282764
 30
0.0
  0
VERTEX
  5
1AD
330
1AA
100
AcDbEntity
  8
0
100
AcDbVertex
100
AcDb2dVertex
 10
-463.77852868
 20
403.53905638
 30
0.0
  0
SEQEND
  5
1AE
330
1AA
100
AcDbEntity
  8
0
  0
LINE
  5
1AF
330
1E
100
AcDbEntity
  8
0
100
AcDbLine
 10
-448.9936637
 20
413.34353293
 30
0.0
 11
-463.77852868
 21
403.53905638
 31
0.0
  0
LINE
  5
1B0
330
1E
100
AcDbEntity
  8
0
100
AcDbLine
 10
-446.15569301
 20
412.83275295
 30
0.0
 11
-448.9936637
 21
413.34353293
 31
0.0
  0
LINE
  5
1B1
330
1E
100
AcDbEntity
  8
0
100
AcDbLine
 10
-446.15569301
 20
363.58090873
 30
0.0
 11
-446.15569301
 21
353.14873285
 31
0.0
  0
LINE
  5
1B2
330
1E
100
AcDbEntity
  8
0
100
AcDbLine
 10
-446.15569301
 20
412.83275295
 30
0.0
 11
-446.15569301
 21
379.04934535
 31
0.0
  0
POLYLINE
  5
1B3
330
1E
100
AcDbEntity
  8
0
100
AcDb2dPolyline
 66
     1
 10
0.0
 20
0.0
 30
0.0
  0
VERTEX
  5
1B4
330
1B3
100
AcDbEntity
  8
0
100
AcDbVertex
100
AcDb2dVertex
 10
-446.15569301
 20
353.14873285
 30
0.0
  0
VERTEX
  5
1B5
330
1B3
100
AcDbEntity
  8
0
100
AcDbVertex
100
AcDb2dVertex
 10
-460.94055798
 20
343.3442563
 30
0.0
  0
VERTEX
  5
1B6
330
1B3
100
AcDbEntity
  8
0
100
AcDbVertex
100
AcDb2dVertex
 10
-460.94055798
 20
403.0282764
 30
0.0
  0
SEQEND
  5
1B7
330
1B3
100
AcDbEntity
  8
0
  0
POLYLINE
  5
1B8
330
1E
100
AcDbEntity
  8
0
100
AcDb2dPolyline
 66
     1
 10
0.0
 20
0.0
 30
0.0
  0
VERTEX
  5
1B9
330
1B8
100
AcDbEntity
  8
0
100
AcDbVertex
100
AcDb2dVertex
 10
-460.94055798
 20
343.3442563
 30
0.0
  0
VERTEX
  5
1BA
330
1B8
100
AcDbEntity
  8
0
100
AcDbVertex
100
AcDb2dVertex
 10
-463.77852868
 20
343.85503628
 30
0.0
  0
VERTEX
  5
1BB
330
1B8
100
AcDbEntity
  8
0
100
AcDbVertex
100
AcDb2dVertex
 10
-463.77852868
 20
403.53905638
 30
0.0
  0
SEQEND
  5
1BC
330
1B8
100
AcDbEntity
  8
0
  0
LINE
  5
1BD
330
1E
100
AcDbEntity
  8
0
  6
STRICHPUNKT2
 62
     1
100
AcDbLine
 10
-452.48388648
 20
398.35469229
 30
0.0
 11
-454.5722601
 21
398.73055926
 31
0.0
  0
LINE
  5
1BE
330
1E
100
AcDbEntity
  8
0
  6
STRICHPUNKT2
 62
     1
100
AcDbLine
 10
-453.54812549
 20
398.54623478
 30
0.0
 11
-453.54812549
 21
395.16789402
 31
0.0
  0
LINE
  5
1BF
330
1E
100
AcDbEntity
  8
0
  6
STRICHPUNKT2
 62
     1
100
AcDbLine
 10
-453.54812549
 20
398.54623478
 30
0.0
 11
-453.54812549
 21
401.92457554
 31
0.0
  0
LINE
  5
1C0
330
1E
100
AcDbEntity
  8
0
  6
STRICHPUNKT2
 62
     1
100
AcDbLine
 10
-453.54812549
 20
398.54623478
 30
0.0
 11
-451.88482818
 21
399.6492384
 31
0.0
  0
LINE
  5
1C1
330
1E
100
AcDbEntity
  8
0
  6
STRICHPUNKT2
 62
     1
100
AcDbLine
 10
-453.54812549
 20
398.54623478
 30
0.0
 11
-455.2114228
 21
397.44323117
 31
0.0
  0
LINE
  5
1C2
330
1E
100
AcDbEntity
  8
0
  6
STRICHPUNKT2
 62
     1
100
AcDbLine
 10
-448.04098935
 20
399.57365898
 30
0.0
 11
-449.78130069
 21
399.88688146
 31
0.0
  0
LINE
  5
1C3
330
1E
100
AcDbEntity
  8
0
  6
STRICHPUNKT2
 62
     1
100
AcDbLine
 10
-448.92785519
 20
399.73327773
 30
0.0
 11
-448.92785519
 21
396.91799376
 31
0.0
  0
LINE
  5
1C4
330
1E
100
AcDbEntity
  8
0
  6
STRICHPUNKT2
 62
     1
100
AcDbLine
 10
-448.92785519
 20
399.73327773
 30
0.0
 11
-448.92785519
 21
402.5485617
 31
0.0
  0
LINE
  5
1C5
330
1E
100
AcDbEntity
  8
0
  6
STRICHPUNKT2
 62
     1
100
AcDbLine
 10
-448.92785519
 20
399.73327773
 30
0.0
 11
-447.5417741
 21
400.6524474
 31
0.0
  0
LINE
  5
1C6
330
1E
100
AcDbEntity
  8
0
  6
STRICHPUNKT2
 62
     1
100
AcDbLine
 10
-448.92785519
 20
399.73327773
 30
0.0
 11
-450.31393628
 21
398.81410805
 31
0.0
  0
POLYLINE
  5
1C7
330
1E
100
AcDbEntity
  8
0
100
AcDb2dPolyline
 66
     1
 10
0.0
 20
0.0
 30
0.0
  0
VERTEX
  5
1C8
330
1C7
100
AcDbEntity
  8
0
100
AcDbVertex
100
AcDb2dVertex
 10
-446.15569301
 20
353.14873285
 30
0.0
  0
VERTEX
  5
1C9
330
1C7
100
AcDbEntity
  8
0
100
AcDbVertex
100
AcDb2dVertex
 10
-460.94055798
 20
343.3442563
 30
0.0
  0
VERTEX
  5
1CA
330
1C7
100
AcDbEntity
  8
0
100
AcDbVertex
100
AcDb2dVertex
 10
-463.77852868
 20
343.85503628
 30
0.0
  0
SEQEND
  5
1CB
330
1C7
100
AcDbEntity
  8
0
  0
ELLIPSE
  5
1CC
330
1E
100
AcDbEntity
  8
0
100
AcDbEllipse
 10
-443.31772231
 20
352.63795287
 30
0.0
 11
1.76852916
 21
-2.66689044
 31
0.0
210
0.0
220
0.0
230
1.0
 40
0.83225973
 41
4.0396036
 42
5.61039993
  0
POLYLINE
  5
1CD
330
1E
100
AcDbEntity
  8
0
100
AcDb2dPolyline
 66
     1
 10
0.0
 20
0.0
 30
0.0
  0
VERTEX
  5
1CE
330
1CD
100
AcDbEntity
  8
0
100
AcDbVertex
100
AcDb2dVertex
 10
-443.31772231
 20
349.63498331
 30
0.0
  0
VERTEX
  5
1CF
330
1CD
100
AcDbEntity
  8
0
100
AcDbVertex
100
AcDb2dVertex
 10
-458.10258728
 20
339.83050675
 30
0.0
  0
SEQEND
  5
1D0
330
1CD
100
AcDbEntity
  8
0
  0
ELLIPSE
  5
1D1
330
1E
100
AcDbEntity
  8
0
100
AcDbEllipse
 10
-458.10258728
 20
342.83347632
 30
0.0
 11
1.76852916
 21
-2.66689044
 31
0.0
210
0.0
220
0.0
230
1.0
 40
0.83225973
 41
4.0396036
 42
5.61039993
  0
POLYLINE
  5
1D2
330
1E
100
AcDbEntity
  8
0
100
AcDb2dPolyline
 66
     1
 10
0.0
 20
0.0
 30
0.0
  0
VERTEX
  5
1D3
330
1D2
100
AcDbEntity
  8
0
100
AcDbVertex
100
AcDb2dVertex
 10
-458.10258728
 20
339.83050675
 30
0.0
  0
VERTEX
  5
1D4
330
1D2
100
AcDbEntity
  8
0
100
AcDbVertex
100
AcDb2dVertex
 10
-458.10258728
 20
336.82753719
 30
0.0
  0
SEQEND
  5
1D5
330
1D2
100
AcDbEntity
  8
0
  0
ELLIPSE
  5
1D6
330
1E
100
AcDbEntity
  8
0
100
AcDbEllipse
 10
-458.10258728
 20
342.83347632
 30
0.0
 11
3.53705831
 21
-5.33378088
 31
0.0
210
0.0
220
0.0
230
1.0
 40
0.83225973
 41
4.0396036
 42
5.61039993
  0
ELLIPSE
  5
1D7
330
1E
100
AcDbEntity
  8
0
100
AcDbEllipse
 10
-418.78298446
 20
338.98647024
 30
0.0
 11
2.8
 21
0.0
 31
0.0
210
0.0
220
0.0
230
1.0
 40
0.3454749
 41
3.14159265
 42
4.23210953
  0
ELLIPSE
  5
1D8
330
1E
100
AcDbEntity
  8
0
100
AcDbEllipse
 10
-418.78298446
 20
338.98647024
 30
0.0
 11
2.8
 21
0.0
 31
0.0
210
0.0
220
0.0
230
1.0
 40
0.3454749
 41
1.09051687
 42
3.14159265
  0
POLYLINE
  5
1D9
330
1E
100
AcDbEntity
  8
0
100
AcDb2dPolyline
 66
     1
 10
0.0
 20
0.0
 30
0.0
  0
VERTEX
  5
1DA
330
1D9
100
AcDbEntity
  8
0
100
AcDbVertex
100
AcDb2dVertex
 10
-417.48930877
 20
339.84436194
 30
0.0
  0
VERTEX
  5
1DB
330
1D9
100
AcDbEntity
  8
0
100
AcDbVertex
100
AcDb2dVertex
 10
-408.265904
 20
338.184327
 30
0.0
  0
SEQEND
  5
1DC
330
1D9
100
AcDbEntity
  8
0
  0
ELLIPSE
  5
1DD
330
1E
100
AcDbEntity
  8
0
100
AcDbEllipse
 10
-409.55957969
 20
337.3264353
 30
0.0
 11
2.8
 21
0.0
 31
0.0
210
0.0
220
0.0
230
1.0
 40
0.3454749
 41
0.0
 42
1.09051687
  0
ELLIPSE
  5
1DE
330
1E
100
AcDbEntity
  8
0
100
AcDbEllipse
 10
-409.55957969
 20
337.3264353
 30
0.0
 11
2.8
 21
0.0
 31
0.0
210
0.0
220
0.0
230
1.0
 40
0.3454749
 41
4.23210953
 42
6.283185307179586
  0
LINE
  5
1DF
330
1E
100
AcDbEntity
  8
0
100
AcDbLine
 10
-410.85325537
 20
336.4685436
 30
0.0
 11
-420.07666014
 21
338.12857854
 31
0.0
  0
ELLIPSE
  5
1E0
330
1E
100
AcDbEntity
  8
0
100
AcDbEllipse
 10
-360.9593315
 20
328.57932812
 30
0.0
 11
2.8
 21
0.0
 31
0.0
210
0.0
220
0.0
230
1.0
 40
0.3454749
 41
0.0
 42
3.14159265
  0
ELLIPSE
  5
1E1
330
1E
100
AcDbEntity
  8
0
100
AcDbEllipse
 10
-360.9593315
 20
328.57932812
 30
0.0
 11
2.8
 21
0.0
 31
0.0
210
0.0
220
0.0
230
1.0
 40
0.3454749
 41
3.14159265
 42
6.283185307179586
  0
ELLIPSE
  5
1E2
330
1E
100
AcDbEntity
  8
0
100
AcDbEllipse
 10
-440.95463053
 20
342.97693884
 30
0.0
 11
2.8
 21
0.0
 31
0.0
210
0.0
220
0.0
230
1.0
 40
0.3454749
 41
0.0
 42
3.14159265
  0
ELLIPSE
  5
1E3
330
1E
100
AcDbEntity
  8
0
100
AcDbEllipse
 10
-440.95463053
 20
342.97693884
 30
0.0
 11
2.8
 21
0.0
 31
0.0
210
0.0
220
0.0
230
1.0
 40
0.3454749
 41
3.14159265
 42
6.283185307179586
  0
LINE
  5
1E4
330
1E
100
AcDbEntity
  8
0
100
AcDbLine
 10
-352.03343248
 20
320.74010496
 30
0.0
 11
-458.10258728
 21
339.83050675
 31
0.0
  0
LINE
  5
1E5
330
1E
100
AcDbEntity
  8
0
100
AcDbLine
 10
-443.31772231
 20
349.63498331
 30
0.0
 11
-458.10258728
 21
339.83050675
 31
0.0
  0
LINE
  5
1E6
330
1E
100
AcDbEntity
  8
0
100
AcDbLine
 10
-372.58944631
 20
336.90525797
 30
0.0
 11
-337.24856751
 21
330.54458151
 31
0.0
  0
LINE
  5
1E7
330
1E
100
AcDbEntity
  8
0
100
AcDbLine
 10
-443.31772231
 20
349.63498331
 30
0.0
 11
-435.75356804
 21
348.27358145
 31
0.0
  0
LINE
  5
1E8
330
1E
100
AcDbEntity
  8
0
100
AcDbLine
 10
-418.13073237
 20
345.10181097
 30
0.0
 11
-397.23745089
 21
341.34142333
 31
0.0
  0
POLYLINE
  5
1E9
330
1E
100
AcDbEntity
  8
0
100
AcDb2dPolyline
 66
     1
 10
0.0
 20
0.0
 30
0.0
  0
VERTEX
  5
1EA
330
1E9
100
AcDbEntity
  8
0
100
AcDbVertex
100
AcDb2dVertex
 10
-337.24856751
 20
330.54458151
 30
0.0
  0
VERTEX
  5
1EB
330
1E9
100
AcDbEntity
  8
0
100
AcDbVertex
100
AcDb2dVertex
 10
-352.03343248
 20
320.74010496
 30
0.0
  0
VERTEX
  5
1EC
330
1E9
100
AcDbEntity
  8
0
100
AcDbVertex
100
AcDb2dVertex
 10
-352.03343248
 20
317.73713539
 30
0.0
  0
VERTEX
  5
1ED
330
1E9
100
AcDbEntity
  8
0
100
AcDbVertex
100
AcDb2dVertex
 10
-458.10258728
 20
336.82753719
 30
0.0
  0
SEQEND
  5
1EE
330
1E9
100
AcDbEntity
  8
0
  0
LINE
  5
1EF
330
1E
100
AcDbEntity
  8
0
100
AcDbLine
 10
-458.10258728
 20
339.83050675
 30
0.0
 11
-458.10258728
 21
336.82753719
 31
0.0
  0
LINE
  5
1F0
330
1E
100
AcDbEntity
  8
0
100
AcDbLine
 10
-337.24856751
 20
327.54161194
 30
0.0
 11
-352.03343248
 21
317.73713539
 31
0.0
  0
LINE
  5
1F1
330
1E
100
AcDbEntity
  8
0
100
AcDbLine
 10
-337.24856751
 20
330.54458151
 30
0.0
 11
-337.24856751
 21
327.54161194
 31
0.0
  0
LINE
  5
1F2
330
1E
100
AcDbEntity
  8
0
  6
STRICHPUNKT2
 62
     1
100
AcDbLine
 10
-440.95463053
 20
344.29073803
 30
0.0
 11
-440.95463053
 21
342.00960911
 31
0.0
  0
LINE
  5
1F3
330
1E
100
AcDbEntity
  8
0
  6
STRICHPUNKT2
 62
     1
100
AcDbLine
 10
-440.95463053
 20
342.97693884
 30
0.0
 11
-437.22979399
 21
342.30654012
 31
0.0
  0
LINE
  5
1F4
330
1E
100
AcDbEntity
  8
0
  6
STRICHPUNKT2
 62
     1
100
AcDbLine
 10
-440.95463053
 20
342.97693884
 30
0.0
 11
-444.67946707
 21
343.64733757
 31
0.0
  0
LINE
  5
1F5
330
1E
100
AcDbEntity
  8
0
  6
STRICHPUNKT2
 62
     1
100
AcDbLine
 10
-440.95463053
 20
342.97693884
 30
0.0
 11
-439.014117
 21
344.26377639
 31
0.0
  0
LINE
  5
1F6
330
1E
100
AcDbEntity
  8
0
  6
STRICHPUNKT2
 62
     1
100
AcDbLine
 10
-440.95463053
 20
342.97693884
 30
0.0
 11
-442.89514405
 21
341.6901013
 31
0.0
  0
LINE
  5
1F7
330
1E
100
AcDbEntity
  8
0
  6
STRICHPUNKT2
 62
     1
100
AcDbLine
 10
-360.9593315
 20
329.89312731
 30
0.0
 11
-360.9593315
 21
327.61199839
 31
0.0
  0
LINE
  5
1F8
330
1E
100
AcDbEntity
  8
0
  6
STRICHPUNKT2
 62
     1
100
AcDbLine
 10
-360.9593315
 20
328.57932812
 30
0.0
 11
-357.23449496
 21
327.9089294
 31
0.0
  0
LINE
  5
1F9
330
1E
100
AcDbEntity
  8
0
  6
STRICHPUNKT2
 62
     1
100
AcDbLine
 10
-360.9593315
 20
328.57932812
 30
0.0
 11
-364.68416804
 21
329.24972685
 31
0.0
  0
LINE
  5
1FA
330
1E
100
AcDbEntity
  8
0
  6
STRICHPUNKT2
 62
     1
100
AcDbLine
 10
-360.9593315
 20
328.57932812
 30
0.0
 11
-359.01881797
 21
329.86616567
 31
0.0
  0
LINE
  5
1FB
330
1E
100
AcDbEntity
  8
0
  6
STRICHPUNKT2
 62
     1
100
AcDbLine
 10
-360.9593315
 20
328.57932812
 30
0.0
 11
-362.89984503
 21
327.29249058
 31
0.0
  0
LINE
  5
1FC
330
1E
100
AcDbEntity
  8
0
  6
STRICHPUNKT2
 62
     1
100
AcDbLine
 10
-418.78298446
 20
340.30026943
 30
0.0
 11
-418.78298446
 21
337.89574187
 31
0.0
  0
LINE
  5
1FD
330
1E
100
AcDbEntity
  8
0
  6
STRICHPUNKT2
 62
     1
100
AcDbLine
 10
-409.55957969
 20
338.64023449
 30
0.0
 11
-409.55957969
 21
336.35910557
 31
0.0
  0
LINE
  5
1FE
330
1E
100
AcDbEntity
  8
0
  6
STRICHPUNKT2
 62
     1
100
AcDbLine
 10
-422.50782099
 20
339.65686897
 30
0.0
 11
-405.83474315
 21
336.65603658
 31
0.0
  0
LINE
  5
1FF
330
1E
100
AcDbEntity
  8
0
  6
STRICHPUNKT2
 62
     1
100
AcDbLine
 10
-420.72349798
 20
337.69963269
 30
0.0
 11
-416.84247093
 21
340.27330779
 31
0.0
  0
LINE
  5
200
330
1E
100
AcDbEntity
  8
0
  6
STRICHPUNKT2
 62
     1
100
AcDbLine
 10
-411.50009322
 20
336.03959775
 30
0.0
 11
-407.61906616
 21
338.61327285
 31
0.0
  0
ELLIPSE
  5
201
330
1E
100
AcDbEntity
  8
0
100
AcDbEllipse
 10
-430.14343516
 20
392.31523953
 30
0.0
 11
-0.35426922
 21
-1.96837327
 31
0.0
210
0.0
220
0.0
230
1.0
 40
0.4335791
 41
0.0
 42
3.14159265
  0
ELLIPSE
  5
202
330
1E
100
AcDbEntity
  8
0
100
AcDbEllipse
 10
-430.14343516
 20
392.31523953
 30
0.0
 11
-0.35426922
 21
-1.96837327
 31
0.0
210
0.0
220
0.0
230
1.0
 40
0.4335791
 41
3.14159265
 42
6.28318531
  0
ELLIPSE
  5
203
330
1E
100
AcDbEntity
  8
0
100
AcDbEllipse
 10
-425.52316486
 20
393.50228247
 30
0.0
 11
-0.42512306
 21
-2.36204792
 31
0.0
210
0.0
220
0.0
230
1.0
 40
0.4335791
 41
0.0
 42
3.14159265
  0
ELLIPSE
  5
204
330
1E
100
AcDbEntity
  8
0
100
AcDbEllipse
 10
-425.52316486
 20
393.50228247
 30
0.0
 11
-0.42512306
 21
-2.36204792
 31
0.0
210
0.0
220
0.0
230
1.0
 40
0.4335791
 41
3.14159265
 42
6.28318531
  0
POLYLINE
  5
205
330
1E
100
AcDbEntity
  8
0
100
AcDb2dPolyline
 66
     1
 10
0.0
 20
0.0
 30
0.0
  0
VERTEX
  5
206
330
205
100
AcDbEntity
  8
0
100
AcDbVertex
100
AcDb2dVertex
 10
-418.13073237
 20
407.78880063
 30
0.0
  0
VERTEX
  5
207
330
205
100
AcDbEntity
  8
0
100
AcDbVertex
100
AcDb2dVertex
 10
-432.91559735
 20
397.98432408
 30
0.0
  0
VERTEX
  5
208
330
205
100
AcDbEntity
  8
0
100
AcDbVertex
100
AcDb2dVertex
 10
-435.75356804
 20
398.49510407
 30
0.0
  0
SEQEND
  5
209
330
205
100
AcDbEntity
  8
0
  0
LINE
  5
20A
330
1E
100
AcDbEntity
  8
0
100
AcDbLine
 10
-420.96870307
 20
408.29958062
 30
0.0
 11
-435.75356804
 21
398.49510407
 31
0.0
  0
LINE
  5
20B
330
1E
100
AcDbEntity
  8
0
100
AcDbLine
 10
-418.13073237
 20
407.78880063
 30
0.0
 11
-420.96870307
 21
408.29958062
 31
0.0
  0
LINE
  5
20C
330
1E
100
AcDbEntity
  8
0
100
AcDbLine
 10
-418.13073237
 20
372.40293133
 30
0.0
 11
-418.13073237
 21
345.10181097
 31
0.0
  0
LINE
  5
20D
330
1E
100
AcDbEntity
  8
0
100
AcDbLine
 10
-418.13073237
 20
407.78880063
 30
0.0
 11
-418.13073237
 21
404.61032633
 31
0.0
  0
POLYLINE
  5
20E
330
1E
100
AcDbEntity
  8
0
100
AcDb2dPolyline
 66
     1
 10
0.0
 20
0.0
 30
0.0
  0
VERTEX
  5
20F
330
20E
100
AcDbEntity
  8
0
100
AcDbVertex
100
AcDb2dVertex
 10
-418.13073237
 20
345.10181097
 30
0.0
  0
VERTEX
  5
210
330
20E
100
AcDbEntity
  8
0
100
AcDbVertex
100
AcDb2dVertex
 10
-432.91559735
 20
335.29733442
 30
0.0
  0
VERTEX
  5
211
330
20E
100
AcDbEntity
  8
0
100
AcDbVertex
100
AcDb2dVertex
 10
-432.91559735
 20
397.98432408
 30
0.0
  0
SEQEND
  5
212
330
20E
100
AcDbEntity
  8
0
  0
POLYLINE
  5
213
330
1E
100
AcDbEntity
  8
0
100
AcDb2dPolyline
 66
     1
 10
0.0
 20
0.0
 30
0.0
  0
VERTEX
  5
214
330
213
100
AcDbEntity
  8
0
100
AcDbVertex
100
AcDb2dVertex
 10
-432.91559735
 20
335.29733442
 30
0.0
  0
VERTEX
  5
215
330
213
100
AcDbEntity
  8
0
100
AcDbVertex
100
AcDb2dVertex
 10
-435.75356804
 20
335.8081144
 30
0.0
  0
VERTEX
  5
216
330
213
100
AcDbEntity
  8
0
100
AcDbVertex
100
AcDb2dVertex
 10
-435.75356804
 20
398.49510407
 30
0.0
  0
SEQEND
  5
217
330
213
100
AcDbEntity
  8
0
  0
LINE
  5
218
330
1E
100
AcDbEntity
  8
0
  6
STRICHPUNKT2
 62
     1
100
AcDbLine
 10
-424.45892585
 20
393.31073998
 30
0.0
 11
-426.54729947
 21
393.68660694
 31
0.0
  0
LINE
  5
219
330
1E
100
AcDbEntity
  8
0
  6
STRICHPUNKT2
 62
     1
100
AcDbLine
 10
-425.52316486
 20
393.50228247
 30
0.0
 11
-425.52316486
 21
390.12394171
 31
0.0
  0
LINE
  5
21A
330
1E
100
AcDbEntity
  8
0
  6
STRICHPUNKT2
 62
     1
100
AcDbLine
 10
-425.52316486
 20
393.50228247
 30
0.0
 11
-425.52316486
 21
396.88062323
 31
0.0
  0
LINE
  5
21B
330
1E
100
AcDbEntity
  8
0
  6
STRICHPUNKT2
 62
     1
100
AcDbLine
 10
-425.52316486
 20
393.50228247
 30
0.0
 11
-423.85986755
 21
394.60528608
 31
0.0
  0
LINE
  5
21C
330
1E
100
AcDbEntity
  8
0
  6
STRICHPUNKT2
 62
     1
100
AcDbLine
 10
-425.52316486
 20
393.50228247
 30
0.0
 11
-427.18646217
 21
392.39927886
 31
0.0
  0
LINE
  5
21D
330
1E
100
AcDbEntity
  8
0
  6
STRICHPUNKT2
 62
     1
100
AcDbLine
 10
-429.25656932
 20
392.15562078
 30
0.0
 11
-430.99688067
 21
392.46884325
 31
0.0
  0
LINE
  5
21E
330
1E
100
AcDbEntity
  8
0
  6
STRICHPUNKT2
 62
     1
100
AcDbLine
 10
-430.14343516
 20
392.31523953
 30
0.0
 11
-430.14343516
 21
389.49995556
 31
0.0
  0
LINE
  5
21F
330
1E
100
AcDbEntity
  8
0
  6
STRICHPUNKT2
 62
     1
100
AcDbLine
 10
-430.14343516
 20
392.31523953
 30
0.0
 11
-430.14343516
 21
395.13052349
 31
0.0
  0
LINE
  5
220
330
1E
100
AcDbEntity
  8
0
  6
STRICHPUNKT2
 62
     1
100
AcDbLine
 10
-430.14343516
 20
392.31523953
 30
0.0
 11
-428.75735407
 21
393.2344092
 31
0.0
  0
LINE
  5
221
330
1E
100
AcDbEntity
  8
0
  6
STRICHPUNKT2
 62
     1
100
AcDbLine
 10
-430.14343516
 20
392.31523953
 30
0.0
 11
-431.52951626
 21
391.39606985
 31
0.0
  0
LINE
  5
222
330
1E
100
AcDbEntity
  8
0
100
AcDbLine
 10
-460.94055798
 20
369.2448688
 30
0.0
 11
-435.75356804
 21
364.71169646
 31
0.0
  0
LINE
  5
223
330
1E
100
AcDbEntity
  8
0
100
AcDbLine
 10
-446.15569301
 20
379.04934535
 30
0.0
 11
-460.94055798
 21
369.2448688
 31
0.0
  0
LINE
  5
224
330
1E
100
AcDbEntity
  8
0
100
AcDbLine
 10
-435.75356804
 20
377.17716351
 30
0.0
 11
-446.15569301
 21
379.04934535
 31
0.0
  0
LINE
  5
225
330
1E
100
AcDbEntity
  8
0
100
AcDbLine
 10
-435.75356804
 20
361.7087269
 30
0.0
 11
-435.75356804
 21
364.71169646
 31
0.0
  0
LINE
  5
226
330
1E
100
AcDbEntity
  8
0
100
AcDbLine
 10
-460.94055798
 20
366.24189923
 30
0.0
 11
-435.75356804
 21
361.7087269
 31
0.0
  0
LINE
  5
227
330
1E
100
AcDbEntity
  8
0
100
AcDbLine
 10
-460.94055798
 20
366.24189923
 30
0.0
 11
-460.94055798
 21
369.2448688
 31
0.0
  0
LINE
  5
228
330
1E
100
AcDbEntity
  8
0
100
AcDbLine
 10
-371.63547628
 20
335.48701506
 30
0.0
 11
-372.74434116
 21
334.75167932
 31
0.0
  0
LINE
  5
229
330
1E
100
AcDbEntity
  8
0
100
AcDbLine
 10
-420.71808374
 20
406.07301875
 30
0.0
 11
-372.74434116
 21
334.75167932
 31
0.0
  0
LINE
  5
22A
330
1E
100
AcDbEntity
  8
0
100
AcDbLine
 10
-419.60921887
 20
406.80835449
 30
0.0
 11
-420.71808374
 21
406.07301875
 31
0.0
  0
LINE
  5
22B
330
1E
100
AcDbEntity
  8
0
100
AcDbLine
 10
-371.63547628
 20
335.48701506
 30
0.0
 11
-419.60921887
 21
406.80835449
 31
0.0
  0
POLYLINE
  5
22C
330
1E
100
AcDbEntity
  8
0
100
AcDb2dPolyline
 66
     1
 10
0.0
 20
0.0
 30
0.0
  0
VERTEX
  5
22D
330
22C
100
AcDbEntity
  8
0
100
AcDbVertex
100
AcDb2dVertex
 10
-420.71808374
 20
406.07301875
 30
0.0
  0
VERTEX
  5
22E
330
22C
100
AcDbEntity
  8
0
100
AcDbVertex
100
AcDb2dVertex
 10
-420.71808374
 20
376.24948054
 30
0.0
  0
VERTEX
  5
22F
330
22C
100
AcDbEntity
  8
0
100
AcDbVertex
100
AcDb2dVertex
 10
-395.5680033
 20
338.85949824
 30
0.0
  0
VERTEX
  5
230
330
22C
100
AcDbEntity
  8
0
100
AcDbVertex
100
AcDb2dVertex
 10
-372.74434116
 20
334.75167932
 30
0.0
  0
SEQEND
  5
231
330
22C
100
AcDbEntity
  8
0
  0
POLYLINE
  5
232
330
1E
100
AcDbEntity
  8
0
100
AcDb2dPolyline
 66
     1
 10
0.0
 20
0.0
 30
0.0
  0
VERTEX
  5
233
330
232
100
AcDbEntity
  8
0
100
AcDbVertex
100
AcDb2dVertex
 10
-346.97047974
 20
477.97299034
 30
0.0
  0
VERTEX
  5
234
330
232
100
AcDbEntity
  8
0
100
AcDbVertex
100
AcDb2dVertex
 10
-346.97047974
 20
557.47299034
 30
0.0
  0
VERTEX
  5
235
330
232
100
AcDbEntity
  8
0
100
AcDbVertex
100
AcDb2dVertex
 10
-350.97047974
 20
557.47299034
 30
0.0
  0
SEQEND
  5
236
330
232
100
AcDbEntity
  8
0
  0
LINE
  5
237
330
1E
100
AcDbEntity
  8
0
100
AcDbLine
 10
-350.97047974
 20
477.97299034
 30
0.0
 11
-350.97047974
 21
557.47299034
 31
0.0
  0
LINE
  5
238
330
1E
100
AcDbEntity
  8
0
100
AcDbLine
 10
-346.97047974
 20
477.97299034
 30
0.0
 11
-350.97047974
 21
477.97299034
 31
0.0
  0
LINE
  5
239
330
1E
100
AcDbEntity
  8
0
  6
STRICHPUNKT2
 62
     1
100
AcDbLine
 10
-350.97047974
 20
544.97299034
 30
0.0
 11
-352.47047974
 21
544.97299034
 31
0.0
  0
LINE
  5
23A
330
1E
100
AcDbEntity
  8
0
  6
STRICHPUNKT2
 62
     1
100
AcDbLine
 10
-345.47047974
 20
544.97299034
 30
0.0
 11
-346.97047974
 21
544.97299034
 31
0.0
  0
LINE
  5
23B
330
1E
100
AcDbEntity
  8
0
  6
STRICHPUNKT2
 62
     1
100
AcDbLine
 10
-350.97047974
 20
542.47299034
 30
0.0
 11
-352.22047974
 21
542.47299034
 31
0.0
  0
LINE
  5
23C
330
1E
100
AcDbEntity
  8
0
  6
STRICHPUNKT2
 62
     1
100
AcDbLine
 10
-345.72047974
 20
542.47299034
 30
0.0
 11
-346.97047974
 21
542.47299034
 31
0.0
  0
POLYLINE
  5
23D
330
1E
100
AcDbEntity
  8
0
100
AcDb2dPolyline
 66
     1
 10
0.0
 20
0.0
 30
0.0
  0
VERTEX
  5
23E
330
23D
100
AcDbEntity
  8
0
100
AcDbVertex
100
AcDb2dVertex
 10
-342.97047974
 20
473.97299034
 30
0.0
 42
-0.414213562
  0
VERTEX
  5
23F
330
23D
100
AcDbEntity
  8
0
100
AcDbVertex
100
AcDb2dVertex
 10
-346.97047974
 20
477.97299034
 30
0.0
  0
VERTEX
  5
240
330
23D
100
AcDbEntity
  8
0
100
AcDbVertex
100
AcDb2dVertex
 10
-350.97047974
 20
477.97299034
 30
0.0
  0
SEQEND
  5
241
330
23D
100
AcDbEntity
  8
0
  0
ARC
  5
242
330
1E
100
AcDbEntity
  8
0
100
AcDbCircle
 10
-342.97047974
 20
477.97299034
 30
0.0
 40
8.0
100
AcDbArc
 50
180.0
 51
-90.0
  0
LINE
  5
243
330
1E
100
AcDbEntity
  8
0
100
AcDbLine
 10
-342.97047974
 20
473.97299034
 30
0.0
 11
-342.97047974
 21
469.97299034
 31
0.0
  0
POLYLINE
  5
244
330
1E
100
AcDbEntity
  8
0
100
AcDb2dPolyline
 66
     1
 10
0.0
 20
0.0
 30
0.0
  0
VERTEX
  5
245
330
244
100
AcDbEntity
  8
0
100
AcDbVertex
100
AcDb2dVertex
 10
-193.47047974
 20
473.97299034
 30
0.0
  0
VERTEX
  5
246
330
244
100
AcDbEntity
  8
0
100
AcDbVertex
100
AcDb2dVertex
 10
-342.97047974
 20
473.97299034
 30
0.0
  0
VERTEX
  5
247
330
244
100
AcDbEntity
  8
0
100
AcDbVertex
100
AcDb2dVertex
 10
-342.97047974
 20
469.97299034
 30
0.0
  0
SEQEND
  5
248
330
244
100
AcDbEntity
  8
0
  0
LINE
  5
249
330
1E
100
AcDbEntity
  8
0
100
AcDbLine
 10
-193.47047974
 20
469.97299034
 30
0.0
 11
-342.97047974
 21
469.97299034
 31
0.0
  0
LINE
  5
24A
330
1E
100
AcDbEntity
  8
0
100
AcDbLine
 10
-193.47047974
 20
473.97299034
 30
0.0
 11
-193.47047974
 21
469.97299034
 31
0.0
  0
LINE
  5
24B
330
1E
100
AcDbEntity
  8
0
  6
STRICHPUNKT2
 62
     1
100
AcDbLine
 10
-329.22047974
 20
469.97299034
 30
0.0
 11
-329.22047974
 21
468.22299034
 31
0.0
  0
LINE
  5
24C
330
1E
100
AcDbEntity
  8
0
  6
STRICHPUNKT2
 62
     1
100
AcDbLine
 10
-329.22047974
 20
475.72299034
 30
0.0
 11
-329.22047974
 21
473.97299034
 31
0.0
  0
LINE
  5
24D
330
1E
100
AcDbEntity
  8
0
  6
STRICHPUNKT2
 62
     1
100
AcDbLine
 10
-216.47047974
 20
469.97299034
 30
0.0
 11
-216.47047974
 21
468.22299034
 31
0.0
  0
LINE
  5
24E
330
1E
100
AcDbEntity
  8
0
  6
STRICHPUNKT2
 62
     1
100
AcDbLine
 10
-216.47047974
 20
475.72299034
 30
0.0
 11
-216.47047974
 21
473.97299034
 31
0.0
  0
LINE
  5
24F
330
1E
100
AcDbEntity
  8
0
  6
STRICHPUNKT2
 62
     1
100
AcDbLine
 10
-297.97047974
 20
469.97299034
 30
0.0
 11
-297.97047974
 21
468.22299034
 31
0.0
  0
LINE
  5
250
330
1E
100
AcDbEntity
  8
0
  6
STRICHPUNKT2
 62
     1
100
AcDbLine
 10
-297.97047974
 20
475.72299034
 30
0.0
 11
-297.97047974
 21
473.97299034
 31
0.0
  0
LINE
  5
251
330
1E
100
AcDbEntity
  8
0
  6
STRICHPUNKT2
 62
     1
100
AcDbLine
 10
-284.97047974
 20
469.97299034
 30
0.0
 11
-284.97047974
 21
468.22299034
 31
0.0
  0
LINE
  5
252
330
1E
100
AcDbEntity
  8
0
  6
STRICHPUNKT2
 62
     1
100
AcDbLine
 10
-284.97047974
 20
475.72299034
 30
0.0
 11
-284.97047974
 21
473.97299034
 31
0.0
  0
POLYLINE
  5
253
330
1E
100
AcDbEntity
  8
0
100
AcDb2dPolyline
 66
     1
 10
0.0
 20
0.0
 30
0.0
  0
VERTEX
  5
254
330
253
100
AcDbEntity
  8
0
100
AcDbVertex
100
AcDb2dVertex
 10
-307.47047974
 20
473.97299034
 30
0.0
  0
VERTEX
  5
255
330
253
100
AcDbEntity
  8
0
100
AcDbVertex
100
AcDb2dVertex
 10
-307.47047974
 20
557.47299034
 30
0.0
  0
VERTEX
  5
256
330
253
100
AcDbEntity
  8
0
100
AcDbVertex
100
AcDb2dVertex
 10
-311.47047974
 20
557.47299034
 30
0.0
  0
SEQEND
  5
257
330
253
100
AcDbEntity
  8
0
  0
LINE
  5
258
330
1E
100
AcDbEntity
  8
0
100
AcDbLine
 10
-311.47047974
 20
473.97299034
 30
0.0
 11
-311.47047974
 21
557.47299034
 31
0.0
  0
LINE
  5
259
330
1E
100
AcDbEntity
  8
0
100
AcDbLine
 10
-307.47047974
 20
473.97299034
 30
0.0
 11
-311.47047974
 21
473.97299034
 31
0.0
  0
LINE
  5
25A
330
1E
100
AcDbEntity
  8
0
  6
STRICHPUNKT2
 62
     1
100
AcDbLine
 10
-311.47047974
 20
544.97299034
 30
0.0
 11
-312.97047974
 21
544.97299034
 31
0.0
  0
LINE
  5
25B
330
1E
100
AcDbEntity
  8
0
  6
STRICHPUNKT2
 62
     1
100
AcDbLine
 10
-305.97047974
 20
544.97299034
 30
0.0
 11
-307.47047974
 21
544.97299034
 31
0.0
  0
LINE
  5
25C
330
1E
100
AcDbEntity
  8
0
  6
STRICHPUNKT2
 62
     1
100
AcDbLine
 10
-311.47047974
 20
547.47299034
 30
0.0
 11
-312.72047974
 21
547.47299034
 31
0.0
  0
LINE
  5
25D
330
1E
100
AcDbEntity
  8
0
  6
STRICHPUNKT2
 62
     1
100
AcDbLine
 10
-306.22047974
 20
547.47299034
 30
0.0
 11
-307.47047974
 21
547.47299034
 31
0.0
  0
POLYLINE
  5
25E
330
1E
100
AcDbEntity
  8
0
100
AcDb2dPolyline
 66
     1
 10
0.0
 20
0.0
 30
0.0
  0
VERTEX
  5
25F
330
25E
100
AcDbEntity
  8
0
100
AcDbVertex
100
AcDb2dVertex
 10
-346.97047974
 20
508.47299034
 30
0.0
  0
VERTEX
  5
260
330
25E
100
AcDbEntity
  8
0
100
AcDbVertex
100
AcDb2dVertex
 10
-311.47047974
 20
508.47299034
 30
0.0
  0
VERTEX
  5
261
330
25E
100
AcDbEntity
  8
0
100
AcDbVertex
100
AcDb2dVertex
 10
-311.47047974
 20
512.47299034
 30
0.0
  0
SEQEND
  5
262
330
25E
100
AcDbEntity
  8
0
  0
LINE
  5
263
330
1E
100
AcDbEntity
  8
0
100
AcDbLine
 10
-346.97047974
 20
512.47299034
 30
0.0
 11
-311.47047974
 21
512.47299034
 31
0.0
  0
LINE
  5
264
330
1E
100
AcDbEntity
  8
0
100
AcDbLine
 10
-346.97047974
 20
508.47299034
 30
0.0
 11
-346.97047974
 21
512.47299034
 31
0.0
  0
POLYLINE
  5
265
330
1E
100
AcDbEntity
  8
0
100
AcDb2dPolyline
 66
     1
 10
0.0
 20
0.0
 30
0.0
  0
VERTEX
  5
266
330
265
100
AcDbEntity
  8
0
100
AcDbVertex
100
AcDb2dVertex
 10
-307.47047974
 20
517.74759711
 30
0.0
  0
VERTEX
  5
267
330
265
100
AcDbEntity
  8
0
100
AcDbVertex
100
AcDb2dVertex
 10
-272.02250211
 20
473.97299034
 30
0.0
  0
VERTEX
  5
268
330
265
100
AcDbEntity
  8
0
100
AcDbVertex
100
AcDb2dVertex
 10
-239.85351296
 20
473.97299034
 30
0.0
  0
SEQEND
  5
269
330
265
100
AcDbEntity
  8
0
  0
LINE
  5
26A
330
1E
100
AcDbEntity
  8
0
100
AcDbLine
 10
-307.47047974
 20
557.47299235
 30
0.0
 11
-239.85351296
 21
473.97299034
 31
0.0
  0
LINE
  5
26B
330
1E
100
AcDbEntity
  8
0
100
AcDbLine
 10
-307.47047974
 20
557.47299235
 30
0.0
 11
-307.47047974
 21
517.74759711
 31
0.0
  0
POLYLINE
  5
26C
330
1E
100
AcDbEntity
  8
0
100
AcDb2dPolyline
 66
     1
 10
0.0
 20
0.0
 30
0.0
  0
VERTEX
  5
26D
330
26C
100
AcDbEntity
  8
0
100
AcDbVertex
100
AcDb2dVertex
 10
-104.1298963
 20
473.97299034
 30
0.0
  0
VERTEX
  5
26E
330
26C
100
AcDbEntity
  8
0
100
AcDbVertex
100
AcDb2dVertex
 10
-144.1298963
 20
473.97299034
 30
0.0
  0
VERTEX
  5
26F
330
26C
100
AcDbEntity
  8
0
100
AcDbVertex
100
AcDb2dVertex
 10
-144.1298963
 20
469.97299034
 30
0.0
  0
SEQEND
  5
270
330
26C
100
AcDbEntity
  8
0
  0
LINE
  5
271
330
1E
100
AcDbEntity
  8
0
100
AcDbLine
 10
-104.1298963
 20
469.97299034
 30
0.0
 11
-144.1298963
 21
469.97299034
 31
0.0
  0
LINE
  5
272
330
1E
100
AcDbEntity
  8
0
100
AcDbLine
 10
-104.1298963
 20
473.97299034
 30
0.0
 11
-104.1298963
 21
469.97299034
 31
0.0
  0
LINE
  5
273
330
1E
100
AcDbEntity
  8
0
  6
STRICHPUNKT2
 62
     1
100
AcDbLine
 10
-124.1298963
 20
469.97299034
 30
0.0
 11
-124.1298963
 21
468.22299034
 31
0.0
  0
LINE
  5
274
330
1E
100
AcDbEntity
  8
0
  6
STRICHPUNKT2
 62
     1
100
AcDbLine
 10
-124.1298963
 20
475.72299034
 30
0.0
 11
-124.1298963
 21
473.97299034
 31
0.0
  0
CIRCLE
  5
275
330
1E
100
AcDbEntity
  8
0
100
AcDbCircle
 10
-136.6298963
 20
547.47299034
 30
0.0
 40
2.5
  0
CIRCLE
  5
276
330
1E
100
AcDbEntity
  8
0
100
AcDbCircle
 10
-124.1298963
 20
544.97299034
 30
0.0
 40
3.0
  0
LINE
  5
277
330
1E
100
AcDbEntity
  8
0
100
AcDbLine
 10
-144.1298963
 20
473.97299034
 30
0.0
 11
-144.1298963
 21
557.47299034
 31
0.0
  0
LINE
  5
278
330
1E
100
AcDbEntity
  8
0
100
AcDbLine
 10
-104.1298963
 20
557.47299034
 30
0.0
 11
-144.1298963
 21
557.47299034
 31
0.0
  0
LINE
  5
279
330
1E
100
AcDbEntity
  8
0
100
AcDbLine
 10
-104.1298963
 20
557.47299034
 30
0.0
 11
-104.1298963
 21
473.97299034
 31
0.0
  0
LINE
  5
27A
330
1E
100
AcDbEntity
  8
0
100
AcDbLine
 10
-111.1298963
 20
473.97299034
 30
0.0
 11
-144.1298963
 21
473.97299034
 31
0.0
  0
LINE
  5
27B
330
1E
100
AcDbEntity
  8
0
100
AcDbLine
 10
-104.1298963
 20
473.97299034
 30
0.0
 11
-108.1298963
 21
473.97299034
 31
0.0
  0
LINE
  5
27C
330
1E
100
AcDbEntity
  8
0
  6
STRICHPUNKT2
 62
     1
100
AcDbLine
 10
-124.1298963
 20
544.97299034
 30
0.0
 11
-124.1298963
 21
540.47299034
 31
0.0
  0
LINE
  5
27D
330
1E
100
AcDbEntity
  8
0
  6
STRICHPUNKT2
 62
     1
100
AcDbLine
 10
-124.1298963
 20
544.97299034
 30
0.0
 11
-124.1298963
 21
549.47299034
 31
0.0
  0
LINE
  5
27E
330
1E
100
AcDbEntity
  8
0
  6
STRICHPUNKT2
 62
     1
100
AcDbLine
 10
-124.1298963
 20
544.97299034
 30
0.0
 11
-119.6298963
 21
544.97299034
 31
0.0
  0
LINE
  5
27F
330
1E
100
AcDbEntity
  8
0
  6
STRICHPUNKT2
 62
     1
100
AcDbLine
 10
-124.1298963
 20
544.97299034
 30
0.0
 11
-128.6298963
 21
544.97299034
 31
0.0
  0
LINE
  5
280
330
1E
100
AcDbEntity
  8
0
  6
STRICHPUNKT2
 62
     1
100
AcDbLine
 10
-136.6298963
 20
547.47299034
 30
0.0
 11
-136.6298963
 21
543.72299034
 31
0.0
  0
LINE
  5
281
330
1E
100
AcDbEntity
  8
0
  6
STRICHPUNKT2
 62
     1
100
AcDbLine
 10
-136.6298963
 20
547.47299034
 30
0.0
 11
-136.6298963
 21
551.22299034
 31
0.0
  0
LINE
  5
282
330
1E
100
AcDbEntity
  8
0
  6
STRICHPUNKT2
 62
     1
100
AcDbLine
 10
-136.6298963
 20
547.47299034
 30
0.0
 11
-132.8798963
 21
547.47299034
 31
0.0
  0
LINE
  5
283
330
1E
100
AcDbEntity
  8
0
  6
STRICHPUNKT2
 62
     1
100
AcDbLine
 10
-136.6298963
 20
547.47299034
 30
0.0
 11
-140.3798963
 21
547.47299034
 31
0.0
  0
LINE
  5
284
330
1E
100
AcDbEntity
  8
0
100
AcDbLine
 10
-108.1298963
 20
473.97299034
 30
0.0
 11
-111.1298963
 21
473.97299034
 31
0.0
  0
LINE
  5
285
330
1E
100
AcDbEntity
  8
0
100
AcDbLine
 10
-111.1298963
 20
557.47299235
 30
0.0
 11
-111.1298963
 21
473.97299034
 31
0.0
  0
LINE
  5
286
330
1E
100
AcDbEntity
  8
0
100
AcDbLine
 10
-108.1298963
 20
557.47299235
 30
0.0
 11
-111.1298963
 21
557.47299235
 31
0.0
  0
LINE
  5
287
330
1E
100
AcDbEntity
  8
0
100
AcDbLine
 10
-108.1298963
 20
473.97299034
 30
0.0
 11
-108.1298963
 21
557.47299235
 31
0.0
  0
LINE
  5
288
330
1E
100
AcDbEntity
  8
0
  6
DOT
 62
     3
100
AcDbLine
 10
-346.97047974
 20
430.15079835
 30
0.0
 11
-350.97047974
 21
430.15079835
 31
0.0
  0
LINE
  5
289
330
1E
100
AcDbEntity
  8
0
  6
DOT
 62
     3
100
AcDbLine
 10
-346.97047974
 20
425.15079835
 30
0.0
 11
-350.97047974
 21
425.15079835
 31
0.0
  0
LINE
  5
28A
330
1E
100
AcDbEntity
  8
0
  6
DOT
 62
     3
100
AcDbLine
 10
-346.97047974
 20
418.15079835
 30
0.0
 11
-350.97047974
 21
418.15079835
 31
0.0
  0
LINE
  5
28B
330
1E
100
AcDbEntity
  8
0
  6
DOT
 62
     3
100
AcDbLine
 10
-346.97047974
 20
412.15079835
 30
0.0
 11
-350.97047974
 21
412.15079835
 31
0.0
  0
POLYLINE
  5
28C
330
1E
100
AcDbEntity
  8
0
100
AcDb2dPolyline
 66
     1
 10
0.0
 20
0.0
 30
0.0
  0
VERTEX
  5
28D
330
28C
100
AcDbEntity
  8
0
100
AcDbVertex
100
AcDb2dVertex
 10
-346.97047974
 20
435.15079835
 30
0.0
  0
VERTEX
  5
28E
330
28C
100
AcDbEntity
  8
0
100
AcDbVertex
100
AcDb2dVertex
 10
-346.97047974
 20
395.15079835
 30
0.0
  0
VERTEX
  5
28F
330
28C
100
AcDbEntity
  8
0
100
AcDbVertex
100
AcDb2dVertex
 10
-350.97047974
 20
395.15079835
 30
0.0
  0
SEQEND
  5
290
330
28C
100
AcDbEntity
  8
0
  0
LINE
  5
291
330
1E
100
AcDbEntity
  8
0
100
AcDbLine
 10
-350.97047974
 20
435.15079835
 30
0.0
 11
-350.97047974
 21
395.15079835
 31
0.0
  0
LINE
  5
292
330
1E
100
AcDbEntity
  8
0
100
AcDbLine
 10
-346.97047974
 20
435.15079835
 30
0.0
 11
-350.97047974
 21
435.15079835
 31
0.0
  0
LINE
  5
293
330
1E
100
AcDbEntity
  8
0
  6
STRICHPUNKT2
 62
     1
100
AcDbLine
 10
-345.47047974
 20
415.15079835
 30
0.0
 11
-352.47047974
 21
415.15079835
 31
0.0
  0
LINE
  5
294
330
1E
100
AcDbEntity
  8
0
  6
STRICHPUNKT2
 62
     1
100
AcDbLine
 10
-345.72047974
 20
427.65079835
 30
0.0
 11
-352.22047974
 21
427.65079835
 31
0.0
  0
LINE
  5
295
330
1E
100
AcDbEntity
  8
0
  6
DOT
 62
     3
100
AcDbLine
 10
-346.97047974
 20
435.15079835
 30
0.0
 11
-346.97047974
 21
395.15079835
 31
0.0
  0
LINE
  5
296
330
1E
100
AcDbEntity
  8
0
  6
DOT
 62
     3
100
AcDbLine
 10
-342.97047974
 20
435.15079835
 30
0.0
 11
-342.97047974
 21
395.15079835
 31
0.0
  0
POLYLINE
  5
297
330
1E
100
AcDbEntity
  8
0
100
AcDb2dPolyline
 66
     1
 10
0.0
 20
0.0
 30
0.0
 70
     1
  0
VERTEX
  5
298
330
297
100
AcDbEntity
  8
0
100
AcDbVertex
100
AcDb2dVertex
 10
-297.97047974
 20
411.65079835
 30
0.0
 42
-1.0
  0
VERTEX
  5
299
330
297
100
AcDbEntity
  8
0
100
AcDbVertex
100
AcDb2dVertex
 10
-297.97047974
 20
418.65079835
 30
0.0
  0
VERTEX
  5
29A
330
297
100
AcDbEntity
  8
0
100
AcDbVertex
100
AcDb2dVertex
 10
-284.97047974
 20
418.65079835
 30
0.0
 42
-1.0
  0
VERTEX
  5
29B
330
297
100
AcDbEntity
  8
0
100
AcDbVertex
100
AcDb2dVertex
 10
-284.97047974
 20
411.65079835
 30
0.0
  0
SEQEND
  5
29C
330
297
100
AcDbEntity
  8
0
  0
CIRCLE
  5
29D
330
1E
100
AcDbEntity
  8
0
100
AcDbCircle
 10
-216.47047974
 20
415.15079835
 30
0.0
 40
3.5
  0
CIRCLE
  5
29E
330
1E
100
AcDbEntity
  8
0
  6
DOT
 62
     3
100
AcDbCircle
 10
-329.22047974
 20
415.15079835
 30
0.0
 40
3.5
  0
LINE
  5
29F
330
1E
100
AcDbEntity
  8
0
100
AcDbLine
 10
-193.47047974
 20
395.15079835
 30
0.0
 11
-307.47047974
 21
395.15079835
 31
0.0
  0
LINE
  5
2A0
330
1E
100
AcDbEntity
  8
0
  6
DOT
 62
     3
100
AcDbLine
 10
-342.97047974
 20
435.15079835
 30
0.0
 11
-342.97047974
 21
395.15079835
 31
0.0
  0
POLYLINE
  5
2A1
330
1E
100
AcDbEntity
  8
0
100
AcDb2dPolyline
 66
     1
 10
0.0
 20
0.0
 30
0.0
  0
VERTEX
  5
2A2
330
2A1
100
AcDbEntity
  8
0
100
AcDbVertex
100
AcDb2dVertex
 10
-307.47047974
 20
435.15079835
 30
0.0
  0
VERTEX
  5
2A3
330
2A1
100
AcDbEntity
  8
0
100
AcDbVertex
100
AcDb2dVertex
 10
-193.47047974
 20
435.15079835
 30
0.0
  0
VERTEX
  5
2A4
330
2A1
100
AcDbEntity
  8
0
100
AcDbVertex
100
AcDb2dVertex
 10
-193.47047974
 20
395.15079835
 30
0.0
  0
SEQEND
  5
2A5
330
2A1
100
AcDbEntity
  8
0
  0
LINE
  5
2A6
330
1E
100
AcDbEntity
  8
0
  6
STRICHPUNKT2
 62
     1
100
AcDbLine
 10
-329.22047974
 20
415.15079835
 30
0.0
 11
-323.97047974
 21
415.15079835
 31
0.0
  0
LINE
  5
2A7
330
1E
100
AcDbEntity
  8
0
  6
STRICHPUNKT2
 62
     1
100
AcDbLine
 10
-329.22047974
 20
415.15079835
 30
0.0
 11
-334.47047974
 21
415.15079835
 31
0.0
  0
LINE
  5
2A8
330
1E
100
AcDbEntity
  8
0
  6
STRICHPUNKT2
 62
     1
100
AcDbLine
 10
-329.22047974
 20
415.15079835
 30
0.0
 11
-329.22047974
 21
420.40079835
 31
0.0
  0
LINE
  5
2A9
330
1E
100
AcDbEntity
  8
0
  6
STRICHPUNKT2
 62
     1
100
AcDbLine
 10
-329.22047974
 20
415.15079835
 30
0.0
 11
-329.22047974
 21
409.90079835
 31
0.0
  0
LINE
  5
2AA
330
1E
100
AcDbEntity
  8
0
  6
STRICHPUNKT2
 62
     1
100
AcDbLine
 10
-329.22047974
 20
415.15079835
 30
0.0
 11
-323.97047974
 21
415.15079835
 31
0.0
  0
LINE
  5
2AB
330
1E
100
AcDbEntity
  8
0
  6
STRICHPUNKT2
 62
     1
100
AcDbLine
 10
-329.22047974
 20
415.15079835
 30
0.0
 11
-334.47047974
 21
415.15079835
 31
0.0
  0
LINE
  5
2AC
330
1E
100
AcDbEntity
  8
0
  6
STRICHPUNKT2
 62
     1
100
AcDbLine
 10
-329.22047974
 20
415.15079835
 30
0.0
 11
-329.22047974
 21
420.40079835
 31
0.0
  0
LINE
  5
2AD
330
1E
100
AcDbEntity
  8
0
  6
STRICHPUNKT2
 62
     1
100
AcDbLine
 10
-329.22047974
 20
415.15079835
 30
0.0
 11
-329.22047974
 21
409.90079835
 31
0.0
  0
LINE
  5
2AE
330
1E
100
AcDbEntity
  8
0
  6
STRICHPUNKT2
 62
     1
100
AcDbLine
 10
-216.47047974
 20
415.15079835
 30
0.0
 11
-211.22047974
 21
415.15079835
 31
0.0
  0
LINE
  5
2AF
330
1E
100
AcDbEntity
  8
0
  6
STRICHPUNKT2
 62
     1
100
AcDbLine
 10
-216.47047974
 20
415.15079835
 30
0.0
 11
-221.72047974
 21
415.15079835
 31
0.0
  0
LINE
  5
2B0
330
1E
100
AcDbEntity
  8
0
  6
STRICHPUNKT2
 62
     1
100
AcDbLine
 10
-216.47047974
 20
415.15079835
 30
0.0
 11
-216.47047974
 21
420.40079835
 31
0.0
  0
LINE
  5
2B1
330
1E
100
AcDbEntity
  8
0
  6
STRICHPUNKT2
 62
     1
100
AcDbLine
 10
-216.47047974
 20
415.15079835
 30
0.0
 11
-216.47047974
 21
409.90079835
 31
0.0
  0
LINE
  5
2B2
330
1E
100
AcDbEntity
  8
0
  6
STRICHPUNKT2
 62
     1
100
AcDbLine
 10
-216.47047974
 20
415.15079835
 30
0.0
 11
-211.22047974
 21
415.15079835
 31
0.0
  0
LINE
  5
2B3
330
1E
100
AcDbEntity
  8
0
  6
STRICHPUNKT2
 62
     1
100
AcDbLine
 10
-216.47047974
 20
415.15079835
 30
0.0
 11
-221.72047974
 21
415.15079835
 31
0.0
  0
LINE
  5
2B4
330
1E
100
AcDbEntity
  8
0
  6
STRICHPUNKT2
 62
     1
100
AcDbLine
 10
-216.47047974
 20
415.15079835
 30
0.0
 11
-216.47047974
 21
420.40079835
 31
0.0
  0
LINE
  5
2B5
330
1E
100
AcDbEntity
  8
0
  6
STRICHPUNKT2
 62
     1
100
AcDbLine
 10
-216.47047974
 20
415.15079835
 30
0.0
 11
-216.47047974
 21
409.90079835
 31
0.0
  0
LINE
  5
2B6
330
1E
100
AcDbEntity
  8
0
  6
STRICHPUNKT2
 62
     1
100
AcDbLine
 10
-303.22047974
 20
415.15079835
 30
0.0
 11
-279.72047974
 21
415.15079835
 31
0.0
  0
LINE
  5
2B7
330
1E
100
AcDbEntity
  8
0
  6
STRICHPUNKT2
 62
     1
100
AcDbLine
 10
-297.97047974
 20
409.90079835
 30
0.0
 11
-297.97047974
 21
420.40079835
 31
0.0
  0
LINE
  5
2B8
330
1E
100
AcDbEntity
  8
0
  6
STRICHPUNKT2
 62
     1
100
AcDbLine
 10
-284.97047974
 20
409.90079835
 30
0.0
 11
-284.97047974
 21
420.40079835
 31
0.0
  0
LINE
  5
2B9
330
1E
100
AcDbEntity
  8
0
  6
STRICHPUNKT2
 62
     1
100
AcDbLine
 10
-303.22047974
 20
415.15079835
 30
0.0
 11
-279.72047974
 21
415.15079835
 31
0.0
  0
LINE
  5
2BA
330
1E
100
AcDbEntity
  8
0
  6
STRICHPUNKT2
 62
     1
100
AcDbLine
 10
-297.97047974
 20
409.90079835
 30
0.0
 11
-297.97047974
 21
420.40079835
 31
0.0
  0
LINE
  5
2BB
330
1E
100
AcDbEntity
  8
0
  6
STRICHPUNKT2
 62
     1
100
AcDbLine
 10
-284.97047974
 20
409.90079835
 30
0.0
 11
-284.97047974
 21
420.40079835
 31
0.0
  0
LINE
  5
2BC
330
1E
100
AcDbEntity
  8
0
  6
DOT
 62
     3
100
AcDbLine
 10
-307.47047974
 20
405.15079835
 30
0.0
 11
-311.47047974
 21
405.15079835
 31
0.0
  0
LINE
  5
2BD
330
1E
100
AcDbEntity
  8
0
  6
DOT
 62
     3
100
AcDbLine
 10
-307.47047974
 20
400.15079835
 30
0.0
 11
-311.47047974
 21
400.15079835
 31
0.0
  0
LINE
  5
2BE
330
1E
100
AcDbEntity
  8
0
  6
DOT
 62
     3
100
AcDbLine
 10
-307.47047974
 20
418.15079835
 30
0.0
 11
-311.47047974
 21
418.15079835
 31
0.0
  0
LINE
  5
2BF
330
1E
100
AcDbEntity
  8
0
  6
DOT
 62
     3
100
AcDbLine
 10
-307.47047974
 20
412.15079835
 30
0.0
 11
-311.47047974
 21
412.15079835
 31
0.0
  0
POLYLINE
  5
2C0
330
1E
100
AcDbEntity
  8
0
100
AcDb2dPolyline
 66
     1
 10
0.0
 20
0.0
 30
0.0
  0
VERTEX
  5
2C1
330
2C0
100
AcDbEntity
  8
0
100
AcDbVertex
100
AcDb2dVertex
 10
-307.47047974
 20
435.15079835
 30
0.0
  0
VERTEX
  5
2C2
330
2C0
100
AcDbEntity
  8
0
100
AcDbVertex
100
AcDb2dVertex
 10
-307.47047974
 20
395.15079835
 30
0.0
  0
VERTEX
  5
2C3
330
2C0
100
AcDbEntity
  8
0
100
AcDbVertex
100
AcDb2dVertex
 10
-311.47047974
 20
395.15079835
 30
0.0
  0
SEQEND
  5
2C4
330
2C0
100
AcDbEntity
  8
0
  0
LINE
  5
2C5
330
1E
100
AcDbEntity
  8
0
100
AcDbLine
 10
-311.47047974
 20
435.15079835
 30
0.0
 11
-311.47047974
 21
395.15079835
 31
0.0
  0
LINE
  5
2C6
330
1E
100
AcDbEntity
  8
0
100
AcDbLine
 10
-307.47047974
 20
435.15079835
 30
0.0
 11
-311.47047974
 21
435.15079835
 31
0.0
  0
LINE
  5
2C7
330
1E
100
AcDbEntity
  8
0
  6
STRICHPUNKT2
 62
     1
100
AcDbLine
 10
-305.97047974
 20
415.15079835
 30
0.0
 11
-312.97047974
 21
415.15079835
 31
0.0
  0
LINE
  5
2C8
330
1E
100
AcDbEntity
  8
0
  6
STRICHPUNKT2
 62
     1
100
AcDbLine
 10
-306.22047974
 20
402.65079835
 30
0.0
 11
-312.72047974
 21
402.65079835
 31
0.0
  0
LINE
  5
2C9
330
1E
100
AcDbEntity
  8
0
100
AcDbLine
 10
-311.47047974
 20
435.15079835
 30
0.0
 11
-311.47047974
 21
395.15079835
 31
0.0
  0
LINE
  5
2CA
330
1E
100
AcDbEntity
  8
0
100
AcDbLine
 10
-346.97047974
 20
395.15079835
 30
0.0
 11
-311.47047974
 21
395.15079835
 31
0.0
  0
LINE
  5
2CB
330
1E
100
AcDbEntity
  8
0
100
AcDbLine
 10
-346.97047974
 20
435.15079835
 30
0.0
 11
-346.97047974
 21
395.15079835
 31
0.0
  0
LINE
  5
2CC
330
1E
100
AcDbEntity
  8
0
100
AcDbLine
 10
-311.47047974
 20
435.15079835
 30
0.0
 11
-346.97047974
 21
435.15079835
 31
0.0
  0
LINE
  5
2CD
330
1E
100
AcDbEntity
  8
0
  6
DOT
 62
     3
100
AcDbLine
 10
-272.02250211
 20
431.15079835
 30
0.0
 11
-272.02250211
 21
428.15079835
 31
0.0
  0
LINE
  5
2CE
330
1E
100
AcDbEntity
  8
0
100
AcDbLine
 10
-239.85351296
 20
431.15079835
 30
0.0
 11
-239.85351296
 21
428.15079835
 31
0.0
  0
LINE
  5
2CF
330
1E
100
AcDbEntity
  8
0
100
AcDbLine
 10
-307.47047974
 20
428.15079835
 30
0.0
 11
-239.85351296
 21
428.15079835
 31
0.0
  0
LINE
  5
2D0
330
1E
100
AcDbEntity
  8
0
100
AcDbLine
 10
-307.47047974
 20
431.15079835
 30
0.0
 11
-307.47047974
 21
428.15079835
 31
0.0
  0
LINE
  5
2D1
330
1E
100
AcDbEntity
  8
0
100
AcDbLine
 10
-239.85351296
 20
431.15079835
 30
0.0
 11
-307.47047974
 21
431.15079835
 31
0.0
  0
CIRCLE
  5
2D2
330
1E
100
AcDbEntity
  8
0
100
AcDbCircle
 10
-440.1685649
 20
542.47299034
 30
0.0
 40
2.5
  0
CIRCLE
  5
2D3
330
1E
100
AcDbEntity
  8
0
100
AcDbCircle
 10
-427.6685649
 20
544.97299034
 30
0.0
 40
3.0
  0
LINE
  5
2D4
330
1E
100
AcDbEntity
  8
0
100
AcDbLine
 10
-447.6685649
 20
557.47299034
 30
0.0
 11
-407.6685649
 21
557.47299034
 31
0.0
  0
LINE
  5
2D5
330
1E
100
AcDbEntity
  8
0
100
AcDbLine
 10
-407.6685649
 20
477.97299034
 30
0.0
 11
-407.6685649
 21
557.47299034
 31
0.0
  0
LINE
  5
2D6
330
1E
100
AcDbEntity
  8
0
100
AcDbLine
 10
-447.6685649
 20
477.97299034
 30
0.0
 11
-407.6685649
 21
477.97299034
 31
0.0
  0
LINE
  5
2D7
330
1E
100
AcDbEntity
  8
0
100
AcDbLine
 10
-447.6685649
 20
557.47299034
 30
0.0
 11
-447.6685649
 21
477.97299034
 31
0.0
  0
LINE
  5
2D8
330
1E
100
AcDbEntity
  8
0
  6
STRICHPUNKT2
 62
     1
100
AcDbLine
 10
-427.6685649
 20
544.97299034
 30
0.0
 11
-427.6685649
 21
540.47299034
 31
0.0
  0
LINE
  5
2D9
330
1E
100
AcDbEntity
  8
0
  6
STRICHPUNKT2
 62
     1
100
AcDbLine
 10
-427.6685649
 20
544.97299034
 30
0.0
 11
-427.6685649
 21
549.47299034
 31
0.0
  0
LINE
  5
2DA
330
1E
100
AcDbEntity
  8
0
  6
STRICHPUNKT2
 62
     1
100
AcDbLine
 10
-427.6685649
 20
544.97299034
 30
0.0
 11
-432.1685649
 21
544.97299034
 31
0.0
  0
LINE
  5
2DB
330
1E
100
AcDbEntity
  8
0
  6
STRICHPUNKT2
 62
     1
100
AcDbLine
 10
-427.6685649
 20
544.97299034
 30
0.0
 11
-423.1685649
 21
544.97299034
 31
0.0
  0
LINE
  5
2DC
330
1E
100
AcDbEntity
  8
0
  6
STRICHPUNKT2
 62
     1
100
AcDbLine
 10
-440.1685649
 20
542.47299034
 30
0.0
 11
-440.1685649
 21
538.72299034
 31
0.0
  0
LINE
  5
2DD
330
1E
100
AcDbEntity
  8
0
  6
STRICHPUNKT2
 62
     1
100
AcDbLine
 10
-440.1685649
 20
542.47299034
 30
0.0
 11
-440.1685649
 21
546.22299034
 31
0.0
  0
LINE
  5
2DE
330
1E
100
AcDbEntity
  8
0
  6
STRICHPUNKT2
 62
     1
100
AcDbLine
 10
-440.1685649
 20
542.47299034
 30
0.0
 11
-443.9185649
 21
542.47299034
 31
0.0
  0
LINE
  5
2DF
330
1E
100
AcDbEntity
  8
0
  6
STRICHPUNKT2
 62
     1
100
AcDbLine
 10
-440.1685649
 20
542.47299034
 30
0.0
 11
-436.4185649
 21
542.47299034
 31
0.0
  0
LINE
  5
2E0
330
1E
100
AcDbEntity
  8
0
100
AcDbLine
 10
-447.6685649
 20
477.97299034
 30
0.0
 11
-407.6685649
 21
477.97299034
 31
0.0
  0
LINE
  5
2E1
330
1E
100
AcDbEntity
  8
0
100
AcDbLine
 10
-407.6685649
 20
469.97299034
 30
0.0
 11
-407.6685649
 21
477.97299034
 31
0.0
  0
LINE
  5
2E2
330
1E
100
AcDbEntity
  8
0
100
AcDbLine
 10
-447.6685649
 20
469.97299034
 30
0.0
 11
-407.6685649
 21
469.97299034
 31
0.0
  0
LINE
  5
2E3
330
1E
100
AcDbEntity
  8
0
100
AcDbLine
 10
-447.6685649
 20
477.97299034
 30
0.0
 11
-447.6685649
 21
469.97299034
 31
0.0
  0
LINE
  5
2E4
330
1E
100
AcDbEntity
  8
0
100
AcDbLine
 10
-447.6685649
 20
469.97299034
 30
0.0
 11
-407.6685649
 21
469.97299034
 31
0.0
  0
LINE
  5
2E5
330
1E
100
AcDbEntity
  8
0
  6
STRICHPUNKT2
 62
     1
100
AcDbLine
 10
-427.6685649
 20
469.97299034
 30
0.0
 11
-427.6685649
 21
468.22299034
 31
0.0
  0
TEXT
  5
2E6
330
1E
100
AcDbEntity
  8
TXT_DIM49
100
AcDbText
 10
-282.41767806
 20
503.72518855
 30
0.0
 40
2.5
  1
50
 50
39.00123735
  7
ARIAL
100
AcDbText
  0
LINE
  5
2E7
330
1E
100
AcDbEntity
  8
0
 62
     4
100
AcDbLine
 10
-289.59866534
 20
497.26676007
 30
0.0
 11
-289.89431651
 21
494.45382737
 31
0.0
  0
LINE
  5
2E8
330
1E
100
AcDbEntity
  8
0
 62
     4
100
AcDbLine
 10
-270.42871045
 20
510.53845387
 30
0.0
 11
-270.20697207
 21
512.6481534
 31
0.0
  0
LINE
  5
2E9
330
1E
100
AcDbEntity
  8
0
 62
     4
100
AcDbLine
 10
-289.74649093
 20
495.86029372
 30
0.0
 11
-270.31784126
 21
511.59330363
 31
0.0
  0
TEXT
  5
2EA
330
1E
100
AcDbEntity
  8
TXT_DIM49
100
AcDbText
 10
-349.89793189
 20
565.55408014
 30
0.0
 40
2.5
  1
8
  7
ARIAL
100
AcDbText
  0
LINE
  5
2EB
330
1E
100
AcDbEntity
  8
0
 62
     4
100
AcDbLine
 10
-349.97047974
 20
565.05408014
 30
0.0
 11
-351.97047974
 21
563.05408014
 31
0.0
  0
LINE
  5
2EC
330
1E
100
AcDbEntity
  8
0
 62
     4
100
AcDbLine
 10
-347.72047974
 20
563.30408014
 30
0.0
 11
-346.22047974
 21
564.80408014
 31
0.0
  0
LINE
  5
2ED
330
1E
100
AcDbEntity
  8
0
 62
     4
100
AcDbLine
 10
-350.97047974
 20
564.05408014
 30
0.0
 11
-346.97047974
 21
564.05408014
 31
0.0
  0
LINE
  5
2EE
330
1E
100
AcDbEntity
  8
0
 62
     4
100
AcDbLine
 10
-350.97047974
 20
562.05408014
 30
0.0
 11
-350.97047974
 21
566.05408014
 31
0.0
  0
LINE
  5
2EF
330
1E
100
AcDbEntity
  8
0
 62
     4
100
AcDbLine
 10
-346.97047974
 20
562.05408014
 30
0.0
 11
-346.97047974
 21
566.05408014
 31
0.0
  0
TEXT
  5
2F0
330
1E
100
AcDbEntity
  8
TXT_DIM49
100
AcDbText
 10
-331.07538403
 20
565.55408014
 30
0.0
 40
2.5
  1
71
  7
ARIAL
100
AcDbText
  0
LINE
  5
2F1
330
1E
100
AcDbEntity
  8
0
 62
     4
100
AcDbLine
 10
-345.97047974
 20
565.05408014
 30
0.0
 11
-347.97047974
 21
563.05408014
 31
0.0
  0
LINE
  5
2F2
330
1E
100
AcDbEntity
  8
0
 62
     4
100
AcDbLine
 10
-312.22047974
 20
563.30408014
 30
0.0
 11
-310.72047974
 21
564.80408014
 31
0.0
  0
LINE
  5
2F3
330
1E
100
AcDbEntity
  8
0
 62
     4
100
AcDbLine
 10
-346.97047974
 20
564.05408014
 30
0.0
 11
-311.47047974
 21
564.05408014
 31
0.0
  0
LINE
  5
2F4
330
1E
100
AcDbEntity
  8
0
 62
     4
100
AcDbLine
 10
-346.97047974
 20
562.05408014
 30
0.0
 11
-346.97047974
 21
566.05408014
 31
0.0
  0
LINE
  5
2F5
330
1E
100
AcDbEntity
  8
0
 62
     4
100
AcDbLine
 10
-311.47047974
 20
562.05408014
 30
0.0
 11
-311.47047974
 21
566.05408014
 31
0.0
  0
TEXT
  5
2F6
330
1E
100
AcDbEntity
  8
TXT_DIM49
100
AcDbText
 10
-310.39793189
 20
565.55408014
 30
0.0
 40
2.5
  1
8
  7
ARIAL
100
AcDbText
  0
LINE
  5
2F7
330
1E
100
AcDbEntity
  8
0
 62
     4
100
AcDbLine
 10
-310.47047974
 20
565.05408014
 30
0.0
 11
-312.47047974
 21
563.05408014
 31
0.0
  0
LINE
  5
2F8
330
1E
100
AcDbEntity
  8
0
 62
     4
100
AcDbLine
 10
-308.22047974
 20
563.30408014
 30
0.0
 11
-306.72047974
 21
564.80408014
 31
0.0
  0
LINE
  5
2F9
330
1E
100
AcDbEntity
  8
0
 62
     4
100
AcDbLine
 10
-311.47047974
 20
564.05408014
 30
0.0
 11
-307.47047974
 21
564.05408014
 31
0.0
  0
LINE
  5
2FA
330
1E
100
AcDbEntity
  8
0
 62
     4
100
AcDbLine
 10
-311.47047974
 20
562.05408014
 30
0.0
 11
-311.47047974
 21
566.05408014
 31
0.0
  0
LINE
  5
2FB
330
1E
100
AcDbEntity
  8
0
 62
     4
100
AcDbLine
 10
-307.47047974
 20
562.05408014
 30
0.0
 11
-307.47047974
 21
566.05408014
 31
0.0
  0
TEXT
  5
2FC
330
1E
100
AcDbEntity
  8
TXT_DIM49
100
AcDbText
 10
-253.25283624
 20
565.55408014
 30
0.0
 40
2.5
  1
228
  7
ARIAL
100
AcDbText
  0
LINE
  5
2FD
330
1E
100
AcDbEntity
  8
0
 62
     4
100
AcDbLine
 10
-306.47047974
 20
565.05408014
 30
0.0
 11
-308.47047974
 21
563.05408014
 31
0.0
  0
LINE
  5
2FE
330
1E
100
AcDbEntity
  8
0
 62
     4
100
AcDbLine
 10
-194.22047974
 20
563.30408014
 30
0.0
 11
-192.72047974
 21
564.80408014
 31
0.0
  0
LINE
  5
2FF
330
1E
100
AcDbEntity
  8
0
 62
     4
100
AcDbLine
 10
-307.47047974
 20
564.05408014
 30
0.0
 11
-193.47047974
 21
564.05408014
 31
0.0
  0
LINE
  5
300
330
1E
100
AcDbEntity
  8
0
 62
     4
100
AcDbLine
 10
-307.47047974
 20
562.05408014
 30
0.0
 11
-307.47047974
 21
566.05408014
 31
0.0
  0
LINE
  5
301
330
1E
100
AcDbEntity
  8
0
 62
     4
100
AcDbLine
 10
-193.47047974
 20
562.05408014
 30
0.0
 11
-193.47047974
 21
566.05408014
 31
0.0
  0
TEXT
  5
302
330
1E
100
AcDbEntity
  8
TXT_DIM49
100
AcDbText
 10
-275.00283624
 20
461.47299034
 30
0.0
 40
2.5
  1
315
  7
ARIAL
100
AcDbText
  0
LINE
  5
303
330
1E
100
AcDbEntity
  8
0
 62
     4
100
AcDbLine
 10
-194.47047974
 20
458.97299034
 30
0.0
 11
-192.47047974
 21
460.97299034
 31
0.0
  0
LINE
  5
304
330
1E
100
AcDbEntity
  8
0
 62
     4
100
AcDbLine
 10
-350.22047974
 20
460.72299034
 30
0.0
 11
-351.72047974
 21
459.22299034
 31
0.0
  0
LINE
  5
305
330
1E
100
AcDbEntity
  8
0
 62
     4
100
AcDbLine
 10
-193.47047974
 20
459.97299034
 30
0.0
 11
-350.97047974
 21
459.97299034
 31
0.0
  0
LINE
  5
306
330
1E
100
AcDbEntity
  8
0
 62
     4
100
AcDbLine
 10
-193.47047974
 20
461.97299034
 30
0.0
 11
-193.47047974
 21
457.97299034
 31
0.0
  0
LINE
  5
307
330
1E
100
AcDbEntity
  8
0
 62
     4
100
AcDbLine
 10
-350.97047974
 20
461.97299034
 30
0.0
 11
-350.97047974
 21
457.97299034
 31
0.0
  0
TEXT
  5
308
330
1E
100
AcDbEntity
  8
TXT_DIM49
100
AcDbText
 10
-187.35508638
 20
471.04553819
 30
0.0
 40
2.5
  1
8
 50
90.00020741
  7
ARIAL
100
AcDbText
  0
LINE
  5
309
330
1E
100
AcDbEntity
  8
0
 62
     4
100
AcDbLine
 10
-186.85508638
 20
470.97299034
 30
0.0
 11
-184.85508638
 21
468.97299034
 31
0.0
  0
LINE
  5
30A
330
1E
100
AcDbEntity
  8
0
 62
     4
100
AcDbLine
 10
-185.10508638
 20
473.22299034
 30
0.0
 11
-186.60508638
 21
474.72299034
 31
0.0
  0
LINE
  5
30B
330
1E
100
AcDbEntity
  8
0
 62
     4
100
AcDbLine
 10
-185.85508638
 20
469.97299034
 30
0.0
 11
-185.85508638
 21
473.97299034
 31
0.0
  0
LINE
  5
30C
330
1E
100
AcDbEntity
  8
0
 62
     4
100
AcDbLine
 10
-187.85508638
 20
469.97299034
 30
0.0
 11
-183.85508638
 21
469.97299034
 31
0.0
  0
LINE
  5
30D
330
1E
100
AcDbEntity
  8
0
 62
     4
100
AcDbLine
 10
-187.85508638
 20
473.97299034
 30
0.0
 11
-183.85508638
 21
473.97299034
 31
0.0
  0
TEXT
  5
30E
330
1E
100
AcDbEntity
  8
TXT_DIM49
100
AcDbText
 10
-269.63799733
 20
521.93003304
 30
0.0
 40
2.5
  1
225
 50
309.001026524
  7
ARIAL
100
AcDbText
  0
LINE
  5
30F
330
1E
100
AcDbEntity
  8
0
 62
     4
100
AcDbLine
 10
-301.49330604
 20
560.49510129
 30
0.0
 11
-304.29409377
 21
560.86193857
 31
0.0
  0
LINE
  5
310
330
1E
100
AcDbEntity
  8
0
 62
     4
100
AcDbLine
 10
-236.32702852
 20
477.31608392
 30
0.0
 11
-234.22643772
 21
477.04095595
 31
0.0
  0
LINE
  5
311
330
1E
100
AcDbEntity
  8
0
 62
     4
100
AcDbLine
 10
-302.89369991
 20
560.67851993
 30
0.0
 11
-235.27673312
 21
477.17851993
 31
0.0
  0
LINE
  5
312
330
1E
100
AcDbEntity
  8
0
 62
     4
100
AcDbLine
 10
-304.49131706
 20
559.55956529
 30
0.0
 11
-301.29608276
 21
561.79747458
 31
0.0
  0
LINE
  5
313
330
1E
100
AcDbEntity
  8
0
 62
     4
100
AcDbLine
 10
-236.87435027
 20
476.05956529
 30
0.0
 11
-233.67911597
 21
478.29747458
 31
0.0
  0
TEXT
  5
314
330
1E
100
AcDbEntity
  8
TXT_DIM49
100
AcDbText
 10
-359.6011872
 20
487.36808604
 30
0.0
 40
2.5
  1
77
 50
90.00020741
  7
ARIAL
100
AcDbText
  0
LINE
  5
315
330
1E
100
AcDbEntity
  8
0
 62
     4
100
AcDbLine
 10
-359.1011872
 20
470.97299034
 30
0.0
 11
-357.1011872
 21
468.97299034
 31
0.0
  0
LINE
  5
316
330
1E
100
AcDbEntity
  8
0
 62
     4
100
AcDbLine
 10
-357.3511872
 20
507.72299034
 30
0.0
 11
-358.8511872
 21
509.22299034
 31
0.0
  0
LINE
  5
317
330
1E
100
AcDbEntity
  8
0
 62
     4
100
AcDbLine
 10
-358.1011872
 20
469.97299034
 30
0.0
 11
-358.1011872
 21
508.47299034
 31
0.0
  0
LINE
  5
318
330
1E
100
AcDbEntity
  8
0
 62
     4
100
AcDbLine
 10
-356.1011872
 20
469.97299034
 30
0.0
 11
-360.1011872
 21
469.97299034
 31
0.0
  0
LINE
  5
319
330
1E
100
AcDbEntity
  8
0
 62
     4
100
AcDbLine
 10
-356.1011872
 20
508.47299034
 30
0.0
 11
-360.1011872
 21
508.47299034
 31
0.0
  0
TEXT
  5
31A
330
1E
100
AcDbEntity
  8
TXT_DIM49
100
AcDbText
 10
-359.6011872
 20
509.54553819
 30
0.0
 40
2.5
  1
8
 50
90.00020741
  7
ARIAL
100
AcDbText
  0
LINE
  5
31B
330
1E
100
AcDbEntity
  8
0
 62
     4
100
AcDbLine
 10
-359.1011872
 20
509.47299034
 30
0.0
 11
-357.1011872
 21
507.47299034
 31
0.0
  0
LINE
  5
31C
330
1E
100
AcDbEntity
  8
0
 62
     4
100
AcDbLine
 10
-357.3511872
 20
511.72299034
 30
0.0
 11
-358.8511872
 21
513.22299034
 31
0.0
  0
LINE
  5
31D
330
1E
100
AcDbEntity
  8
0
 62
     4
100
AcDbLine
 10
-358.1011872
 20
508.47299034
 30
0.0
 11
-358.1011872
 21
512.47299034
 31
0.0
  0
LINE
  5
31E
330
1E
100
AcDbEntity
  8
0
 62
     4
100
AcDbLine
 10
-356.1011872
 20
508.47299034
 30
0.0
 11
-360.1011872
 21
508.47299034
 31
0.0
  0
LINE
  5
31F
330
1E
100
AcDbEntity
  8
0
 62
     4
100
AcDbLine
 10
-356.1011872
 20
512.47299034
 30
0.0
 11
-360.1011872
 21
512.47299034
 31
0.0
  0
TEXT
  5
320
330
1E
100
AcDbEntity
  8
TXT_DIM49
100
AcDbText
 10
-359.6011872
 20
533.11808604
 30
0.0
 40
2.5
  1
90
 50
90.00020741
  7
ARIAL
100
AcDbText
  0
LINE
  5
321
330
1E
100
AcDbEntity
  8
0
 62
     4
100
AcDbLine
 10
-359.1011872
 20
513.47299034
 30
0.0
 11
-357.1011872
 21
511.47299034
 31
0.0
  0
LINE
  5
322
330
1E
100
AcDbEntity
  8
0
 62
     4
100
AcDbLine
 10
-357.3511872
 20
556.72299034
 30
0.0
 11
-358.8511872
 21
558.22299034
 31
0.0
  0
LINE
  5
323
330
1E
100
AcDbEntity
  8
0
 62
     4
100
AcDbLine
 10
-358.1011872
 20
512.47299034
 30
0.0
 11
-358.1011872
 21
557.47299034
 31
0.0
  0
LINE
  5
324
330
1E
100
AcDbEntity
  8
0
 62
     4
100
AcDbLine
 10
-356.1011872
 20
512.47299034
 30
0.0
 11
-360.1011872
 21
512.47299034
 31
0.0
  0
LINE
  5
325
330
1E
100
AcDbEntity
  8
0
 62
     4
100
AcDbLine
 10
-356.1011872
 20
557.47299034
 30
0.0
 11
-360.1011872
 21
557.47299034
 31
0.0
  0
TEXT
  5
326
330
1E
100
AcDbEntity
  8
TXT_DIM49
100
AcDbText
 10
-368.24664587
 20
510.94063383
 30
0.0
 40
2.5
  1
175
 50
90.00020741
  7
ARIAL
100
AcDbText
  0
LINE
  5
327
330
1E
100
AcDbEntity
  8
0
 62
     4
100
AcDbLine
 10
-365.74664587
 20
556.47299034
 30
0.0
 11
-367.74664587
 21
558.47299034
 31
0.0
  0
LINE
  5
328
330
1E
100
AcDbEntity
  8
0
 62
     4
100
AcDbLine
 10
-367.49664587
 20
470.72299034
 30
0.0
 11
-365.99664587
 21
469.22299034
 31
0.0
  0
LINE
  5
329
330
1E
100
AcDbEntity
  8
0
 62
     4
100
AcDbLine
 10
-366.74664587
 20
557.47299034
 30
0.0
 11
-366.74664587
 21
469.97299034
 31
0.0
  0
LINE
  5
32A
330
1E
100
AcDbEntity
  8
0
 62
     4
100
AcDbLine
 10
-364.74664587
 20
557.47299034
 30
0.0
 11
-368.74664587
 21
557.47299034
 31
0.0
  0
LINE
  5
32B
330
1E
100
AcDbEntity
  8
0
 62
     4
100
AcDbLine
 10
-364.74664587
 20
469.97299034
 30
0.0
 11
-368.74664587
 21
469.97299034
 31
0.0
  0
TEXT
  5
32C
330
1E
100
AcDbEntity
  8
TXT_DIM49
100
AcDbText
 10
-153.90908501
 20
505.94063383
 30
0.0
 40
2.5
  1
155
 50
90.00020741
  7
ARIAL
100
AcDbText
  0
LINE
  5
32D
330
1E
100
AcDbEntity
  8
0
 62
     4
100
AcDbLine
 10
-153.40908501
 20
470.97299034
 30
0.0
 11
-151.40908501
 21
468.97299034
 31
0.0
  0
LINE
  5
32E
330
1E
100
AcDbEntity
  8
0
 62
     4
100
AcDbLine
 10
-151.65908501
 20
546.72299034
 30
0.0
 11
-153.15908501
 21
548.22299034
 31
0.0
  0
LINE
  5
32F
330
1E
100
AcDbEntity
  8
0
 62
     4
100
AcDbLine
 10
-152.40908501
 20
469.97299034
 30
0.0
 11
-152.40908501
 21
547.47299034
 31
0.0
  0
LINE
  5
330
330
1E
100
AcDbEntity
  8
0
 62
     4
100
AcDbLine
 10
-150.40908501
 20
469.97299034
 30
0.0
 11
-154.40908501
 21
469.97299034
 31
0.0
  0
LINE
  5
331
330
1E
100
AcDbEntity
  8
0
 62
     4
100
AcDbLine
 10
-150.40908501
 20
547.47299034
 30
0.0
 11
-154.40908501
 21
547.47299034
 31
0.0
  0
TEXT
  5
332
330
1E
100
AcDbEntity
  8
TXT_DIM49
100
AcDbText
 10
-153.90908501
 20
550.61808604
 30
0.0
 40
2.5
  1
20
 50
90.00020741
  7
ARIAL
100
AcDbText
  0
LINE
  5
333
330
1E
100
AcDbEntity
  8
0
 62
     4
100
AcDbLine
 10
-153.40908501
 20
548.47299034
 30
0.0
 11
-151.40908501
 21
546.47299034
 31
0.0
  0
LINE
  5
334
330
1E
100
AcDbEntity
  8
0
 62
     4
100
AcDbLine
 10
-151.65908501
 20
556.72299034
 30
0.0
 11
-153.15908501
 21
558.22299034
 31
0.0
  0
LINE
  5
335
330
1E
100
AcDbEntity
  8
0
 62
     4
100
AcDbLine
 10
-152.40908501
 20
547.47299034
 30
0.0
 11
-152.40908501
 21
557.47299034
 31
0.0
  0
LINE
  5
336
330
1E
100
AcDbEntity
  8
0
 62
     4
100
AcDbLine
 10
-150.40908501
 20
547.47299034
 30
0.0
 11
-154.40908501
 21
547.47299034
 31
0.0
  0
LINE
  5
337
330
1E
100
AcDbEntity
  8
0
 62
     4
100
AcDbLine
 10
-150.40908501
 20
557.47299034
 30
0.0
 11
-154.40908501
 21
557.47299034
 31
0.0
  0
TEXT
  5
338
330
1E
100
AcDbEntity
  8
TXT_DIM49
100
AcDbText
 10
-165.6298963
 20
504.69063383
 30
0.0
 40
2.5
  1
150
 50
90.00020741
  7
ARIAL
100
AcDbText
  0
LINE
  5
339
330
1E
100
AcDbEntity
  8
0
 62
     4
100
AcDbLine
 10
-163.1298963
 20
543.97299034
 30
0.0
 11
-165.1298963
 21
545.97299034
 31
0.0
  0
LINE
  5
33A
330
1E
100
AcDbEntity
  8
0
 62
     4
100
AcDbLine
 10
-164.8798963
 20
470.72299034
 30
0.0
 11
-163.3798963
 21
469.22299034
 31
0.0
  0
LINE
  5
33B
330
1E
100
AcDbEntity
  8
0
 62
     4
100
AcDbLine
 10
-164.1298963
 20
544.97299034
 30
0.0
 11
-164.1298963
 21
469.97299034
 31
0.0
  0
LINE
  5
33C
330
1E
100
AcDbEntity
  8
0
 62
     4
100
AcDbLine
 10
-162.1298963
 20
544.97299034
 30
0.0
 11
-166.1298963
 21
544.97299034
 31
0.0
  0
LINE
  5
33D
330
1E
100
AcDbEntity
  8
0
 62
     4
100
AcDbLine
 10
-162.1298963
 20
469.97299034
 30
0.0
 11
-166.1298963
 21
469.97299034
 31
0.0
  0
TEXT
  5
33E
330
1E
100
AcDbEntity
  8
TXT_DIM49
100
AcDbText
 10
-165.6298963
 20
549.36808604
 30
0.0
 40
2.5
  1
25
 50
90.00020741
  7
ARIAL
100
AcDbText
  0
LINE
  5
33F
330
1E
100
AcDbEntity
  8
0
 62
     4
100
AcDbLine
 10
-163.1298963
 20
556.47299034
 30
0.0
 11
-165.1298963
 21
558.47299034
 31
0.0
  0
LINE
  5
340
330
1E
100
AcDbEntity
  8
0
 62
     4
100
AcDbLine
 10
-164.8798963
 20
545.72299034
 30
0.0
 11
-163.3798963
 21
544.22299034
 31
0.0
  0
LINE
  5
341
330
1E
100
AcDbEntity
  8
0
 62
     4
100
AcDbLine
 10
-164.1298963
 20
557.47299034
 30
0.0
 11
-164.1298963
 21
544.97299034
 31
0.0
  0
LINE
  5
342
330
1E
100
AcDbEntity
  8
0
 62
     4
100
AcDbLine
 10
-162.1298963
 20
557.47299034
 30
0.0
 11
-166.1298963
 21
557.47299034
 31
0.0
  0
LINE
  5
343
330
1E
100
AcDbEntity
  8
0
 62
     4
100
AcDbLine
 10
-162.1298963
 20
544.97299034
 30
0.0
 11
-166.1298963
 21
544.97299034
 31
0.0
  0
TEXT
  5
344
330
1E
100
AcDbEntity
  8
TXT_DIM49
100
AcDbText
 10
-142.23480059
 20
564.28240162
 30
0.0
 40
2.5
  1
15
  7
ARIAL
100
AcDbText
  0
LINE
  5
345
330
1E
100
AcDbEntity
  8
0
 62
     4
100
AcDbLine
 10
-143.1298963
 20
563.78240162
 30
0.0
 11
-145.1298963
 21
561.78240162
 31
0.0
  0
LINE
  5
346
330
1E
100
AcDbEntity
  8
0
 62
     4
100
AcDbLine
 10
-137.3798963
 20
562.03240162
 30
0.0
 11
-135.8798963
 21
563.53240162
 31
0.0
  0
LINE
  5
347
330
1E
100
AcDbEntity
  8
0
 62
     4
100
AcDbLine
 10
-144.1298963
 20
562.78240162
 30
0.0
 11
-136.6298963
 21
562.78240162
 31
0.0
  0
LINE
  5
348
330
1E
100
AcDbEntity
  8
0
 62
     4
100
AcDbLine
 10
-144.1298963
 20
560.78240162
 30
0.0
 11
-144.1298963
 21
564.78240162
 31
0.0
  0
LINE
  5
349
330
1E
100
AcDbEntity
  8
0
 62
     4
100
AcDbLine
 10
-136.6298963
 20
560.78240162
 30
0.0
 11
-136.6298963
 21
564.78240162
 31
0.0
  0
TEXT
  5
34A
330
1E
100
AcDbEntity
  8
TXT_DIM49
100
AcDbText
 10
-132.23480059
 20
564.28240162
 30
0.0
 40
2.5
  1
25
  7
ARIAL
100
AcDbText
  0
LINE
  5
34B
330
1E
100
AcDbEntity
  8
0
 62
     4
100
AcDbLine
 10
-135.6298963
 20
563.78240162
 30
0.0
 11
-137.6298963
 21
561.78240162
 31
0.0
  0
LINE
  5
34C
330
1E
100
AcDbEntity
  8
0
 62
     4
100
AcDbLine
 10
-124.8798963
 20
562.03240162
 30
0.0
 11
-123.3798963
 21
563.53240162
 31
0.0
  0
LINE
  5
34D
330
1E
100
AcDbEntity
  8
0
 62
     4
100
AcDbLine
 10
-136.6298963
 20
562.78240162
 30
0.0
 11
-124.1298963
 21
562.78240162
 31
0.0
  0
LINE
  5
34E
330
1E
100
AcDbEntity
  8
0
 62
     4
100
AcDbLine
 10
-136.6298963
 20
560.78240162
 30
0.0
 11
-136.6298963
 21
564.78240162
 31
0.0
  0
LINE
  5
34F
330
1E
100
AcDbEntity
  8
0
 62
     4
100
AcDbLine
 10
-124.1298963
 20
560.78240162
 30
0.0
 11
-124.1298963
 21
564.78240162
 31
0.0
  0
TEXT
  5
350
330
1E
100
AcDbEntity
  8
TXT_DIM49
100
AcDbText
 10
-115.98480059
 20
564.28240162
 30
0.0
 40
2.5
  1
40
  7
ARIAL
100
AcDbText
  0
LINE
  5
351
330
1E
100
AcDbEntity
  8
0
 62
     4
100
AcDbLine
 10
-123.1298963
 20
563.78240162
 30
0.0
 11
-125.1298963
 21
561.78240162
 31
0.0
  0
LINE
  5
352
330
1E
100
AcDbEntity
  8
0
 62
     4
100
AcDbLine
 10
-104.8798963
 20
562.03240162
 30
0.0
 11
-103.3798963
 21
563.53240162
 31
0.0
  0
LINE
  5
353
330
1E
100
AcDbEntity
  8
0
 62
     4
100
AcDbLine
 10
-124.1298963
 20
562.78240162
 30
0.0
 11
-104.1298963
 21
562.78240162
 31
0.0
  0
LINE
  5
354
330
1E
100
AcDbEntity
  8
0
 62
     4
100
AcDbLine
 10
-124.1298963
 20
560.78240162
 30
0.0
 11
-124.1298963
 21
564.78240162
 31
0.0
  0
LINE
  5
355
330
1E
100
AcDbEntity
  8
0
 62
     4
100
AcDbLine
 10
-104.1298963
 20
560.78240162
 30
0.0
 11
-104.1298963
 21
564.78240162
 31
0.0
  0
LINE
  5
356
330
1E
100
AcDbEntity
  8
0
 62
     4
100
AcDbLine
 10
-124.1298963
 20
544.97299034
 30
0.0
 11
-121.6679931
 21
535.66105504
 31
0.0
  0
TEXT
  5
357
330
1E
100
AcDbEntity
  8
TXT_DIM49
100
AcDbText
 10
-121.6679931
 20
534.41105504
 30
0.0
 40
2.5
  1
Ø12
  7
ARIAL
 11
-121.6679931
 21
535.66105504
 31
0.0
100
AcDbText
 73
     2
  0
LINE
  5
358
330
1E
100
AcDbEntity
  8
0
 62
     5
100
AcDbLine
 10
-136.6298963
 20
547.47299034
 30
0.0
 11
-134.59340351
 21
538.67060784
 31
0.0
  0
TEXT
  5
359
330
1E
100
AcDbEntity
  8
TXT_DIM49
100
AcDbText
 10
-134.59340351
 20
537.42060784
 30
0.0
 40
2.5
  1
Ø10
  7
ARIAL
 11
-134.59340351
 21
538.67060784
 31
0.0
100
AcDbText
 73
     2
  0
TEXT
  5
35A
330
1E
100
AcDbEntity
  8
TXT_DIM49
100
AcDbText
 10
-341.95038403
 20
444.61834005
 30
0.0
 40
2.5
  1
44
  7
ARIAL
100
AcDbText
  0
LINE
  5
35B
330
1E
100
AcDbEntity
  8
0
 62
     4
100
AcDbLine
 10
-349.97047974
 20
444.11834005
 30
0.0
 11
-351.97047974
 21
442.11834005
 31
0.0
  0
LINE
  5
35C
330
1E
100
AcDbEntity
  8
0
 62
     4
100
AcDbLine
 10
-329.97047974
 20
442.36834005
 30
0.0
 11
-328.47047974
 21
443.86834005
 31
0.0
  0
LINE
  5
35D
330
1E
100
AcDbEntity
  8
0
 62
     4
100
AcDbLine
 10
-350.97047974
 20
443.11834005
 30
0.0
 11
-329.22047974
 21
443.11834005
 31
0.0
  0
LINE
  5
35E
330
1E
100
AcDbEntity
  8
0
 62
     4
100
AcDbLine
 10
-350.97047974
 20
441.11834005
 30
0.0
 11
-350.97047974
 21
445.11834005
 31
0.0
  0
LINE
  5
35F
330
1E
100
AcDbEntity
  8
0
 62
     4
100
AcDbLine
 10
-329.22047974
 20
441.11834005
 30
0.0
 11
-329.22047974
 21
445.11834005
 31
0.0
  0
TEXT
  5
360
330
1E
100
AcDbEntity
  8
TXT_DIM49
100
AcDbText
 10
-312.20038403
 20
444.61834005
 30
0.0
 40
2.5
  1
76
  7
ARIAL
100
AcDbText
  0
LINE
  5
361
330
1E
100
AcDbEntity
  8
0
 62
     4
100
AcDbLine
 10
-328.22047974
 20
444.11834005
 30
0.0
 11
-330.22047974
 21
442.11834005
 31
0.0
  0
LINE
  5
362
330
1E
100
AcDbEntity
  8
0
 62
     4
100
AcDbLine
 10
-292.22047974
 20
442.36834005
 30
0.0
 11
-290.72047974
 21
443.86834005
 31
0.0
  0
LINE
  5
363
330
1E
100
AcDbEntity
  8
0
 62
     4
100
AcDbLine
 10
-329.22047974
 20
443.11834005
 30
0.0
 11
-291.47047974
 21
443.11834005
 31
0.0
  0
LINE
  5
364
330
1E
100
AcDbEntity
  8
0
 62
     4
100
AcDbLine
 10
-329.22047974
 20
441.11834005
 30
0.0
 11
-329.22047974
 21
445.11834005
 31
0.0
  0
LINE
  5
365
330
1E
100
AcDbEntity
  8
0
 62
     4
100
AcDbLine
 10
-291.47047974
 20
441.11834005
 30
0.0
 11
-291.47047974
 21
445.11834005
 31
0.0
  0
TEXT
  5
366
330
1E
100
AcDbEntity
  8
TXT_DIM49
100
AcDbText
 10
-256.75283624
 20
444.61834005
 30
0.0
 40
2.5
  1
150
  7
ARIAL
100
AcDbText
  0
LINE
  5
367
330
1E
100
AcDbEntity
  8
0
 62
     4
100
AcDbLine
 10
-290.47047974
 20
444.11834005
 30
0.0
 11
-292.47047974
 21
442.11834005
 31
0.0
  0
LINE
  5
368
330
1E
100
AcDbEntity
  8
0
 62
     4
100
AcDbLine
 10
-217.22047974
 20
442.36834005
 30
0.0
 11
-215.72047974
 21
443.86834005
 31
0.0
  0
LINE
  5
369
330
1E
100
AcDbEntity
  8
0
 62
     4
100
AcDbLine
 10
-291.47047974
 20
443.11834005
 30
0.0
 11
-216.47047974
 21
443.11834005
 31
0.0
  0
LINE
  5
36A
330
1E
100
AcDbEntity
  8
0
 62
     4
100
AcDbLine
 10
-291.47047974
 20
441.11834005
 30
0.0
 11
-291.47047974
 21
445.11834005
 31
0.0
  0
LINE
  5
36B
330
1E
100
AcDbEntity
  8
0
 62
     4
100
AcDbLine
 10
-216.47047974
 20
441.11834005
 30
0.0
 11
-216.47047974
 21
445.11834005
 31
0.0
  0
TEXT
  5
36C
330
1E
100
AcDbEntity
  8
TXT_DIM49
100
AcDbText
 10
-206.82538403
 20
444.61834005
 30
0.0
 40
2.5
  1
46
  7
ARIAL
100
AcDbText
  0
LINE
  5
36D
330
1E
100
AcDbEntity
  8
0
 62
     4
100
AcDbLine
 10
-215.47047974
 20
444.11834005
 30
0.0
 11
-217.47047974
 21
442.11834005
 31
0.0
  0
LINE
  5
36E
330
1E
100
AcDbEntity
  8
0
 62
     4
100
AcDbLine
 10
-194.22047974
 20
442.36834005
 30
0.0
 11
-192.72047974
 21
443.86834005
 31
0.0
  0
LINE
  5
36F
330
1E
100
AcDbEntity
  8
0
 62
     4
100
AcDbLine
 10
-216.47047974
 20
443.11834005
 30
0.0
 11
-193.47047974
 21
443.11834005
 31
0.0
  0
LINE
  5
370
330
1E
100
AcDbEntity
  8
0
 62
     4
100
AcDbLine
 10
-216.47047974
 20
441.11834005
 30
0.0
 11
-216.47047974
 21
445.11834005
 31
0.0
  0
LINE
  5
371
330
1E
100
AcDbEntity
  8
0
 62
     4
100
AcDbLine
 10
-193.47047974
 20
441.11834005
 30
0.0
 11
-193.47047974
 21
445.11834005
 31
0.0
  0
TEXT
  5
372
330
1E
100
AcDbEntity
  8
TXT_DIM49
100
AcDbText
 10
-187.18784261
 20
423.29589406
 30
0.0
 40
2.5
  1
40
 50
90.00020741
  7
ARIAL
100
AcDbText
  0
LINE
  5
373
330
1E
100
AcDbEntity
  8
0
 62
     4
100
AcDbLine
 10
-184.68784261
 20
434.15079835
 30
0.0
 11
-186.68784261
 21
436.15079835
 31
0.0
  0
LINE
  5
374
330
1E
100
AcDbEntity
  8
0
 62
     4
100
AcDbLine
 10
-186.43784261
 20
415.90079835
 30
0.0
 11
-184.93784261
 21
414.40079835
 31
0.0
  0
LINE
  5
375
330
1E
100
AcDbEntity
  8
0
 62
     4
100
AcDbLine
 10
-185.68784261
 20
435.15079835
 30
0.0
 11
-185.68784261
 21
415.15079835
 31
0.0
  0
LINE
  5
376
330
1E
100
AcDbEntity
  8
0
 62
     4
100
AcDbLine
 10
-187.68784261
 20
435.15079835
 30
0.0
 11
-183.68784261
 21
435.15079835
 31
0.0
  0
LINE
  5
377
330
1E
100
AcDbEntity
  8
0
 62
     4
100
AcDbLine
 10
-187.68784261
 20
415.15079835
 30
0.0
 11
-183.68784261
 21
415.15079835
 31
0.0
  0
TEXT
  5
378
330
1E
100
AcDbEntity
  8
TXT_DIM49
100
AcDbText
 10
-187.18784261
 20
403.29589406
 30
0.0
 40
2.5
  1
40
 50
90.00020741
  7
ARIAL
100
AcDbText
  0
LINE
  5
379
330
1E
100
AcDbEntity
  8
0
 62
     4
100
AcDbLine
 10
-184.68784261
 20
414.15079835
 30
0.0
 11
-186.68784261
 21
416.15079835
 31
0.0
  0
LINE
  5
37A
330
1E
100
AcDbEntity
  8
0
 62
     4
100
AcDbLine
 10
-186.43784261
 20
395.90079835
 30
0.0
 11
-184.93784261
 21
394.40079835
 31
0.0
  0
LINE
  5
37B
330
1E
100
AcDbEntity
  8
0
 62
     4
100
AcDbLine
 10
-185.68784261
 20
415.15079835
 30
0.0
 11
-185.68784261
 21
395.15079835
 31
0.0
  0
LINE
  5
37C
330
1E
100
AcDbEntity
  8
0
 62
     4
100
AcDbLine
 10
-187.68784261
 20
415.15079835
 30
0.0
 11
-183.68784261
 21
415.15079835
 31
0.0
  0
LINE
  5
37D
330
1E
100
AcDbEntity
  8
0
 62
     4
100
AcDbLine
 10
-187.68784261
 20
395.15079835
 30
0.0
 11
-183.68784261
 21
395.15079835
 31
0.0
  0
TEXT
  5
37E
330
1E
100
AcDbEntity
  8
TXT_DIM49
100
AcDbText
 10
-234.13823119
 20
432.22334621
 30
0.0
 40
2.5
  1
8
 50
90.00020741
  7
ARIAL
100
AcDbText
  0
LINE
  5
37F
330
1E
100
AcDbEntity
  8
0
 62
     4
100
AcDbLine
 10
-231.63823119
 20
434.15079835
 30
0.0
 11
-233.63823119
 21
436.15079835
 31
0.0
  0
LINE
  5
380
330
1E
100
AcDbEntity
  8
0
 62
     4
100
AcDbLine
 10
-233.38823119
 20
431.90079835
 30
0.0
 11
-231.88823119
 21
430.40079835
 31
0.0
  0
LINE
  5
381
330
1E
100
AcDbEntity
  8
0
 62
     4
100
AcDbLine
 10
-232.63823119
 20
435.15079835
 30
0.0
 11
-232.63823119
 21
431.15079835
 31
0.0
  0
LINE
  5
382
330
1E
100
AcDbEntity
  8
0
 62
     4
100
AcDbLine
 10
-232.63823119
 20
433.15079835
 30
0.0
 11
-233.13823139
 21
433.15079838
 31
0.0
  0
LINE
  5
383
330
1E
100
AcDbEntity
  8
0
 62
     4
100
AcDbLine
 10
-234.63823119
 20
435.15079835
 30
0.0
 11
-230.63823119
 21
435.15079835
 31
0.0
  0
LINE
  5
384
330
1E
100
AcDbEntity
  8
0
 62
     4
100
AcDbLine
 10
-234.63823119
 20
431.15079835
 30
0.0
 11
-230.63823119
 21
431.15079835
 31
0.0
  0
TEXT
  5
385
330
1E
100
AcDbEntity
  8
TXT_DIM49
100
AcDbText
 10
-234.13823119
 20
427.0184421
 30
0.0
 40
2.5
  1
6
 50
90.00020741
  7
ARIAL
100
AcDbText
  0
LINE
  5
386
330
1E
100
AcDbEntity
  8
0
 62
     4
100
AcDbLine
 10
-231.63823119
 20
430.15079835
 30
0.0
 11
-233.63823119
 21
432.15079835
 31
0.0
  0
LINE
  5
387
330
1E
100
AcDbEntity
  8
0
 62
     4
100
AcDbLine
 10
-233.38823119
 20
428.90079835
 30
0.0
 11
-231.88823119
 21
427.40079835
 31
0.0
  0
LINE
  5
388
330
1E
100
AcDbEntity
  8
0
 62
     4
100
AcDbLine
 10
-232.63823119
 20
431.15079835
 30
0.0
 11
-232.63823119
 21
426.01844171
 31
0.0
  0
LINE
  5
389
330
1E
100
AcDbEntity
  8
0
 62
     4
100
AcDbLine
 10
-232.63823119
 20
429.65079835
 30
0.0
 11
-233.13823139
 21
429.4878559
 31
0.0
  0
LINE
  5
38A
330
1E
100
AcDbEntity
  8
0
 62
     4
100
AcDbLine
 10
-234.63823119
 20
431.15079835
 30
0.0
 11
-230.63823119
 21
431.15079835
 31
0.0
  0
LINE
  5
38B
330
1E
100
AcDbEntity
  8
0
 62
     4
100
AcDbLine
 10
-234.63823119
 20
428.15079835
 30
0.0
 11
-230.63823119
 21
428.15079835
 31
0.0
  0
TEXT
  5
38C
330
1E
100
AcDbEntity
  8
TXT_DIM49
100
AcDbText
 10
-234.13823119
 20
409.79589406
 30
0.0
 40
2.5
  1
66
 50
90.00020741
  7
ARIAL
100
AcDbText
  0
LINE
  5
38D
330
1E
100
AcDbEntity
  8
0
 62
     4
100
AcDbLine
 10
-231.63823119
 20
427.15079835
 30
0.0
 11
-233.63823119
 21
429.15079835
 31
0.0
  0
LINE
  5
38E
330
1E
100
AcDbEntity
  8
0
 62
     4
100
AcDbLine
 10
-233.38823119
 20
395.90079835
 30
0.0
 11
-231.88823119
 21
394.40079835
 31
0.0
  0
LINE
  5
38F
330
1E
100
AcDbEntity
  8
0
 62
     4
100
AcDbLine
 10
-232.63823119
 20
428.15079835
 30
0.0
 11
-232.63823119
 21
395.15079835
 31
0.0
  0
LINE
  5
390
330
1E
100
AcDbEntity
  8
0
 62
     4
100
AcDbLine
 10
-234.63823119
 20
428.15079835
 30
0.0
 11
-230.63823119
 21
428.15079835
 31
0.0
  0
LINE
  5
391
330
1E
100
AcDbEntity
  8
0
 62
     4
100
AcDbLine
 10
-234.63823119
 20
395.15079835
 30
0.0
 11
-230.63823119
 21
395.15079835
 31
0.0
  0
LINE
  5
392
330
1E
100
AcDbEntity
  8
0
 62
     5
100
AcDbLine
 10
-329.22047974
 20
415.15079835
 30
0.0
 11
-325.23985043
 21
404.68862632
 31
0.0
  0
TEXT
  5
393
330
1E
100
AcDbEntity
  8
TXT_DIM49
100
AcDbText
 10
-325.23985043
 20
403.43862632
 30
0.0
 40
2.5
  1
Ø14
  7
ARIAL
 11
-325.23985043
 21
404.68862632
 31
0.0
100
AcDbText
 73
     2
  0
LINE
  5
394
330
1E
100
AcDbEntity
  8
0
 62
     5
100
AcDbLine
 10
-291.47047974
 20
415.15079835
 30
0.0
 11
-288.30747882
 21
403.99753061
 31
0.0
  0
TEXT
  5
395
330
1E
100
AcDbEntity
  8
TXT_DIM49
100
AcDbText
 10
-288.30747882
 20
402.74753061
 30
0.0
 40
2.5
  1
Slobgat 14 x 40
  7
ARIAL
 11
-288.30747882
 21
403.99753061
 31
0.0
100
AcDbText
 73
     2
  0
LINE
  5
396
330
1E
100
AcDbEntity
  8
0
 62
     5
100
AcDbLine
 10
-216.47047974
 20
415.15079835
 30
0.0
 11
-213.05919172
 21
404.68862632
 31
0.0
  0
TEXT
  5
397
330
1E
100
AcDbEntity
  8
TXT_DIM49
100
AcDbText
 10
-213.05919172
 20
403.43862632
 30
0.0
 40
2.5
  1
Ø14
  7
ARIAL
 11
-213.05919172
 21
404.68862632
 31
0.0
100
AcDbText
 73
     2
  0
TEXT
  5
398
330
1E
100
AcDbEntity
  8
TXT_DIM49
100
AcDbText
 10
-445.77346919
 20
564.28240162
 30
0.0
 40
2.5
  1
15
  7
ARIAL
100
AcDbText
  0
LINE
  5
399
330
1E
100
AcDbEntity
  8
0
 62
     4
100
AcDbLine
 10
-446.6685649
 20
563.78240162
 30
0.0
 11
-448.6685649
 21
561.78240162
 31
0.0
  0
LINE
  5
39A
330
1E
100
AcDbEntity
  8
0
 62
     4
100
AcDbLine
 10
-440.9185649
 20
562.03240162
 30
0.0
 11
-439.4185649
 21
563.53240162
 31
0.0
  0
LINE
  5
39B
330
1E
100
AcDbEntity
  8
0
 62
     4
100
AcDbLine
 10
-447.6685649
 20
562.78240162
 30
0.0
 11
-440.1685649
 21
562.78240162
 31
0.0
  0
LINE
  5
39C
330
1E
100
AcDbEntity
  8
0
 62
     4
100
AcDbLine
 10
-447.6685649
 20
560.78240162
 30
0.0
 11
-447.6685649
 21
564.78240162
 31
0.0
  0
LINE
  5
39D
330
1E
100
AcDbEntity
  8
0
 62
     4
100
AcDbLine
 10
-440.1685649
 20
560.78240162
 30
0.0
 11
-440.1685649
 21
564.78240162
 31
0.0
  0
TEXT
  5
39E
330
1E
100
AcDbEntity
  8
TXT_DIM49
100
AcDbText
 10
-435.77346919
 20
564.28240162
 30
0.0
 40
2.5
  1
25
  7
ARIAL
100
AcDbText
  0
LINE
  5
39F
330
1E
100
AcDbEntity
  8
0
 62
     4
100
AcDbLine
 10
-439.1685649
 20
563.78240162
 30
0.0
 11
-441.1685649
 21
561.78240162
 31
0.0
  0
LINE
  5
3A0
330
1E
100
AcDbEntity
  8
0
 62
     4
100
AcDbLine
 10
-428.4185649
 20
562.03240162
 30
0.0
 11
-426.9185649
 21
563.53240162
 31
0.0
  0
LINE
  5
3A1
330
1E
100
AcDbEntity
  8
0
 62
     4
100
AcDbLine
 10
-440.1685649
 20
562.78240162
 30
0.0
 11
-427.6685649
 21
562.78240162
 31
0.0
  0
LINE
  5
3A2
330
1E
100
AcDbEntity
  8
0
 62
     4
100
AcDbLine
 10
-440.1685649
 20
560.78240162
 30
0.0
 11
-440.1685649
 21
564.78240162
 31
0.0
  0
LINE
  5
3A3
330
1E
100
AcDbEntity
  8
0
 62
     4
100
AcDbLine
 10
-427.6685649
 20
560.78240162
 30
0.0
 11
-427.6685649
 21
564.78240162
 31
0.0
  0
TEXT
  5
3A4
330
1E
100
AcDbEntity
  8
TXT_DIM49
100
AcDbText
 10
-419.52346919
 20
564.28240162
 30
0.0
 40
2.5
  1
40
  7
ARIAL
100
AcDbText
  0
LINE
  5
3A5
330
1E
100
AcDbEntity
  8
0
 62
     4
100
AcDbLine
 10
-426.6685649
 20
563.78240162
 30
0.0
 11
-428.6685649
 21
561.78240162
 31
0.0
  0
LINE
  5
3A6
330
1E
100
AcDbEntity
  8
0
 62
     4
100
AcDbLine
 10
-408.4185649
 20
562.03240162
 30
0.0
 11
-406.9185649
 21
563.53240162
 31
0.0
  0
LINE
  5
3A7
330
1E
100
AcDbEntity
  8
0
 62
     4
100
AcDbLine
 10
-427.6685649
 20
562.78240162
 30
0.0
 11
-407.6685649
 21
562.78240162
 31
0.0
  0
LINE
  5
3A8
330
1E
100
AcDbEntity
  8
0
 62
     4
100
AcDbLine
 10
-427.6685649
 20
560.78240162
 30
0.0
 11
-427.6685649
 21
564.78240162
 31
0.0
  0
LINE
  5
3A9
330
1E
100
AcDbEntity
  8
0
 62
     4
100
AcDbLine
 10
-407.6685649
 20
560.78240162
 30
0.0
 11
-407.6685649
 21
564.78240162
 31
0.0
  0
TEXT
  5
3AA
330
1E
100
AcDbEntity
  8
TXT_DIM49
100
AcDbText
 10
-458.24553016
 20
503.44063383
 30
0.0
 40
2.5
  1
145
 50
90.00020741
  7
ARIAL
100
AcDbText
  0
LINE
  5
3AB
330
1E
100
AcDbEntity
  8
0
 62
     4
100
AcDbLine
 10
-457.74553016
 20
470.97299034
 30
0.0
 11
-455.74553016
 21
468.97299034
 31
0.0
  0
LINE
  5
3AC
330
1E
100
AcDbEntity
  8
0
 62
     4
100
AcDbLine
 10
-455.99553016
 20
541.72299034
 30
0.0
 11
-457.49553016
 21
543.22299034
 31
0.0
  0
LINE
  5
3AD
330
1E
100
AcDbEntity
  8
0
 62
     4
100
AcDbLine
 10
-456.74553016
 20
469.97299034
 30
0.0
 11
-456.74553016
 21
542.47299034
 31
0.0
  0
LINE
  5
3AE
330
1E
100
AcDbEntity
  8
0
 62
     4
100
AcDbLine
 10
-454.74553016
 20
469.97299034
 30
0.0
 11
-458.74553016
 21
469.97299034
 31
0.0
  0
LINE
  5
3AF
330
1E
100
AcDbEntity
  8
0
 62
     4
100
AcDbLine
 10
-454.74553016
 20
542.47299034
 30
0.0
 11
-458.74553016
 21
542.47299034
 31
0.0
  0
TEXT
  5
3B0
330
1E
100
AcDbEntity
  8
TXT_DIM49
100
AcDbText
 10
-458.24553016
 20
548.11808604
 30
0.0
 40
2.5
  1
30
 50
90.00020741
  7
ARIAL
100
AcDbText
  0
LINE
  5
3B1
330
1E
100
AcDbEntity
  8
0
 62
     4
100
AcDbLine
 10
-457.74553016
 20
543.47299034
 30
0.0
 11
-455.74553016
 21
541.47299034
 31
0.0
  0
LINE
  5
3B2
330
1E
100
AcDbEntity
  8
0
 62
     4
100
AcDbLine
 10
-455.99553016
 20
556.72299034
 30
0.0
 11
-457.49553016
 21
558.22299034
 31
0.0
  0
LINE
  5
3B3
330
1E
100
AcDbEntity
  8
0
 62
     4
100
AcDbLine
 10
-456.74553016
 20
542.47299034
 30
0.0
 11
-456.74553016
 21
557.47299034
 31
0.0
  0
LINE
  5
3B4
330
1E
100
AcDbEntity
  8
0
 62
     4
100
AcDbLine
 10
-454.74553016
 20
542.47299034
 30
0.0
 11
-458.74553016
 21
542.47299034
 31
0.0
  0
LINE
  5
3B5
330
1E
100
AcDbEntity
  8
0
 62
     4
100
AcDbLine
 10
-454.74553016
 20
557.47299034
 30
0.0
 11
-458.74553016
 21
557.47299034
 31
0.0
  0
TEXT
  5
3B6
330
1E
100
AcDbEntity
  8
TXT_DIM49
100
AcDbText
 10
-400.45012055
 20
549.36808604
 30
0.0
 40
2.5
  1
25
 50
90.00020741
  7
ARIAL
100
AcDbText
  0
LINE
  5
3B7
330
1E
100
AcDbEntity
  8
0
 62
     4
100
AcDbLine
 10
-397.95012055
 20
556.47299034
 30
0.0
 11
-399.95012055
 21
558.47299034
 31
0.0
  0
LINE
  5
3B8
330
1E
100
AcDbEntity
  8
0
 62
     4
100
AcDbLine
 10
-399.70012055
 20
545.72299034
 30
0.0
 11
-398.20012055
 21
544.22299034
 31
0.0
  0
LINE
  5
3B9
330
1E
100
AcDbEntity
  8
0
 62
     4
100
AcDbLine
 10
-398.95012055
 20
557.47299034
 30
0.0
 11
-398.95012055
 21
544.97299034
 31
0.0
  0
LINE
  5
3BA
330
1E
100
AcDbEntity
  8
0
 62
     4
100
AcDbLine
 10
-400.95012055
 20
557.47299034
 30
0.0
 11
-396.95012055
 21
557.47299034
 31
0.0
  0
LINE
  5
3BB
330
1E
100
AcDbEntity
  8
0
 62
     4
100
AcDbLine
 10
-400.95012055
 20
544.97299034
 30
0.0
 11
-396.95012055
 21
544.97299034
 31
0.0
  0
TEXT
  5
3BC
330
1E
100
AcDbEntity
  8
TXT_DIM49
100
AcDbText
 10
-400.45012055
 20
504.69063383
 30
0.0
 40
2.5
  1
150
 50
90.00020741
  7
ARIAL
100
AcDbText
  0
LINE
  5
3BD
330
1E
100
AcDbEntity
  8
0
 62
     4
100
AcDbLine
 10
-397.95012055
 20
543.97299034
 30
0.0
 11
-399.95012055
 21
545.97299034
 31
0.0
  0
LINE
  5
3BE
330
1E
100
AcDbEntity
  8
0
 62
     4
100
AcDbLine
 10
-399.70012055
 20
470.72299034
 30
0.0
 11
-398.20012055
 21
469.22299034
 31
0.0
  0
LINE
  5
3BF
330
1E
100
AcDbEntity
  8
0
 62
     4
100
AcDbLine
 10
-398.95012055
 20
544.97299034
 30
0.0
 11
-398.95012055
 21
469.97299034
 31
0.0
  0
LINE
  5
3C0
330
1E
100
AcDbEntity
  8
0
 62
     4
100
AcDbLine
 10
-400.95012055
 20
544.97299034
 30
0.0
 11
-396.95012055
 21
544.97299034
 31
0.0
  0
LINE
  5
3C1
330
1E
100
AcDbEntity
  8
0
 62
     4
100
AcDbLine
 10
-400.95012055
 20
469.97299034
 30
0.0
 11
-396.95012055
 21
469.97299034
 31
0.0
  0
LINE
  5
3C2
330
1E
100
AcDbEntity
  8
0
 62
     5
100
AcDbLine
 10
-440.1685649
 20
542.47299034
 30
0.0
 11
-437.40739473
 21
532.07314573
 31
0.0
  0
TEXT
  5
3C3
330
1E
100
AcDbEntity
  8
TXT_DIM49
100
AcDbText
 10
-437.40739473
 20
530.82314573
 30
0.0
 40
2.5
  1
Ø10
  7
ARIAL
 11
-437.40739473
 21
532.07314573
 31
0.0
100
AcDbText
 73
     2
  0
LINE
  5
3C4
330
1E
100
AcDbEntity
  8
0
 62
     5
100
AcDbLine
 10
-427.6685649
 20
544.97299034
 30
0.0
 11
-424.57113703
 21
535.17076928
 31
0.0
  0
TEXT
  5
3C5
330
1E
100
AcDbEntity
  8
TXT_DIM49
100
AcDbText
 10
-424.57113703
 20
533.92076928
 30
0.0
 40
2.5
  1
Ø12
  7
ARIAL
 11
-424.57113703
 21
535.17076928
 31
0.0
100
AcDbText
 73
     2
  0
POINT
  5
3C6
330
1E
100
AcDbEntity
  8
0
100
AcDbPoint
 10
-272.97047974
 20
474.67518433
 30
0.0
  0
POINT
  5
3C7
330
1E
100
AcDbEntity
  8
0
 62
     3
100
AcDbPoint
 10
-134.30111242
 20
304.33786639
 30
0.0
  0
POINT
  5
3C8
330
1E
100
AcDbEntity
  8
0
 62
     3
100
AcDbPoint
 10
-68.43669872
 20
322.25686129
 30
0.0
  0
POINT
  5
3C9
330
1E
100
AcDbEntity
  8
0
 62
     3
100
AcDbPoint
 10
-134.30111242
 20
322.25686129
 30
0.0
  0
POINT
  5
3CA
330
1E
100
AcDbEntity
  8
0
 62
     3
100
AcDbPoint
 10
-68.43669872
 20
304.33786639
 30
0.0
  0
POINT
  5
3CB
330
1E
100
AcDbEntity
  8
0
 62
     3
100
AcDbPoint
 10
-86.12805366
 20
298.65518433
 30
0.0
  0
POINT
  5
3CC
330
1E
100
AcDbEntity
  8
0
 62
     3
100
AcDbPoint
 10
-68.43602169
 20
303.46845773
 30
0.0
  0
POINT
  5
3CD
330
1E
100
AcDbEntity
  8
0
 62
     3
100
AcDbPoint
 10
-86.12805366
 20
303.46845773
 30
0.0
  0
POINT
  5
3CE
330
1E
100
AcDbEntity
  8
0
 62
     3
100
AcDbPoint
 10
-68.43602169
 20
298.65518433
 30
0.0
  0
ENDSEC
  0
SECTION
  2
OBJECTS
  0
DICTIONARY
  5
C
330
0
100
AcDbDictionary
281
     1
  3
ACAD_DETAILVIEWSTYLE
350
475
  3
ACAD_GROUP
350
D
  3
ACAD_LAYOUT
350
19
  3
ACAD_MATERIAL
350
428
  3
ACAD_MLEADERSTYLE
350
42E
  3
ACAD_MLINESTYLE
350
16
  3
ACAD_PLOTSETTINGS
350
3FA
  3
ACAD_PLOTSTYLENAME
350
3FB
  3
ACAD_SCALELIST
350
3FD
  3
ACAD_SECTIONVIEWSTYLE
350
476
  3
ACAD_TABLESTYLE
350
42C
  3
ACAD_VISUALSTYLE
350
40F
  3
ACDB_RECOMPOSE_DATA
350
471
  3
AcDbVariableDictionary
350
432
  0
DICTIONARY
  5
430
330
1
100
AcDbDictionary
280
     1
281
     1
  3
ACAD_XREC_ROUNDTRIP
360
431
  0
DICTIONARY
  5
475
102
{ACAD_REACTORS
330
C
102
}
330
C
100
AcDbDictionary
281
     1
  0
DICTIONARY
  5
D
330
C
100
AcDbDictionary
281
     1
  0
DICTIONARY
  5
19
330
C
100
AcDbDictionary
281
     1
  3
Layout1
350
1D
  3
Model
350
21
  0
DICTIONARY
  5
428
102
{ACAD_REACTORS
330
C
102
}
330
C
100
AcDbDictionary
281
     1
  3
ByBlock
350
42A
  3
ByLayer
350
429
  3
Global
350
42B
  0
DICTIONARY
  5
42E
102
{ACAD_REACTORS
330
C
102
}
330
C
100
AcDbDictionary
281
     1
  3
Standard
350
42F
  0
DICTIONARY
  5
16
330
C
100
AcDbDictionary
281
     1
  3
Standard
350
17
  0
DICTIONARY
  5
3FA
102
{ACAD_REACTORS
330
C
102
}
330
C
100
AcDbDictionary
281
     1
  0
ACDBDICTIONARYWDFLT
  5
3FB
102
{ACAD_REACTORS
330
C
102
}
330
C
100
AcDbDictionary
281
     1
  3
Normal
350
3FC
100
AcDbDictionaryWithDefault
340
3FC
  0
DICTIONARY
  5
3FD
102
{ACAD_REACTORS
330
C
102
}
330
C
100
AcDbDictionary
281
     1
  3
A0
350
3FE
  3
A1
350
3FF
  3
A2
350
400
  3
A3
350
401
  3
A4
350
402
  3
A5
350
403
  3
A6
350
404
  3
A7
350
405
  3
A8
350
406
  3
A9
350
407
  3
B0
350
408
  3
B1
350
409
  3
B2
350
40A
  3
B3
350
40B
  3
B4
350
40C
  3
B5
350
40D
  3
B6
350
40E
  0
DICTIONARY
  5
476
102
{ACAD_REACTORS
330
C
102
}
330
C
100
AcDbDictionary
281
     1
  0
DICTIONARY
  5
42C
102
{ACAD_REACTORS
330
C
102
}
330
C
100
AcDbDictionary
281
     1
  3
Standard
350
42D
  0
DICTIONARY
  5
40F
102
{ACAD_REACTORS
330
C
102
}
330
C
100
AcDbDictionary
281
     1
  3
2dWireframe
350
414
  3
Basic
350
417
  3
Brighten
350
41B
  3
ColorChange
350
41F
  3
Conceptual
350
419
  3
Dim
350
41A
  3
EdgeColorOff
350
422
  3
Facepattern
350
41E
  3
Flat
350
410
  3
FlatWithEdges
350
411
  3
Gouraud
350
412
  3
GouraudWithEdges
350
413
  3
Hidden
350
416
  3
JitterOff
350
420
  3
Linepattern
350
41D
  3
OverhangOff
350
421
  3
Realistic
350
418
  3
Shaded
350
427
  3
Shaded with edges
350
426
  3
Shades of Gray
350
423
  3
Sketchy
350
424
  3
Thicken
350
41C
  3
Wireframe
350
415
  3
X-Ray
350
425
  0
XRECORD
  5
471
102
{ACAD_REACTORS
330
C
102
}
330
C
100
AcDbXrecord
280
     1
 90
        1
330
42D
  0
DICTIONARY
  5
432
102
{ACAD_REACTORS
330
C
102
}
330
C
100
AcDbDictionary
281
     1
  3
CANNOSCALE
350
433
  3
CMLEADERSTYLE
350
473
  3
CTABLESTYLE
350
472
  3
MSLTSCALE
350
474
  3
XCLIPFRAME
350
434
  0
XRECORD
  5
431
102
{ACAD_REACTORS
330
430
102
}
330
430
100
AcDbXrecord
280
     1
102
VTR_0.000_0.000_1.000_1.000_VISUALSTYLE
340
414
102
VTR_0.000_0.000_1.000_1.000_GRIDDISPLAY
 70
     3
102
VTR_0.000_0.000_1.000_1.000_GRIDMAJOR
 70
     5
102
VTR_0.000_0.000_1.000_1.000_DEFAULTLIGHTING
280
     1
102
VTR_0.000_0.000_1.000_1.000_DEFAULTLIGHTINGTYPE
 70
     1
102
VTR_0.000_0.000_1.000_1.000_BRIGHTNESS
141
0.0
102
VTR_0.000_0.000_1.000_1.000_CONTRAST
142
0.0
  0
LAYOUT
  5
1D
330
19
100
AcDbPlotSettings
  1

  2
C:\Programme\MDT\plotters\DWF Classic.pc3
  4

  6

 40
0.0
 41
0.0
 42
0.0
 43
0.0
 44
0.0
 45
0.0
 46
0.0
 47
0.0
 48
0.0
 49
0.0
140
0.0
141
0.0
142
1.0
143
1.0
 70
   688
 72
     0
 73
     0
 74
     5
  7

 75
    16
 76
     0
 77
     2
 78
   300
147
1.0
148
0.0
149
0.0
100
AcDbLayout
  1
Layout1
 70
     1
 71
     1
 10
0.0
 20
0.0
 11
12.0
 21
9.0
 12
0.0
 22
0.0
 32
0.0
 14
1.000000000000000E+20
 24
1.000000000000000E+20
 34
1.000000000000000E+20
 15
-1.000000000000000E+20
 25
-1.000000000000000E+20
 35
-1.000000000000000E+20
146
0.0
 13
0.0
 23
0.0
 33
0.0
 16
1.0
 26
0.0
 36
0.0
 17
0.0
 27
1.0
 37
0.0
 76
     0
330
1A
  0
LAYOUT
  5
21
330
19
100
AcDbPlotSettings
  1

  2
C:\Programme\MDT\plotters\DWF Classic.pc3
  4

  6

 40
0.0
 41
0.0
 42
0.0
 43
0.0
 44
0.0
 45
0.0
 46
0.0
 47
0.0
 48
0.0
 49
0.0
140
0.0
141
0.0
142
1.0
143
1.0
 70
  1712
 72
     0
 73
     0
 74
     0
  7

 75
     0
 76
     0
 77
     2
 78
   300
147
1.0
148
0.0
149
0.0
100
AcDbLayout
  1
Model
 70
     1
 71
     0
 10
0.0
 20
0.0
 11
12.0
 21
9.0
 12
0.0
 22
0.0
 32
0.0
 14
0.0
 24
0.0
 34
0.0
 15
0.0
 25
0.0
 35
0.0
146
0.0
 13
0.0
 23
0.0
 33
0.0
 16
1.0
 26
0.0
 36
0.0
 17
0.0
 27
1.0
 37
0.0
 76
     0
330
1E
331
2
  0
MATERIAL
  5
42A
102
{ACAD_REACTORS
330
428
102
}
102
{ACAD_XDICTIONARY
360
467
102
}
330
428
100
AcDbMaterial
  1
ByBlock
  0
MATERIAL
  5
429
102
{ACAD_REACTORS
330
428
102
}
102
{ACAD_XDICTIONARY
360
465
102
}
330
428
100
AcDbMaterial
  1
ByLayer
  0
MATERIAL
  5
42B
102
{ACAD_REACTORS
330
428
102
}
102
{ACAD_XDICTIONARY
360
469
102
}
330
428
100
AcDbMaterial
  1
Global
  0
MLEADERSTYLE
  5
42F
102
{ACAD_REACTORS
330
42E
102
}
102
{ACAD_XDICTIONARY
360
46F
102
}
330
42E
100
AcDbMLeaderStyle
170
     2
171
     1
172
     0
 90
        2
 40
0.0
 41
0.0
173
     1
 91
-1056964608
340
4
 92
       -2
290
     1
 42
2.0
291
     1
 43
8.0
  3
Standard
341
0
 44
4.0
300

342
15E
174
     1
178
     6
175
     1
176
     0
 93
-1056964608
 45
4.0
292
     0
297
     0
 46
4.0
343
0
 94
-1056964608
 47
1.0
 49
1.0
140
1.0
293
     1
141
0.0
294
     1
177
     0
142
1.0
295
     0
296
     0
143
3.75
1001
ACAD_MLEADERVER
1070
     2
  0
MLINESTYLE
  5
17
330
16
100
AcDbMlineStyle
  2
STANDARD
 70
     0
  3

 62
   256
 51
90.0
 52
90.0
 71
     2
 49
0.5
 62
   256
  6
BYLAYER
 49
-0.5
 62
   256
  6
BYLAYER
  0
ACDBPLACEHOLDER
  5
3FC
102
{ACAD_REACTORS
330
3FB
102
}
330
3FB
  0
SCALE
  5
3FE
102
{ACAD_REACTORS
330
3FD
102
}
330
3FD
100
AcDbScale
 70
     0
300
1:1
140
1.0
141
1.0
290
     1
  0
SCALE
  5
3FF
102
{ACAD_REACTORS
330
3FD
102
}
330
3FD
100
AcDbScale
 70
     0
300
1:2
140
1.0
141
2.0
290
     0
  0
SCALE
  5
400
102
{ACAD_REACTORS
330
3FD
102
}
330
3FD
100
AcDbScale
 70
     0
300
1:4
140
1.0
141
4.0
290
     0
  0
SCALE
  5
401
102
{ACAD_REACTORS
330
3FD
102
}
330
3FD
100
AcDbScale
 70
     0
300
1:5
140
1.0
141
5.0
290
     0
  0
SCALE
  5
402
102
{ACAD_REACTORS
330
3FD
102
}
330
3FD
100
AcDbScale
 70
     0
300
1:8
140
1.0
141
8.0
290
     0
  0
SCALE
  5
403
102
{ACAD_REACTORS
330
3FD
102
}
330
3FD
100
AcDbScale
 70
     0
300
1:10
140
1.0
141
10.0
290
     0
  0
SCALE
  5
404
102
{ACAD_REACTORS
330
3FD
102
}
330
3FD
100
AcDbScale
 70
     0
300
1:16
140
1.0
141
16.0
290
     0
  0
SCALE
  5
405
102
{ACAD_REACTORS
330
3FD
102
}
330
3FD
100
AcDbScale
 70
     0
300
1:20
140
1.0
141
20.0
290
     0
  0
SCALE
  5
406
102
{ACAD_REACTORS
330
3FD
102
}
330
3FD
100
AcDbScale
 70
     0
300
1:30
140
1.0
141
30.0
290
     0
  0
SCALE
  5
407
102
{ACAD_REACTORS
330
3FD
102
}
330
3FD
100
AcDbScale
 70
     0
300
1:40
140
1.0
141
40.0
290
     0
  0
SCALE
  5
408
102
{ACAD_REACTORS
330
3FD
102
}
330
3FD
100
AcDbScale
 70
     0
300
1:50
140
1.0
141
50.0
290
     0
  0
SCALE
  5
409
102
{ACAD_REACTORS
330
3FD
102
}
330
3FD
100
AcDbScale
 70
     0
300
1:100
140
1.0
141
100.0
290
     0
  0
SCALE
  5
40A
102
{ACAD_REACTORS
330
3FD
102
}
330
3FD
100
AcDbScale
 70
     0
300
2:1
140
2.0
141
1.0
290
     0
  0
SCALE
  5
40B
102
{ACAD_REACTORS
330
3FD
102
}
330
3FD
100
AcDbScale
 70
     0
300
4:1
140
4.0
141
1.0
290
     0
  0
SCALE
  5
40C
102
{ACAD_REACTORS
330
3FD
102
}
330
3FD
100
AcDbScale
 70
     0
300
8:1
140
8.0
141
1.0
290
     0
  0
SCALE
  5
40D
102
{ACAD_REACTORS
330
3FD
102
}
330
3FD
100
AcDbScale
 70
     0
300
10:1
140
10.0
141
1.0
290
     0
  0
SCALE
  5
40E
102
{ACAD_REACTORS
330
3FD
102
}
330
3FD
100
AcDbScale
 70
     0
300
100:1
140
100.0
141
1.0
290
     0
  0
TABLESTYLE
  5
42D
102
{ACAD_REACTORS
330
42C
102
}
102
{ACAD_XDICTIONARY
360
46B
102
}
330
42C
100
AcDbTableStyle
  3
Standard
 70
     0
 71
     0
 40
0.06
 41
0.06
280
     0
281
     0
  7
MONOTXT
140
4.5
170
     2
 62
     0
 63
   257
283
     0
274
    -2
284
     1
 64
     0
275
    -2
285
     1
 65
     0
276
    -2
286
     1
 66
     0
277
    -2
287
     1
 67
     0
278
    -2
288
     1
 68
     0
279
    -2
289
     1
 69
     0
  7
MONOTXT
140
6.0
170
     5
 62
     0
 63
   257
283
     0
274
    -2
284
     1
 64
     0
275
    -2
285
     1
 65
     0
276
    -2
286
     1
 66
     0
277
    -2
287
     1
 67
     0
278
    -2
288
     1
 68
     0
279
    -2
289
     1
 69
     0
  7
MONOTXT
140
4.5
170
     5
 62
     0
 63
   257
283
     0
274
    -2
284
     1
 64
     0
275
    -2
285
     1
 65
     0
276
    -2
286
     1
 66
     0
277
    -2
287
     1
 67
     0
278
    -2
288
     1
 68
     0
279
    -2
289
     1
 69
     0
  0
VISUALSTYLE
  5
414
102
{ACAD_REACTORS
330
40F
102
}
102
{ACAD_XDICTIONARY
360
43D
102
}
330
40F
100
AcDbVisualStyle
  2
2dWireframe
 70
     4
 71
     0
 72
     2
 73
     0
 90
        0
 40
0.6
 41
30.0
 62
     5
 63
     7
421
 16777215
 74
     1
 91
        4
 64
     7
 65
   257
 75
     1
175
     1
 42
1.0
 92
        0
 66
   257
 43
1.0
 76
     1
 77
     6
 78
     2
 67
     7
 79
     5
170
     0
171
     0
290
     0
174
     0
 93
        1
 44
0.0
173
     0
291
     0
 45
0.0
1001
ACAD
1000
AcDbSavedByObjectVersion
1070
     0
  0
VISUALSTYLE
  5
417
102
{ACAD_REACTORS
330
40F
102
}
102
{ACAD_XDICTIONARY
360
443
102
}
330
40F
100
AcDbVisualStyle
  2
Basic
 70
     7
 71
     1
 72
     0
 73
     1
 90
        0
 40
0.6
 41
30.0
 62
     5
 63
     7
421
 16777215
 74
     0
 91
        4
 64
     7
 65
   257
 75
     1
175
     1
 42
1.0
 92
        8
 66
     7
 43
1.0
 76
     1
 77
     6
 78
     2
 67
     7
 79
     5
170
     0
171
     0
290
     0
174
     0
 93
        1
 44
0.0
173
     0
291
     1
 45
0.0
1001
ACAD
1000
AcDbSavedByObjectVersion
1070
     0
  0
VISUALSTYLE
  5
41B
102
{ACAD_REACTORS
330
40F
102
}
102
{ACAD_XDICTIONARY
360
44B
102
}
330
40F
100
AcDbVisualStyle
  2
Brighten
 70
    12
 71
     2
 72
     2
 73
     0
 90
        0
 40
0.6
 41
30.0
 62
     5
 63
     7
421
 16777215
 74
     1
 91
        4
 64
     7
 65
   257
 75
     1
175
     1
 42
1.0
 92
        8
 66
     7
 43
1.0
 76
     1
 77
     6
 78
     2
 67
     7
 79
     5
170
     0
171
     0
290
     0
174
     0
 93
        1
 44
50.0
173
     0
291
     1
 45
0.0
1001
ACAD
1000
AcDbSavedByObjectVersion
1070
     0
  0
VISUALSTYLE
  5
41F
102
{ACAD_REACTORS
330
40F
102
}
102
{ACAD_XDICTIONARY
360
453
102
}
330
40F
100
AcDbVisualStyle
  2
ColorChange
 70
    16
 71
     2
 72
     2
 73
     3
 90
        0
 40
0.6
 41
30.0
 62
     5
 63
     8
421
  8421504
 74
     1
 91
        4
 64
     7
 65
   257
 75
     1
175
     1
 42
1.0
 92
        8
 66
     8
424
  8421504
 43
1.0
 76
     1
 77
     6
 78
     2
 67
     7
 79
     5
170
     0
171
     0
290
     0
174
     0
 93
        1
 44
0.0
173
     0
291
     1
 45
0.0
1001
ACAD
1000
AcDbSavedByObjectVersion
1070
     0
  0
VISUALSTYLE
  5
419
102
{ACAD_REACTORS
330
40F
102
}
102
{ACAD_XDICTIONARY
360
447
102
}
330
40F
100
AcDbVisualStyle
  2
Conceptual
 70
     9
 71
     3
 72
     2
 73
     0
 90
        0
 40
0.6
 41
30.0
 62
     5
 63
     7
421
 16777215
 74
     2
 91
        2
 64
     7
 65
   257
 75
     1
175
     1
 42
179.0
 92
        8
 66
     7
 43
1.0
 76
     1
 77
     6
 78
     2
 67
     7
 79
     3
170
     0
171
     0
290
     0
174
     0
 93
        1
 44
0.0
173
     0
291
     0
 45
0.0
1001
ACAD
1000
AcDbSavedByObjectVersion
1070
     0
  0
VISUALSTYLE
  5
41A
102
{ACAD_REACTORS
330
40F
102
}
102
{ACAD_XDICTIONARY
360
449
102
}
330
40F
100
AcDbVisualStyle
  2
Dim
 70
    11
 71
     2
 72
     2
 73
     0
 90
        0
 40
0.6
 41
30.0
 62
     5
 63
     7
421
 16777215
 74
     1
 91
        4
 64
     7
 65
   257
 75
     1
175
     1
 42
1.0
 92
        8
 66
     7
 43
1.0
 76
     1
 77
     6
 78
     2
 67
     7
 79
     5
170
     0
171
     0
290
     0
174
     0
 93
        1
 44
-50.0
173
     0
291
     1
 45
0.0
1001
ACAD
1000
AcDbSavedByObjectVersion
1070
     0
  0
VISUALSTYLE
  5
422
102
{ACAD_REACTORS
330
40F
102
}
102
{ACAD_XDICTIONARY
360
459
102
}
330
40F
100
AcDbVisualStyle
  2
EdgeColorOff
 70
    22
 71
     2
 72
     2
 73
     0
 90
        0
 40
0.6
 41
30.0
 62
     5
 63
     7
421
 16777215
 74
     1
 91
        4
 64
     7
 65
   257
 75
     1
175
     1
 42
1.0
 92
        8
 66
     7
 43
1.0
 76
     1
 77
     6
 78
     2
 67
     7
 79
     5
170
     0
171
     0
290
     0
174
     0
 93
        1
 44
0.0
173
     0
291
     1
 45
0.0
1001
ACAD
1000
AcDbSavedByObjectVersion
1070
     0
  0
VISUALSTYLE
  5
41E
102
{ACAD_REACTORS
330
40F
102
}
102
{ACAD_XDICTIONARY
360
451
102
}
330
40F
100
AcDbVisualStyle
  2
Facepattern
 70
    15
 71
     2
 72
     2
 73
     0
 90
        0
 40
0.6
 41
30.0
 62
     5
 63
     7
421
 16777215
 74
     1
 91
        4
 64
     7
 65
   257
 75
     1
175
     1
 42
1.0
 92
        8
 66
     7
 43
1.0
 76
     1
 77
     6
 78
     2
 67
     7
 79
     5
170
     0
171
     0
290
     0
174
     0
 93
        1
 44
0.0
173
     0
291
     1
 45
0.0
1001
ACAD
1000
AcDbSavedByObjectVersion
1070
     0
  0
VISUALSTYLE
  5
410
102
{ACAD_REACTORS
330
40F
102
}
102
{ACAD_XDICTIONARY
360
435
102
}
330
40F
100
AcDbVisualStyle
  2
Flat
 70
     0
 71
     2
 72
     1
 73
     1
 90
        2
 40
0.6
 41
30.0
 62
     5
 63
     7
421
 16777215
 74
     0
 91
        0
 64
     7
 65
   257
 75
     1
175
     1
 42
1.0
 92
        8
 66
     7
 43
1.0
 76
     1
 77
     6
 78
     2
 67
     7
 79
     5
170
     0
171
     0
290
     0
174
     0
 93
       13
 44
0.0
173
     0
291
     1
 45
0.0
1001
ACAD
1000
AcDbSavedByObjectVersion
1070
     0
  0
VISUALSTYLE
  5
411
102
{ACAD_REACTORS
330
40F
102
}
102
{ACAD_XDICTIONARY
360
437
102
}
330
40F
100
AcDbVisualStyle
  2
FlatWithEdges
 70
     1
 71
     2
 72
     1
 73
     1
 90
        2
 40
0.6
 41
30.0
 62
     5
 63
     7
421
 16777215
 74
     1
 91
        0
 64
     7
 65
   257
 75
     1
175
     1
 42
1.0
 92
        0
 66
   257
 43
1.0
 76
     1
 77
     6
 78
     2
 67
     7
 79
     5
170
     0
171
     0
290
     0
174
     0
 93
       13
 44
0.0
173
     0
291
     1
 45
0.0
1001
ACAD
1000
AcDbSavedByObjectVersion
1070
     0
  0
VISUALSTYLE
  5
412
102
{ACAD_REACTORS
330
40F
102
}
102
{ACAD_XDICTIONARY
360
439
102
}
330
40F
100
AcDbVisualStyle
  2
Gouraud
 70
     2
 71
     2
 72
     2
 73
     1
 90
        2
 40
0.6
 41
30.0
 62
     5
 63
     7
421
 16777215
 74
     0
 91
        0
 64
     7
 65
   257
 75
     1
175
     1
 42
1.0
 92
        0
 66
     7
 43
1.0
 76
     1
 77
     6
 78
     2
 67
     7
 79
     5
170
     0
171
     0
290
     0
174
     0
 93
       13
 44
0.0
173
     0
291
     1
 45
0.0
1001
ACAD
1000
AcDbSavedByObjectVersion
1070
     0
  0
VISUALSTYLE
  5
413
102
{ACAD_REACTORS
330
40F
102
}
102
{ACAD_XDICTIONARY
360
43B
102
}
330
40F
100
AcDbVisualStyle
  2
GouraudWithEdges
 70
     3
 71
     2
 72
     2
 73
     1
 90
        2
 40
0.6
 41
30.0
 62
     5
 63
     7
421
 16777215
 74
     1
 91
        0
 64
     7
 65
   257
 75
     1
175
     1
 42
1.0
 92
        0
 66
   257
 43
1.0
 76
     1
 77
     6
 78
     2
 67
     7
 79
     5
170
     0
171
     0
290
     0
174
     0
 93
       13
 44
0.0
173
     0
291
     1
 45
0.0
1001
ACAD
1000
AcDbSavedByObjectVersion
1070
     0
  0
VISUALSTYLE
  5
416
102
{ACAD_REACTORS
330
40F
102
}
102
{ACAD_XDICTIONARY
360
441
102
}
330
40F
100
AcDbVisualStyle
  2
Hidden
 70
     6
 71
     1
 72
     2
 73
     2
 90
        0
 40
0.6
 41
30.0
 62
     5
 63
     7
421
 16777215
 74
     2
 91
        2
 64
     7
 65
   257
 75
     2
175
     1
 42
40.0
 92
        0
 66
   257
 43
1.0
 76
     1
 77
     6
 78
     2
 67
     7
 79
     3
170
     0
171
     0
290
     0
174
     0
 93
        1
 44
0.0
173
     0
291
     0
 45
0.0
1001
ACAD
1000
AcDbSavedByObjectVersion
1070
     0
  0
VISUALSTYLE
  5
420
102
{ACAD_REACTORS
330
40F
102
}
102
{ACAD_XDICTIONARY
360
455
102
}
330
40F
100
AcDbVisualStyle
  2
JitterOff
 70
    20
 71
     2
 72
     2
 73
     0
 90
        0
 40
0.6
 41
30.0
 62
     5
 63
     7
421
 16777215
 74
     1
 91
        4
 64
     7
 65
   257
 75
     1
175
     1
 42
1.0
 92
       10
 66
     7
 43
1.0
 76
     1
 77
     6
 78
     2
 67
     7
 79
     5
170
     0
171
     0
290
     0
174
     0
 93
        1
 44
0.0
173
     0
291
     1
 45
0.0
1001
ACAD
1000
AcDbSavedByObjectVersion
1070
     0
  0
VISUALSTYLE
  5
41D
102
{ACAD_REACTORS
330
40F
102
}
102
{ACAD_XDICTIONARY
360
44F
102
}
330
40F
100
AcDbVisualStyle
  2
Linepattern
 70
    14
 71
     2
 72
     2
 73
     0
 90
        0
 40
0.6
 41
30.0
 62
     5
 63
     7
421
 16777215
 74
     1
 91
        4
 64
     7
 65
   257
 75
     7
175
     7
 42
1.0
 92
        8
 66
     7
 43
1.0
 76
     1
 77
     6
 78
     2
 67
     7
 79
     5
170
     0
171
     0
290
     0
174
     0
 93
        1
 44
0.0
173
     0
291
     1
 45
0.0
1001
ACAD
1000
AcDbSavedByObjectVersion
1070
     0
  0
VISUALSTYLE
  5
421
102
{ACAD_REACTORS
330
40F
102
}
102
{ACAD_XDICTIONARY
360
457
102
}
330
40F
100
AcDbVisualStyle
  2
OverhangOff
 70
    21
 71
     2
 72
     2
 73
     0
 90
        0
 40
0.6
 41
30.0
 62
     5
 63
     7
421
 16777215
 74
     1
 91
        4
 64
     7
 65
   257
 75
     1
175
     1
 42
1.0
 92
        9
 66
     7
 43
1.0
 76
     1
 77
     6
 78
     2
 67
     7
 79
     5
170
     0
171
     0
290
     0
174
     0
 93
        1
 44
0.0
173
     0
291
     1
 45
0.0
1001
ACAD
1000
AcDbSavedByObjectVersion
1070
     0
  0
VISUALSTYLE
  5
418
102
{ACAD_REACTORS
330
40F
102
}
102
{ACAD_XDICTIONARY
360
445
102
}
330
40F
100
AcDbVisualStyle
  2
Realistic
 70
     8
 71
     2
 72
     3
 73
     0
 90
        2
 40
0.6
 41
30.0
 62
     5
 63
     7
421
 16777215
 74
     0
 91
        0
 64
     7
 65
   257
 75
     1
175
     1
 42
1.0
 92
        8
 66
   257
 43
1.0
 76
     1
 77
     6
 78
     2
 67
     7
 79
     3
170
     0
171
     0
290
     0
174
     0
 93
       13
 44
0.0
173
     0
291
     0
 45
0.0
1001
ACAD
1000
AcDbSavedByObjectVersion
1070
     0
  0
VISUALSTYLE
  5
427
102
{ACAD_REACTORS
330
40F
102
}
102
{ACAD_XDICTIONARY
360
463
102
}
330
40F
100
AcDbVisualStyle
  2
Shaded
 70
    27
 71
     2
 72
     2
 73
     1
 90
        2
 40
0.6
 41
30.0
 62
     5
 63
     7
421
 16777215
 74
     0
 91
        4
 64
     7
 65
   257
 75
     1
175
     1
 42
1.0
 92
        8
 66
   257
 43
1.0
 76
     1
 77
     6
 78
     2
 67
     8
425
  7895160
 79
     3
170
     0
171
     0
290
     0
174
     0
 93
        5
 44
0.0
173
     0
291
     0
 45
0.0
1001
ACAD
1000
AcDbSavedByObjectVersion
1070
     0
  0
VISUALSTYLE
  5
426
102
{ACAD_REACTORS
330
40F
102
}
102
{ACAD_XDICTIONARY
360
461
102
}
330
40F
100
AcDbVisualStyle
  2
Shaded with edges
 70
    26
 71
     2
 72
     2
 73
     1
 90
        2
 40
0.6
 41
30.0
 62
     5
 63
     7
421
 16777215
 74
     1
 91
       10
 64
     7
 65
   257
 75
     2
175
     1
 42
1.0
 92
        8
 66
   257
 43
1.0
 76
     1
 77
     6
 78
     2
 67
     7
 79
     3
170
     0
171
     0
290
     0
174
     0
 93
        5
 44
0.0
173
     0
291
     0
 45
0.0
1001
ACAD
1000
AcDbSavedByObjectVersion
1070
     0
  0
VISUALSTYLE
  5
423
102
{ACAD_REACTORS
330
40F
102
}
102
{ACAD_XDICTIONARY
360
45B
102
}
330
40F
100
AcDbVisualStyle
  2
Shades of Gray
 70
    23
 71
     2
 72
     2
 73
     3
 90
        0
 40
0.6
 41
30.0
 62
     5
 63
     7
421
 16777215
 74
     2
 91
        2
 64
     7
 65
     7
 75
     1
175
     1
 42
40.0
 92
        8
 66
     7
 43
1.0
 76
     1
 77
     6
 78
     2
 67
     7
 79
     3
170
     0
171
     0
290
     0
174
     0
 93
        1
 44
0.0
173
     0
291
     0
 45
0.0
1001
ACAD
1000
AcDbSavedByObjectVersion
1070
     0
  0
VISUALSTYLE
  5
424
102
{ACAD_REACTORS
330
40F
102
}
102
{ACAD_XDICTIONARY
360
45D
102
}
330
40F
100
AcDbVisualStyle
  2
Sketchy
 70
    24
 71
     1
 72
     2
 73
     2
 90
        0
 40
0.6
 41
30.0
 62
     5
 63
     7
421
 16777215
 74
     2
 91
        2
 64
     7
 65
     7
 75
     1
175
     1
 42
40.0
 92
       11
 66
     7
 43
1.0
 76
     1
 77
     6
 78
     2
 67
     7
 79
     6
170
     0
171
     0
290
     0
174
     0
 93
        1
 44
0.0
173
     0
291
     0
 45
0.0
1001
ACAD
1000
AcDbSavedByObjectVersion
1070
     0
  0
VISUALSTYLE
  5
41C
102
{ACAD_REACTORS
330
40F
102
}
102
{ACAD_XDICTIONARY
360
44D
102
}
330
40F
100
AcDbVisualStyle
  2
Thicken
 70
    13
 71
     2
 72
     2
 73
     0
 90
        0
 40
0.6
 41
30.0
 62
     5
 63
     7
421
 16777215
 74
     1
 91
        4
 64
     7
 65
   257
 75
     1
175
     1
 42
1.0
 92
       12
 66
     7
 43
1.0
 76
     1
 77
     6
 78
     2
 67
     7
 79
     5
170
     0
171
     0
290
     0
174
     0
 93
        1
 44
0.0
173
     0
291
     1
 45
0.0
1001
ACAD
1000
AcDbSavedByObjectVersion
1070
     0
  0
VISUALSTYLE
  5
415
102
{ACAD_REACTORS
330
40F
102
}
102
{ACAD_XDICTIONARY
360
43F
102
}
330
40F
100
AcDbVisualStyle
  2
Wireframe
 70
     5
 71
     0
 72
     2
 73
     0
 90
        0
 40
0.6
 41
30.0
 62
     5
 63
     7
421
 16777215
 74
     1
 91
        4
 64
     7
 65
   257
 75
     1
175
     1
 42
1.0
 92
        0
 66
   257
 43
1.0
 76
     1
 77
     6
 78
     2
 67
     7
 79
     3
170
     0
171
     0
290
     0
174
     0
 93
        1
 44
0.0
173
     0
291
     0
 45
0.0
1001
ACAD
1000
AcDbSavedByObjectVersion
1070
     0
  0
VISUALSTYLE
  5
425
102
{ACAD_REACTORS
330
40F
102
}
102
{ACAD_XDICTIONARY
360
45F
102
}
330
40F
100
AcDbVisualStyle
  2
X-Ray
 70
    25
 71
     2
 72
     2
 73
     1
 90
        1
 40
0.5
 41
30.0
 62
     5
 63
     7
421
 16777215
 74
     1
 91
        0
 64
     7
 65
   257
 75
     1
175
     1
 42
1.0
 92
        8
 66
     7
 43
1.0
 76
     1
 77
     6
 78
     2
 67
     7
 79
     3
170
     0
171
     0
290
     0
174
     0
 93
       13
 44
0.0
173
     0
291
     0
 45
0.0
1001
ACAD
1000
AcDbSavedByObjectVersion
1070
     0
  0
DICTIONARYVAR
  5
433
102
{ACAD_REACTORS
330
432
102
}
330
432
100
DictionaryVariables
280
     0
  1
1:1
  0
DICTIONARYVAR
  5
473
102
{ACAD_REACTORS
330
432
102
}
330
432
100
DictionaryVariables
280
     0
  1
Standard
  0
DICTIONARYVAR
  5
472
102
{ACAD_REACTORS
330
432
102
}
330
432
100
DictionaryVariables
280
     0
  1
Standard
  0
DICTIONARYVAR
  5
474
102
{ACAD_REACTORS
330
432
102
}
330
432
100
DictionaryVariables
280
     0
  1
0
  0
DICTIONARYVAR
  5
434
102
{ACAD_REACTORS
330
432
102
}
330
432
100
DictionaryVariables
280
     0
  1
2
  0
DICTIONARY
  5
467
330
42A
100
AcDbDictionary
280
     1
281
     1
  3
ACAD_XREC_ROUNDTRIP
360
468
  0
DICTIONARY
  5
465
330
429
100
AcDbDictionary
280
     1
281
     1
  3
ACAD_XREC_ROUNDTRIP
360
466
  0
DICTIONARY
  5
469
330
42B
100
AcDbDictionary
280
     1
281
     1
  3
ACAD_XREC_ROUNDTRIP
360
46A
  0
DICTIONARY
  5
46F
330
42F
100
AcDbDictionary
280
     1
281
     1
  3
ACAD_XREC_ROUNDTRIP
360
470
  0
DICTIONARY
  5
46B
330
42D
100
AcDbDictionary
280
     1
281
     1
  3
ACAD_ROUNDTRIP_2008_TABLESTYLE_CELLSTYLEMAP
360
46D
  3
ACAD_XREC_ROUNDTRIP
360
46C
  0
DICTIONARY
  5
43D
330
414
100
AcDbDictionary
280
     1
281
     1
  3
ACAD_XREC_ROUNDTRIP
360
43E
  0
DICTIONARY
  5
443
330
417
100
AcDbDictionary
280
     1
281
     1
  3
ACAD_XREC_ROUNDTRIP
360
444
  0
DICTIONARY
  5
44B
330
41B
100
AcDbDictionary
280
     1
281
     1
  3
ACAD_XREC_ROUNDTRIP
360
44C
  0
DICTIONARY
  5
453
330
41F
100
AcDbDictionary
280
     1
281
     1
  3
ACAD_XREC_ROUNDTRIP
360
454
  0
DICTIONARY
  5
447
330
419
100
AcDbDictionary
280
     1
281
     1
  3
ACAD_XREC_ROUNDTRIP
360
448
  0
DICTIONARY
  5
449
330
41A
100
AcDbDictionary
280
     1
281
     1
  3
ACAD_XREC_ROUNDTRIP
360
44A
  0
DICTIONARY
  5
459
330
422
100
AcDbDictionary
280
     1
281
     1
  3
ACAD_XREC_ROUNDTRIP
360
45A
  0
DICTIONARY
  5
451
330
41E
100
AcDbDictionary
280
     1
281
     1
  3
ACAD_XREC_ROUNDTRIP
360
452
  0
DICTIONARY
  5
435
330
410
100
AcDbDictionary
280
     1
281
     1
  3
ACAD_XREC_ROUNDTRIP
360
436
  0
DICTIONARY
  5
437
330
411
100
AcDbDictionary
280
     1
281
     1
  3
ACAD_XREC_ROUNDTRIP
360
438
  0
DICTIONARY
  5
439
330
412
100
AcDbDictionary
280
     1
281
     1
  3
ACAD_XREC_ROUNDTRIP
360
43A
  0
DICTIONARY
  5
43B
330
413
100
AcDbDictionary
280
     1
281
     1
  3
ACAD_XREC_ROUNDTRIP
360
43C
  0
DICTIONARY
  5
441
330
416
100
AcDbDictionary
280
     1
281
     1
  3
ACAD_XREC_ROUNDTRIP
360
442
  0
DICTIONARY
  5
455
330
420
100
AcDbDictionary
280
     1
281
     1
  3
ACAD_XREC_ROUNDTRIP
360
456
  0
DICTIONARY
  5
44F
330
41D
100
AcDbDictionary
280
     1
281
     1
  3
ACAD_XREC_ROUNDTRIP
360
450
  0
DICTIONARY
  5
457
330
421
100
AcDbDictionary
280
     1
281
     1
  3
ACAD_XREC_ROUNDTRIP
360
458
  0
DICTIONARY
  5
445
330
418
100
AcDbDictionary
280
     1
281
     1
  3
ACAD_XREC_ROUNDTRIP
360
446
  0
DICTIONARY
  5
463
330
427
100
AcDbDictionary
280
     1
281
     1
  3
ACAD_XREC_ROUNDTRIP
360
464
  0
DICTIONARY
  5
461
330
426
100
AcDbDictionary
280
     1
281
     1
  3
ACAD_XREC_ROUNDTRIP
360
462
  0
DICTIONARY
  5
45B
330
423
100
AcDbDictionary
280
     1
281
     1
  3
ACAD_XREC_ROUNDTRIP
360
45C
  0
DICTIONARY
  5
45D
330
424
100
AcDbDictionary
280
     1
281
     1
  3
ACAD_XREC_ROUNDTRIP
360
45E
  0
DICTIONARY
  5
44D
330
41C
100
AcDbDictionary
280
     1
281
     1
  3
ACAD_XREC_ROUNDTRIP
360
44E
  0
DICTIONARY
  5
43F
330
415
100
AcDbDictionary
280
     1
281
     1
  3
ACAD_XREC_ROUNDTRIP
360
440
  0
DICTIONARY
  5
45F
330
425
100
AcDbDictionary
280
     1
281
     1
  3
ACAD_XREC_ROUNDTRIP
360
460
  0
XRECORD
  5
468
102
{ACAD_REACTORS
330
467
102
}
330
467
100
AcDbXrecord
280
     1
102
MATERIAL
148
0.0
149
0.0
149
0.0
 93
        0
 94
      127
282
     0
 72
     1
 77
     1
171
     1
175
     1
179
     1
273
     0
  0
XRECORD
  5
466
102
{ACAD_REACTORS
330
465
102
}
330
465
100
AcDbXrecord
280
     1
102
MATERIAL
148
0.0
149
0.0
149
0.0
 93
        0
 94
      127
282
     0
 72
     1
 77
     1
171
     1
175
     1
179
     1
273
     0
  0
XRECORD
  5
46A
102
{ACAD_REACTORS
330
469
102
}
330
469
100
AcDbXrecord
280
     1
102
MATERIAL
148
0.0
149
0.0
149
0.0
 93
        0
 94
      127
282
     0
 72
     1
 77
     1
171
     1
175
     1
179
     1
273
     0
  0
XRECORD
  5
470
102
{ACAD_REACTORS
330
46F
102
}
330
46F
100
AcDbXrecord
280
     1
102
ACAD_ROUNDTRIP_2010_MLEADER_STYLE
  0
CELLSTYLEMAP
  5
46D
102
{ACAD_REACTORS
330
46B
102
}
330
46B
100
AcDbCellStyleMap
 90
        3
300
CELLSTYLE
  1
TABLEFORMAT_BEGIN
 90
        5
170
     1
 91
        0
 92
    32768
 62
   257
 93
        1
300
CONTENTFORMAT
  1
CONTENTFORMAT_BEGIN
 90
        0
 91
        0
 92
        4
 93
        0
300

 40
0.0
140
1.0
 94
        5
 62
     0
340
15E
144
6.0
309
CONTENTFORMAT_END
171
     1
301
MARGIN
  1
CELLMARGIN_BEGIN
 40
1.5
 40
1.5
 40
1.5
 40
1.5
 40
1.5
 40
1.5
309
CELLMARGIN_END
 94
        6
 95
        1
302
GRIDFORMAT
  1
GRIDFORMAT_BEGIN
 90
        0
 91
        1
 62
     0
 92
       -2
340
4
 93
        0
 40
0.045
309
GRIDFORMAT_END
 95
        2
302
GRIDFORMAT
  1
GRIDFORMAT_BEGIN
 90
        0
 91
        1
 62
     0
 92
       -2
340
4
 93
        0
 40
0.045
309
GRIDFORMAT_END
 95
        4
302
GRIDFORMAT
  1
GRIDFORMAT_BEGIN
 90
        0
 91
        1
 62
     0
 92
       -2
340
4
 93
        0
 40
0.045
309
GRIDFORMAT_END
 95
        8
302
GRIDFORMAT
  1
GRIDFORMAT_BEGIN
 90
        0
 91
        1
 62
     0
 92
       -2
340
4
 93
        0
 40
0.045
309
GRIDFORMAT_END
 95
       16
302
GRIDFORMAT
  1
GRIDFORMAT_BEGIN
 90
        0
 91
        1
 62
     0
 92
       -2
340
4
 93
        0
 40
0.045
309
GRIDFORMAT_END
 95
       32
302
GRIDFORMAT
  1
GRIDFORMAT_BEGIN
 90
        0
 91
        1
 62
     0
 92
       -2
340
4
 93
        0
 40
0.045
309
GRIDFORMAT_END
309
TABLEFORMAT_END
  1
CELLSTYLE_BEGIN
 90
        1
 91
        1
300
_TITLE
309
CELLSTYLE_END
300
CELLSTYLE
  1
TABLEFORMAT_BEGIN
 90
        5
170
     1
 91
        0
 92
        0
 62
   257
 93
        1
300
CONTENTFORMAT
  1
CONTENTFORMAT_BEGIN
 90
        0
 91
        0
 92
        4
 93
        0
300

 40
0.0
140
1.0
 94
        5
 62
     0
340
15E
144
4.5
309
CONTENTFORMAT_END
171
     1
301
MARGIN
  1
CELLMARGIN_BEGIN
 40
1.5
 40
1.5
 40
1.5
 40
1.5
 40
1.5
 40
1.5
309
CELLMARGIN_END
 94
        6
 95
        1
302
GRIDFORMAT
  1
GRIDFORMAT_BEGIN
 90
        0
 91
        1
 62
     0
 92
       -2
340
4
 93
        0
 40
0.045
309
GRIDFORMAT_END
 95
        2
302
GRIDFORMAT
  1
GRIDFORMAT_BEGIN
 90
        0
 91
        1
 62
     0
 92
       -2
340
4
 93
        0
 40
0.045
309
GRIDFORMAT_END
 95
        4
302
GRIDFORMAT
  1
GRIDFORMAT_BEGIN
 90
        0
 91
        1
 62
     0
 92
       -2
340
4
 93
        0
 40
0.045
309
GRIDFORMAT_END
 95
        8
302
GRIDFORMAT
  1
GRIDFORMAT_BEGIN
 90
        0
 91
        1
 62
     0
 92
       -2
340
4
 93
        0
 40
0.045
309
GRIDFORMAT_END
 95
       16
302
GRIDFORMAT
  1
GRIDFORMAT_BEGIN
 90
        0
 91
        1
 62
     0
 92
       -2
340
4
 93
        0
 40
0.045
309
GRIDFORMAT_END
 95
       32
302
GRIDFORMAT
  1
GRIDFORMAT_BEGIN
 90
        0
 91
        1
 62
     0
 92
       -2
340
4
 93
        0
 40
0.045
309
GRIDFORMAT_END
309
TABLEFORMAT_END
  1
CELLSTYLE_BEGIN
 90
        2
 91
        1
300
_HEADER
309
CELLSTYLE_END
300
CELLSTYLE
  1
TABLEFORMAT_BEGIN
 90
        5
170
     1
 91
        0
 92
        0
 62
   257
 93
        1
300
CONTENTFORMAT
  1
CONTENTFORMAT_BEGIN
 90
        0
 91
        0
 92
        4
 93
        0
300

 40
0.0
140
1.0
 94
        2
 62
     0
340
15E
144
4.5
309
CONTENTFORMAT_END
171
     1
301
MARGIN
  1
CELLMARGIN_BEGIN
 40
1.5
 40
1.5
 40
1.5
 40
1.5
 40
1.5
 40
1.5
309
CELLMARGIN_END
 94
        6
 95
        1
302
GRIDFORMAT
  1
GRIDFORMAT_BEGIN
 90
        0
 91
        1
 62
     0
 92
       -2
340
4
 93
        0
 40
0.045
309
GRIDFORMAT_END
 95
        2
302
GRIDFORMAT
  1
GRIDFORMAT_BEGIN
 90
        0
 91
        1
 62
     0
 92
       -2
340
4
 93
        0
 40
0.045
309
GRIDFORMAT_END
 95
        4
302
GRIDFORMAT
  1
GRIDFORMAT_BEGIN
 90
        0
 91
        1
 62
     0
 92
       -2
340
4
 93
        0
 40
0.045
309
GRIDFORMAT_END
 95
        8
302
GRIDFORMAT
  1
GRIDFORMAT_BEGIN
 90
        0
 91
        1
 62
     0
 92
       -2
340
4
 93
        0
 40
0.045
309
GRIDFORMAT_END
 95
       16
302
GRIDFORMAT
  1
GRIDFORMAT_BEGIN
 90
        0
 91
        1
 62
     0
 92
       -2
340
4
 93
        0
 40
0.045
309
GRIDFORMAT_END
 95
       32
302
GRIDFORMAT
  1
GRIDFORMAT_BEGIN
 90
        0
 91
        1
 62
     0
 92
       -2
340
4
 93
        0
 40
0.045
309
GRIDFORMAT_END
309
TABLEFORMAT_END
  1
CELLSTYLE_BEGIN
 90
        3
 91
        2
300
_DATA
309
CELLSTYLE_END
  0
XRECORD
  5
46C
102
{ACAD_REACTORS
330
46B
102
}
330
46B
100
AcDbXrecord
280
     1
102
ACAD_ROUNDTRIP_PRE2007_TABLESTYLE
 90
        4
 91
        0
  1

 92
        4
 93
        0
  2

 94
        4
 95
        0
  3

  0
XRECORD
  5
43E
102
{ACAD_REACTORS
330
43D
102
}
330
43D
100
AcDbXrecord
280
     1
102
RTVSPropertyOp0
 70
     1
102
RTVSPropertyOp1
 70
     1
102
RTVSPropertyOp2
 70
     1
102
RTVSPropertyOp3
 70
     1
102
RTVSPropertyOp4
 70
     1
102
RTVSPropertyOp5
 70
     1
102
RTVSPropertyOp6
 70
     1
102
RTVSPropertyOp7
 70
     1
102
RTVSPropertyOp8
 70
     1
102
RTVSPropertyOp9
 70
     1
102
RTVSPropertyOp10
 70
     1
102
RTVSPropertyOp11
 70
     1
102
RTVSPropertyOp12
 70
     1
102
RTVSPropertyOp13
 70
     1
102
RTVSPropertyOp14
 70
     1
102
RTVSPropertyOp15
 70
     1
102
RTVSPropertyOp16
 70
     1
102
RTVSPropertyOp17
 70
     1
102
RTVSPropertyOp18
 70
     1
102
RTVSPropertyOp19
 70
     1
102
RTVSPropertyOp20
 70
     1
102
RTVSPropertyOp21
 70
     1
102
RTVSPropertyOp22
 70
     1
102
RTVSPropertyOp23
 70
     1
102
RTVSPropertyOp24
 70
     1
102
RTVSPropertyOp25
 70
     1
102
RTVSPropertyOp26
 70
     1
102
RTVSPropertyOp27
 70
     1
102
RTVSPropertyOp28
 70
     1
102
RTVSPropertyOp29
 70
     1
102
RTVSPropertyOp30
 70
     1
102
RTVSPropertyOp31
 70
     1
102
RTVSPropertyOp32
 70
     1
102
RTVSPropertyOp33
 70
     1
102
RTVSPropertyOp34
 70
     1
102
RTVSPropertyOp35
 70
     1
102
RTVSPropertyOp36
 70
     1
102
RTVSPropertyOp37
 70
     1
102
RTVSPropertyOp38
 70
     1
102
RTVSPropertyOp39
 70
     1
102
RTVSPropertyOp40
 70
     1
102
RTVSPropertyOp41
 70
     1
102
RTVSPropertyOp42
 70
     1
102
RTVSPropertyOp43
 70
     1
102
RTVSPropertyOp44
 70
     1
102
RTVSPropertyOp45
 70
     1
102
RTVSPropertyOp46
 70
     1
102
RTVSPropertyOp47
 70
     1
102
RTVSPropertyOp48
 70
     1
102
RTVSPropertyOp49
 70
     1
102
RTVSPropertyOp50
 70
     1
102
RTVSPropertyOp51
 70
     0
102
RTVSPropertyOp52
 70
     0
102
RTVSPropertyOp53
 70
     1
102
RTVSPropertyOp54
 70
     1
102
RTVSPropertyOp55
 70
     1
102
RTVSPropertyOp56
 70
     1
102
RTVSPropertyOp57
 70
     1
102
RTVSPost2010Prop28
280
     1
102
RTVSPost2010PropOp28
 70
     1
102
RTVSPost2010Prop29
280
     1
102
RTVSPost2010PropOp29
 70
     1
102
RTVSPost2010Prop30
280
     0
102
RTVSPost2010PropOp30
 70
     1
102
RTVSPost2010Prop31
280
     0
102
RTVSPost2010PropOp31
 70
     1
102
RTVSPost2010Prop32
280
     0
102
RTVSPost2010PropOp32
 70
     1
102
RTVSPost2010Prop33
280
     0
102
RTVSPost2010PropOp33
 70
     1
102
RTVSPost2010Prop34
280
     0
102
RTVSPost2010PropOp34
 70
     1
102
RTVSPost2010Prop35
280
     0
102
RTVSPost2010PropOp35
 70
     1
102
RTVSPost2010Prop36
280
     0
102
RTVSPost2010PropOp36
 70
     1
102
RTVSPost2010Prop37
 90
       50
102
RTVSPost2010PropOp37
 70
     1
102
RTVSPost2010Prop38
140
0.0
102
RTVSPost2010PropOp38
 70
     1
102
RTVSPost2010Prop39
140
1.0
102
RTVSPost2010PropOp39
 70
     1
102
RTVSPost2010Prop40
 90
        0
102
RTVSPost2010PropOp40
 70
     1
102
RTVSPost2010Prop41ColorIndex
 90
       18
102
RTVSPost2010Prop41ColorRGB
 90
        0
102
RTVSPost2010PropOp41
 70
     1
102
RTVSPost2010Prop42
 90
       50
102
RTVSPost2010PropOp42
 70
     1
102
RTVSPost2010Prop43
 90
        3
102
RTVSPost2010PropOp43
 70
     1
102
RTVSPost2010Prop44ColorIndex
 90
        5
102
RTVSPost2010Prop44ColorRGB
 90
      255
102
RTVSPost2010PropOp44
 70
     1
102
RTVSPost2010Prop45
280
     0
102
RTVSPost2010PropOp45
 70
     1
102
RTVSPost2010Prop46
 90
       50
102
RTVSPost2010PropOp46
 70
     1
102
RTVSPost2010Prop47
 90
       50
102
RTVSPost2010PropOp47
 70
     1
102
RTVSPost2010Prop48
 90
       50
102
RTVSPost2010PropOp48
 70
     1
102
RTVSPost2010Prop49
280
     0
102
RTVSPost2010PropOp49
 70
     1
102
RTVSPost2010Prop50
 90
       50
102
RTVSPost2010PropOp50
 70
     1
102
RTVSPost2010Prop51ColorIndex
 90
      256
102
RTVSPost2010Prop51ColorRGB
 90
-16777216
102
RTVSPost2010PropOp51
 70
     0
102
RTVSPost2010Prop52
140
1.0
102
RTVSPost2010PropOp52
 70
     0
102
RTVSPost2010Prop53
 90
        2
102
RTVSPost2010PropOp53
 70
     1
102
RTVSPost2010Prop54
  1
strokes_ogs.tif
102
RTVSPost2010PropOp54
 70
     1
102
RTVSPost2010Prop55
280
     0
102
RTVSPost2010PropOp55
 70
     1
102
RTVSPost2010Prop56
140
1.0
102
RTVSPost2010PropOp56
 70
     1
102
RTVSPost2010Prop57
140
1.0
102
RTVSPost2010PropOp57
 70
     1
  0
XRECORD
  5
444
102
{ACAD_REACTORS
330
443
102
}
330
443
100
AcDbXrecord
280
     1
102
RTVSPropertyOp0
 70
     1
102
RTVSPropertyOp1
 70
     1
102
RTVSPropertyOp2
 70
     1
102
RTVSPropertyOp3
 70
     1
102
RTVSPropertyOp4
 70
     1
102
RTVSPropertyOp5
 70
     1
102
RTVSPropertyOp6
 70
     1
102
RTVSPropertyOp7
 70
     1
102
RTVSPropertyOp8
 70
     1
102
RTVSPropertyOp9
 70
     1
102
RTVSPropertyOp10
 70
     1
102
RTVSPropertyOp11
 70
     1
102
RTVSPropertyOp12
 70
     1
102
RTVSPropertyOp13
 70
     1
102
RTVSPropertyOp14
 70
     1
102
RTVSPropertyOp15
 70
     1
102
RTVSPropertyOp16
 70
     1
102
RTVSPropertyOp17
 70
     1
102
RTVSPropertyOp18
 70
     1
102
RTVSPropertyOp19
 70
     1
102
RTVSPropertyOp20
 70
     1
102
RTVSPropertyOp21
 70
     1
102
RTVSPropertyOp22
 70
     1
102
RTVSPropertyOp23
 70
     1
102
RTVSPropertyOp24
 70
     1
102
RTVSPropertyOp25
 70
     1
102
RTVSPropertyOp26
 70
     1
102
RTVSPropertyOp27
 70
     1
102
RTVSPropertyOp28
 70
     1
102
RTVSPropertyOp29
 70
     1
102
RTVSPropertyOp30
 70
     1
102
RTVSPropertyOp31
 70
     1
102
RTVSPropertyOp32
 70
     1
102
RTVSPropertyOp33
 70
     1
102
RTVSPropertyOp34
 70
     1
102
RTVSPropertyOp35
 70
     1
102
RTVSPropertyOp36
 70
     1
102
RTVSPropertyOp37
 70
     1
102
RTVSPropertyOp38
 70
     1
102
RTVSPropertyOp39
 70
     1
102
RTVSPropertyOp40
 70
     1
102
RTVSPropertyOp41
 70
     1
102
RTVSPropertyOp42
 70
     1
102
RTVSPropertyOp43
 70
     1
102
RTVSPropertyOp44
 70
     1
102
RTVSPropertyOp45
 70
     1
102
RTVSPropertyOp46
 70
     1
102
RTVSPropertyOp47
 70
     1
102
RTVSPropertyOp48
 70
     1
102
RTVSPropertyOp49
 70
     1
102
RTVSPropertyOp50
 70
     1
102
RTVSPropertyOp51
 70
     0
102
RTVSPropertyOp52
 70
     0
102
RTVSPropertyOp53
 70
     1
102
RTVSPropertyOp54
 70
     1
102
RTVSPropertyOp55
 70
     1
102
RTVSPropertyOp56
 70
     1
102
RTVSPropertyOp57
 70
     1
102
RTVSPost2010Prop28
280
     0
102
RTVSPost2010PropOp28
 70
     1
102
RTVSPost2010Prop29
280
     1
102
RTVSPost2010PropOp29
 70
     1
102
RTVSPost2010Prop30
280
     1
102
RTVSPost2010PropOp30
 70
     1
102
RTVSPost2010Prop31
280
     0
102
RTVSPost2010PropOp31
 70
     1
102
RTVSPost2010Prop32
280
     0
102
RTVSPost2010PropOp32
 70
     1
102
RTVSPost2010Prop33
280
     0
102
RTVSPost2010PropOp33
 70
     1
102
RTVSPost2010Prop34
280
     0
102
RTVSPost2010PropOp34
 70
     1
102
RTVSPost2010Prop35
280
     0
102
RTVSPost2010PropOp35
 70
     1
102
RTVSPost2010Prop36
280
     0
102
RTVSPost2010PropOp36
 70
     1
102
RTVSPost2010Prop37
 90
       50
102
RTVSPost2010PropOp37
 70
     1
102
RTVSPost2010Prop38
140
0.0
102
RTVSPost2010PropOp38
 70
     1
102
RTVSPost2010Prop39
140
1.0
102
RTVSPost2010PropOp39
 70
     1
102
RTVSPost2010Prop40
 90
        0
102
RTVSPost2010PropOp40
 70
     1
102
RTVSPost2010Prop41ColorIndex
 90
       18
102
RTVSPost2010Prop41ColorRGB
 90
        0
102
RTVSPost2010PropOp41
 70
     1
102
RTVSPost2010Prop42
 90
       50
102
RTVSPost2010PropOp42
 70
     1
102
RTVSPost2010Prop43
 90
        3
102
RTVSPost2010PropOp43
 70
     1
102
RTVSPost2010Prop44ColorIndex
 90
        5
102
RTVSPost2010Prop44ColorRGB
 90
      255
102
RTVSPost2010PropOp44
 70
     1
102
RTVSPost2010Prop45
280
     0
102
RTVSPost2010PropOp45
 70
     1
102
RTVSPost2010Prop46
 90
       50
102
RTVSPost2010PropOp46
 70
     1
102
RTVSPost2010Prop47
 90
       50
102
RTVSPost2010PropOp47
 70
     1
102
RTVSPost2010Prop48
 90
       50
102
RTVSPost2010PropOp48
 70
     1
102
RTVSPost2010Prop49
280
     0
102
RTVSPost2010PropOp49
 70
     1
102
RTVSPost2010Prop50
 90
       50
102
RTVSPost2010PropOp50
 70
     1
102
RTVSPost2010Prop51ColorIndex
 90
      256
102
RTVSPost2010Prop51ColorRGB
 90
-16777216
102
RTVSPost2010PropOp51
 70
     0
102
RTVSPost2010Prop52
140
1.0
102
RTVSPost2010PropOp52
 70
     0
102
RTVSPost2010Prop53
 90
        2
102
RTVSPost2010PropOp53
 70
     1
102
RTVSPost2010Prop54
  1
strokes_ogs.tif
102
RTVSPost2010PropOp54
 70
     1
102
RTVSPost2010Prop55
280
     0
102
RTVSPost2010PropOp55
 70
     1
102
RTVSPost2010Prop56
140
1.0
102
RTVSPost2010PropOp56
 70
     1
102
RTVSPost2010Prop57
140
1.0
102
RTVSPost2010PropOp57
 70
     1
  0
XRECORD
  5
44C
102
{ACAD_REACTORS
330
44B
102
}
330
44B
100
AcDbXrecord
280
     1
102
RTVSPropertyOp0
 70
     1
102
RTVSPropertyOp1
 70
     1
102
RTVSPropertyOp2
 70
     1
102
RTVSPropertyOp3
 70
     1
102
RTVSPropertyOp4
 70
     1
102
RTVSPropertyOp5
 70
     1
102
RTVSPropertyOp6
 70
     1
102
RTVSPropertyOp7
 70
     1
102
RTVSPropertyOp8
 70
     1
102
RTVSPropertyOp9
 70
     1
102
RTVSPropertyOp10
 70
     1
102
RTVSPropertyOp11
 70
     1
102
RTVSPropertyOp12
 70
     1
102
RTVSPropertyOp13
 70
     1
102
RTVSPropertyOp14
 70
     1
102
RTVSPropertyOp15
 70
     1
102
RTVSPropertyOp16
 70
     1
102
RTVSPropertyOp17
 70
     1
102
RTVSPropertyOp18
 70
     1
102
RTVSPropertyOp19
 70
     1
102
RTVSPropertyOp20
 70
     1
102
RTVSPropertyOp21
 70
     1
102
RTVSPropertyOp22
 70
     1
102
RTVSPropertyOp23
 70
     1
102
RTVSPropertyOp24
 70
     1
102
RTVSPropertyOp25
 70
     1
102
RTVSPropertyOp26
 70
     1
102
RTVSPropertyOp27
 70
     1
102
RTVSPropertyOp28
 70
     1
102
RTVSPropertyOp29
 70
     1
102
RTVSPropertyOp30
 70
     1
102
RTVSPropertyOp31
 70
     1
102
RTVSPropertyOp32
 70
     1
102
RTVSPropertyOp33
 70
     1
102
RTVSPropertyOp34
 70
     1
102
RTVSPropertyOp35
 70
     1
102
RTVSPropertyOp36
 70
     1
102
RTVSPropertyOp37
 70
     1
102
RTVSPropertyOp38
 70
     1
102
RTVSPropertyOp39
 70
     1
102
RTVSPropertyOp40
 70
     1
102
RTVSPropertyOp41
 70
     1
102
RTVSPropertyOp42
 70
     1
102
RTVSPropertyOp43
 70
     1
102
RTVSPropertyOp44
 70
     1
102
RTVSPropertyOp45
 70
     1
102
RTVSPropertyOp46
 70
     1
102
RTVSPropertyOp47
 70
     1
102
RTVSPropertyOp48
 70
     1
102
RTVSPropertyOp49
 70
     1
102
RTVSPropertyOp50
 70
     1
102
RTVSPropertyOp51
 70
     0
102
RTVSPropertyOp52
 70
     0
102
RTVSPropertyOp53
 70
     1
102
RTVSPropertyOp54
 70
     1
102
RTVSPropertyOp55
 70
     1
102
RTVSPropertyOp56
 70
     1
102
RTVSPropertyOp57
 70
     1
102
RTVSPost2010Prop28
280
     0
102
RTVSPost2010PropOp28
 70
     1
102
RTVSPost2010Prop29
280
     1
102
RTVSPost2010PropOp29
 70
     1
102
RTVSPost2010Prop30
280
     1
102
RTVSPost2010PropOp30
 70
     1
102
RTVSPost2010Prop31
280
     0
102
RTVSPost2010PropOp31
 70
     1
102
RTVSPost2010Prop32
280
     0
102
RTVSPost2010PropOp32
 70
     1
102
RTVSPost2010Prop33
280
     0
102
RTVSPost2010PropOp33
 70
     1
102
RTVSPost2010Prop34
280
     0
102
RTVSPost2010PropOp34
 70
     1
102
RTVSPost2010Prop35
280
     0
102
RTVSPost2010PropOp35
 70
     1
102
RTVSPost2010Prop36
280
     0
102
RTVSPost2010PropOp36
 70
     1
102
RTVSPost2010Prop37
 90
       50
102
RTVSPost2010PropOp37
 70
     1
102
RTVSPost2010Prop38
140
0.0
102
RTVSPost2010PropOp38
 70
     1
102
RTVSPost2010Prop39
140
1.0
102
RTVSPost2010PropOp39
 70
     1
102
RTVSPost2010Prop40
 90
        0
102
RTVSPost2010PropOp40
 70
     1
102
RTVSPost2010Prop41ColorIndex
 90
       18
102
RTVSPost2010Prop41ColorRGB
 90
        0
102
RTVSPost2010PropOp41
 70
     1
102
RTVSPost2010Prop42
 90
       50
102
RTVSPost2010PropOp42
 70
     1
102
RTVSPost2010Prop43
 90
        3
102
RTVSPost2010PropOp43
 70
     1
102
RTVSPost2010Prop44ColorIndex
 90
        5
102
RTVSPost2010Prop44ColorRGB
 90
      255
102
RTVSPost2010PropOp44
 70
     1
102
RTVSPost2010Prop45
280
     0
102
RTVSPost2010PropOp45
 70
     1
102
RTVSPost2010Prop46
 90
       50
102
RTVSPost2010PropOp46
 70
     1
102
RTVSPost2010Prop47
 90
       50
102
RTVSPost2010PropOp47
 70
     1
102
RTVSPost2010Prop48
 90
       50
102
RTVSPost2010PropOp48
 70
     1
102
RTVSPost2010Prop49
280
     0
102
RTVSPost2010PropOp49
 70
     1
102
RTVSPost2010Prop50
 90
       50
102
RTVSPost2010PropOp50
 70
     1
102
RTVSPost2010Prop51ColorIndex
 90
      256
102
RTVSPost2010Prop51ColorRGB
 90
-16777216
102
RTVSPost2010PropOp51
 70
     0
102
RTVSPost2010Prop52
140
1.0
102
RTVSPost2010PropOp52
 70
     0
102
RTVSPost2010Prop53
 90
        2
102
RTVSPost2010PropOp53
 70
     1
102
RTVSPost2010Prop54
  1
strokes_ogs.tif
102
RTVSPost2010PropOp54
 70
     1
102
RTVSPost2010Prop55
280
     0
102
RTVSPost2010PropOp55
 70
     1
102
RTVSPost2010Prop56
140
1.0
102
RTVSPost2010PropOp56
 70
     1
102
RTVSPost2010Prop57
140
1.0
102
RTVSPost2010PropOp57
 70
     1
  0
XRECORD
  5
454
102
{ACAD_REACTORS
330
453
102
}
330
453
100
AcDbXrecord
280
     1
102
RTVSPropertyOp0
 70
     1
102
RTVSPropertyOp1
 70
     1
102
RTVSPropertyOp2
 70
     1
102
RTVSPropertyOp3
 70
     1
102
RTVSPropertyOp4
 70
     1
102
RTVSPropertyOp5
 70
     1
102
RTVSPropertyOp6
 70
     1
102
RTVSPropertyOp7
 70
     1
102
RTVSPropertyOp8
 70
     1
102
RTVSPropertyOp9
 70
     1
102
RTVSPropertyOp10
 70
     1
102
RTVSPropertyOp11
 70
     1
102
RTVSPropertyOp12
 70
     1
102
RTVSPropertyOp13
 70
     1
102
RTVSPropertyOp14
 70
     1
102
RTVSPropertyOp15
 70
     1
102
RTVSPropertyOp16
 70
     1
102
RTVSPropertyOp17
 70
     1
102
RTVSPropertyOp18
 70
     1
102
RTVSPropertyOp19
 70
     1
102
RTVSPropertyOp20
 70
     1
102
RTVSPropertyOp21
 70
     1
102
RTVSPropertyOp22
 70
     1
102
RTVSPropertyOp23
 70
     1
102
RTVSPropertyOp24
 70
     1
102
RTVSPropertyOp25
 70
     1
102
RTVSPropertyOp26
 70
     1
102
RTVSPropertyOp27
 70
     1
102
RTVSPropertyOp28
 70
     1
102
RTVSPropertyOp29
 70
     1
102
RTVSPropertyOp30
 70
     1
102
RTVSPropertyOp31
 70
     1
102
RTVSPropertyOp32
 70
     1
102
RTVSPropertyOp33
 70
     1
102
RTVSPropertyOp34
 70
     1
102
RTVSPropertyOp35
 70
     1
102
RTVSPropertyOp36
 70
     1
102
RTVSPropertyOp37
 70
     1
102
RTVSPropertyOp38
 70
     1
102
RTVSPropertyOp39
 70
     1
102
RTVSPropertyOp40
 70
     1
102
RTVSPropertyOp41
 70
     1
102
RTVSPropertyOp42
 70
     1
102
RTVSPropertyOp43
 70
     1
102
RTVSPropertyOp44
 70
     1
102
RTVSPropertyOp45
 70
     1
102
RTVSPropertyOp46
 70
     1
102
RTVSPropertyOp47
 70
     1
102
RTVSPropertyOp48
 70
     1
102
RTVSPropertyOp49
 70
     1
102
RTVSPropertyOp50
 70
     1
102
RTVSPropertyOp51
 70
     0
102
RTVSPropertyOp52
 70
     0
102
RTVSPropertyOp53
 70
     1
102
RTVSPropertyOp54
 70
     1
102
RTVSPropertyOp55
 70
     1
102
RTVSPropertyOp56
 70
     1
102
RTVSPropertyOp57
 70
     1
102
RTVSPost2010Prop28
280
     0
102
RTVSPost2010PropOp28
 70
     1
102
RTVSPost2010Prop29
280
     1
102
RTVSPost2010PropOp29
 70
     1
102
RTVSPost2010Prop30
280
     1
102
RTVSPost2010PropOp30
 70
     1
102
RTVSPost2010Prop31
280
     0
102
RTVSPost2010PropOp31
 70
     1
102
RTVSPost2010Prop32
280
     0
102
RTVSPost2010PropOp32
 70
     1
102
RTVSPost2010Prop33
280
     0
102
RTVSPost2010PropOp33
 70
     1
102
RTVSPost2010Prop34
280
     0
102
RTVSPost2010PropOp34
 70
     1
102
RTVSPost2010Prop35
280
     0
102
RTVSPost2010PropOp35
 70
     1
102
RTVSPost2010Prop36
280
     0
102
RTVSPost2010PropOp36
 70
     1
102
RTVSPost2010Prop37
 90
       50
102
RTVSPost2010PropOp37
 70
     1
102
RTVSPost2010Prop38
140
0.0
102
RTVSPost2010PropOp38
 70
     1
102
RTVSPost2010Prop39
140
1.0
102
RTVSPost2010PropOp39
 70
     1
102
RTVSPost2010Prop40
 90
        0
102
RTVSPost2010PropOp40
 70
     1
102
RTVSPost2010Prop41ColorIndex
 90
       18
102
RTVSPost2010Prop41ColorRGB
 90
        0
102
RTVSPost2010PropOp41
 70
     1
102
RTVSPost2010Prop42
 90
       50
102
RTVSPost2010PropOp42
 70
     1
102
RTVSPost2010Prop43
 90
        3
102
RTVSPost2010PropOp43
 70
     1
102
RTVSPost2010Prop44ColorIndex
 90
        5
102
RTVSPost2010Prop44ColorRGB
 90
      255
102
RTVSPost2010PropOp44
 70
     1
102
RTVSPost2010Prop45
280
     0
102
RTVSPost2010PropOp45
 70
     1
102
RTVSPost2010Prop46
 90
       50
102
RTVSPost2010PropOp46
 70
     1
102
RTVSPost2010Prop47
 90
       50
102
RTVSPost2010PropOp47
 70
     1
102
RTVSPost2010Prop48
 90
       50
102
RTVSPost2010PropOp48
 70
     1
102
RTVSPost2010Prop49
280
     0
102
RTVSPost2010PropOp49
 70
     1
102
RTVSPost2010Prop50
 90
       50
102
RTVSPost2010PropOp50
 70
     1
102
RTVSPost2010Prop51ColorIndex
 90
      256
102
RTVSPost2010Prop51ColorRGB
 90
-16777216
102
RTVSPost2010PropOp51
 70
     0
102
RTVSPost2010Prop52
140
1.0
102
RTVSPost2010PropOp52
 70
     0
102
RTVSPost2010Prop53
 90
        2
102
RTVSPost2010PropOp53
 70
     1
102
RTVSPost2010Prop54
  1
strokes_ogs.tif
102
RTVSPost2010PropOp54
 70
     1
102
RTVSPost2010Prop55
280
     0
102
RTVSPost2010PropOp55
 70
     1
102
RTVSPost2010Prop56
140
1.0
102
RTVSPost2010PropOp56
 70
     1
102
RTVSPost2010Prop57
140
1.0
102
RTVSPost2010PropOp57
 70
     1
  0
XRECORD
  5
448
102
{ACAD_REACTORS
330
447
102
}
330
447
100
AcDbXrecord
280
     1
102
RTVSPropertyOp0
 70
     1
102
RTVSPropertyOp1
 70
     1
102
RTVSPropertyOp2
 70
     1
102
RTVSPropertyOp3
 70
     1
102
RTVSPropertyOp4
 70
     1
102
RTVSPropertyOp5
 70
     1
102
RTVSPropertyOp6
 70
     1
102
RTVSPropertyOp7
 70
     1
102
RTVSPropertyOp8
 70
     1
102
RTVSPropertyOp9
 70
     1
102
RTVSPropertyOp10
 70
     1
102
RTVSPropertyOp11
 70
     1
102
RTVSPropertyOp12
 70
     1
102
RTVSPropertyOp13
 70
     1
102
RTVSPropertyOp14
 70
     1
102
RTVSPropertyOp15
 70
     1
102
RTVSPropertyOp16
 70
     1
102
RTVSPropertyOp17
 70
     1
102
RTVSPropertyOp18
 70
     1
102
RTVSPropertyOp19
 70
     1
102
RTVSPropertyOp20
 70
     1
102
RTVSPropertyOp21
 70
     1
102
RTVSPropertyOp22
 70
     1
102
RTVSPropertyOp23
 70
     1
102
RTVSPropertyOp24
 70
     1
102
RTVSPropertyOp25
 70
     1
102
RTVSPropertyOp26
 70
     1
102
RTVSPropertyOp27
 70
     1
102
RTVSPropertyOp28
 70
     1
102
RTVSPropertyOp29
 70
     1
102
RTVSPropertyOp30
 70
     1
102
RTVSPropertyOp31
 70
     1
102
RTVSPropertyOp32
 70
     1
102
RTVSPropertyOp33
 70
     1
102
RTVSPropertyOp34
 70
     1
102
RTVSPropertyOp35
 70
     1
102
RTVSPropertyOp36
 70
     1
102
RTVSPropertyOp37
 70
     1
102
RTVSPropertyOp38
 70
     1
102
RTVSPropertyOp39
 70
     1
102
RTVSPropertyOp40
 70
     1
102
RTVSPropertyOp41
 70
     1
102
RTVSPropertyOp42
 70
     1
102
RTVSPropertyOp43
 70
     1
102
RTVSPropertyOp44
 70
     1
102
RTVSPropertyOp45
 70
     1
102
RTVSPropertyOp46
 70
     1
102
RTVSPropertyOp47
 70
     1
102
RTVSPropertyOp48
 70
     1
102
RTVSPropertyOp49
 70
     1
102
RTVSPropertyOp50
 70
     1
102
RTVSPropertyOp51
 70
     0
102
RTVSPropertyOp52
 70
     0
102
RTVSPropertyOp53
 70
     1
102
RTVSPropertyOp54
 70
     1
102
RTVSPropertyOp55
 70
     1
102
RTVSPropertyOp56
 70
     1
102
RTVSPropertyOp57
 70
     1
102
RTVSPost2010Prop28
280
     0
102
RTVSPost2010PropOp28
 70
     1
102
RTVSPost2010Prop29
280
     1
102
RTVSPost2010PropOp29
 70
     1
102
RTVSPost2010Prop30
280
     1
102
RTVSPost2010PropOp30
 70
     1
102
RTVSPost2010Prop31
280
     0
102
RTVSPost2010PropOp31
 70
     1
102
RTVSPost2010Prop32
280
     0
102
RTVSPost2010PropOp32
 70
     1
102
RTVSPost2010Prop33
280
     0
102
RTVSPost2010PropOp33
 70
     1
102
RTVSPost2010Prop34
280
     0
102
RTVSPost2010PropOp34
 70
     1
102
RTVSPost2010Prop35
280
     0
102
RTVSPost2010PropOp35
 70
     1
102
RTVSPost2010Prop36
280
     0
102
RTVSPost2010PropOp36
 70
     1
102
RTVSPost2010Prop37
 90
       50
102
RTVSPost2010PropOp37
 70
     1
102
RTVSPost2010Prop38
140
0.0
102
RTVSPost2010PropOp38
 70
     1
102
RTVSPost2010Prop39
140
1.0
102
RTVSPost2010PropOp39
 70
     1
102
RTVSPost2010Prop40
 90
        0
102
RTVSPost2010PropOp40
 70
     1
102
RTVSPost2010Prop41ColorIndex
 90
       18
102
RTVSPost2010Prop41ColorRGB
 90
        0
102
RTVSPost2010PropOp41
 70
     1
102
RTVSPost2010Prop42
 90
       50
102
RTVSPost2010PropOp42
 70
     1
102
RTVSPost2010Prop43
 90
        3
102
RTVSPost2010PropOp43
 70
     1
102
RTVSPost2010Prop44ColorIndex
 90
        5
102
RTVSPost2010Prop44ColorRGB
 90
      255
102
RTVSPost2010PropOp44
 70
     1
102
RTVSPost2010Prop45
280
     0
102
RTVSPost2010PropOp45
 70
     1
102
RTVSPost2010Prop46
 90
       50
102
RTVSPost2010PropOp46
 70
     1
102
RTVSPost2010Prop47
 90
       50
102
RTVSPost2010PropOp47
 70
     1
102
RTVSPost2010Prop48
 90
       50
102
RTVSPost2010PropOp48
 70
     1
102
RTVSPost2010Prop49
280
     0
102
RTVSPost2010PropOp49
 70
     1
102
RTVSPost2010Prop50
 90
       50
102
RTVSPost2010PropOp50
 70
     1
102
RTVSPost2010Prop51ColorIndex
 90
      256
102
RTVSPost2010Prop51ColorRGB
 90
-16777216
102
RTVSPost2010PropOp51
 70
     0
102
RTVSPost2010Prop52
140
1.0
102
RTVSPost2010PropOp52
 70
     0
102
RTVSPost2010Prop53
 90
        2
102
RTVSPost2010PropOp53
 70
     1
102
RTVSPost2010Prop54
  1
strokes_ogs.tif
102
RTVSPost2010PropOp54
 70
     1
102
RTVSPost2010Prop55
280
     0
102
RTVSPost2010PropOp55
 70
     1
102
RTVSPost2010Prop56
140
1.0
102
RTVSPost2010PropOp56
 70
     1
102
RTVSPost2010Prop57
140
1.0
102
RTVSPost2010PropOp57
 70
     1
  0
XRECORD
  5
44A
102
{ACAD_REACTORS
330
449
102
}
330
449
100
AcDbXrecord
280
     1
102
RTVSPropertyOp0
 70
     1
102
RTVSPropertyOp1
 70
     1
102
RTVSPropertyOp2
 70
     1
102
RTVSPropertyOp3
 70
     1
102
RTVSPropertyOp4
 70
     1
102
RTVSPropertyOp5
 70
     1
102
RTVSPropertyOp6
 70
     1
102
RTVSPropertyOp7
 70
     1
102
RTVSPropertyOp8
 70
     1
102
RTVSPropertyOp9
 70
     1
102
RTVSPropertyOp10
 70
     1
102
RTVSPropertyOp11
 70
     1
102
RTVSPropertyOp12
 70
     1
102
RTVSPropertyOp13
 70
     1
102
RTVSPropertyOp14
 70
     1
102
RTVSPropertyOp15
 70
     1
102
RTVSPropertyOp16
 70
     1
102
RTVSPropertyOp17
 70
     1
102
RTVSPropertyOp18
 70
     1
102
RTVSPropertyOp19
 70
     1
102
RTVSPropertyOp20
 70
     1
102
RTVSPropertyOp21
 70
     1
102
RTVSPropertyOp22
 70
     1
102
RTVSPropertyOp23
 70
     1
102
RTVSPropertyOp24
 70
     1
102
RTVSPropertyOp25
 70
     1
102
RTVSPropertyOp26
 70
     1
102
RTVSPropertyOp27
 70
     1
102
RTVSPropertyOp28
 70
     1
102
RTVSPropertyOp29
 70
     1
102
RTVSPropertyOp30
 70
     1
102
RTVSPropertyOp31
 70
     1
102
RTVSPropertyOp32
 70
     1
102
RTVSPropertyOp33
 70
     1
102
RTVSPropertyOp34
 70
     1
102
RTVSPropertyOp35
 70
     1
102
RTVSPropertyOp36
 70
     1
102
RTVSPropertyOp37
 70
     1
102
RTVSPropertyOp38
 70
     1
102
RTVSPropertyOp39
 70
     1
102
RTVSPropertyOp40
 70
     1
102
RTVSPropertyOp41
 70
     1
102
RTVSPropertyOp42
 70
     1
102
RTVSPropertyOp43
 70
     1
102
RTVSPropertyOp44
 70
     1
102
RTVSPropertyOp45
 70
     1
102
RTVSPropertyOp46
 70
     1
102
RTVSPropertyOp47
 70
     1
102
RTVSPropertyOp48
 70
     1
102
RTVSPropertyOp49
 70
     1
102
RTVSPropertyOp50
 70
     1
102
RTVSPropertyOp51
 70
     0
102
RTVSPropertyOp52
 70
     0
102
RTVSPropertyOp53
 70
     1
102
RTVSPropertyOp54
 70
     1
102
RTVSPropertyOp55
 70
     1
102
RTVSPropertyOp56
 70
     1
102
RTVSPropertyOp57
 70
     1
102
RTVSPost2010Prop28
280
     0
102
RTVSPost2010PropOp28
 70
     1
102
RTVSPost2010Prop29
280
     1
102
RTVSPost2010PropOp29
 70
     1
102
RTVSPost2010Prop30
280
     1
102
RTVSPost2010PropOp30
 70
     1
102
RTVSPost2010Prop31
280
     0
102
RTVSPost2010PropOp31
 70
     1
102
RTVSPost2010Prop32
280
     0
102
RTVSPost2010PropOp32
 70
     1
102
RTVSPost2010Prop33
280
     0
102
RTVSPost2010PropOp33
 70
     1
102
RTVSPost2010Prop34
280
     0
102
RTVSPost2010PropOp34
 70
     1
102
RTVSPost2010Prop35
280
     0
102
RTVSPost2010PropOp35
 70
     1
102
RTVSPost2010Prop36
280
     0
102
RTVSPost2010PropOp36
 70
     1
102
RTVSPost2010Prop37
 90
       50
102
RTVSPost2010PropOp37
 70
     1
102
RTVSPost2010Prop38
140
0.0
102
RTVSPost2010PropOp38
 70
     1
102
RTVSPost2010Prop39
140
1.0
102
RTVSPost2010PropOp39
 70
     1
102
RTVSPost2010Prop40
 90
        0
102
RTVSPost2010PropOp40
 70
     1
102
RTVSPost2010Prop41ColorIndex
 90
       18
102
RTVSPost2010Prop41ColorRGB
 90
        0
102
RTVSPost2010PropOp41
 70
     1
102
RTVSPost2010Prop42
 90
       50
102
RTVSPost2010PropOp42
 70
     1
102
RTVSPost2010Prop43
 90
        3
102
RTVSPost2010PropOp43
 70
     1
102
RTVSPost2010Prop44ColorIndex
 90
        5
102
RTVSPost2010Prop44ColorRGB
 90
      255
102
RTVSPost2010PropOp44
 70
     1
102
RTVSPost2010Prop45
280
     0
102
RTVSPost2010PropOp45
 70
     1
102
RTVSPost2010Prop46
 90
       50
102
RTVSPost2010PropOp46
 70
     1
102
RTVSPost2010Prop47
 90
       50
102
RTVSPost2010PropOp47
 70
     1
102
RTVSPost2010Prop48
 90
       50
102
RTVSPost2010PropOp48
 70
     1
102
RTVSPost2010Prop49
280
     0
102
RTVSPost2010PropOp49
 70
     1
102
RTVSPost2010Prop50
 90
       50
102
RTVSPost2010PropOp50
 70
     1
102
RTVSPost2010Prop51ColorIndex
 90
      256
102
RTVSPost2010Prop51ColorRGB
 90
-16777216
102
RTVSPost2010PropOp51
 70
     0
102
RTVSPost2010Prop52
140
1.0
102
RTVSPost2010PropOp52
 70
     0
102
RTVSPost2010Prop53
 90
        2
102
RTVSPost2010PropOp53
 70
     1
102
RTVSPost2010Prop54
  1
strokes_ogs.tif
102
RTVSPost2010PropOp54
 70
     1
102
RTVSPost2010Prop55
280
     0
102
RTVSPost2010PropOp55
 70
     1
102
RTVSPost2010Prop56
140
1.0
102
RTVSPost2010PropOp56
 70
     1
102
RTVSPost2010Prop57
140
1.0
102
RTVSPost2010PropOp57
 70
     1
  0
XRECORD
  5
45A
102
{ACAD_REACTORS
330
459
102
}
330
459
100
AcDbXrecord
280
     1
102
RTVSPropertyOp0
 70
     0
102
RTVSPropertyOp1
 70
     0
102
RTVSPropertyOp2
 70
     0
102
RTVSPropertyOp3
 70
     0
102
RTVSPropertyOp4
 70
     0
102
RTVSPropertyOp5
 70
     0
102
RTVSPropertyOp6
 70
     0
102
RTVSPropertyOp7
 70
     0
102
RTVSPropertyOp8
 70
     0
102
RTVSPropertyOp9
 70
     0
102
RTVSPropertyOp10
 70
     0
102
RTVSPropertyOp11
 70
     0
102
RTVSPropertyOp12
 70
     0
102
RTVSPropertyOp13
 70
     0
102
RTVSPropertyOp14
 70
     2
102
RTVSPropertyOp15
 70
     0
102
RTVSPropertyOp16
 70
     0
102
RTVSPropertyOp17
 70
     0
102
RTVSPropertyOp18
 70
     0
102
RTVSPropertyOp19
 70
     0
102
RTVSPropertyOp20
 70
     0
102
RTVSPropertyOp21
 70
     0
102
RTVSPropertyOp22
 70
     0
102
RTVSPropertyOp23
 70
     0
102
RTVSPropertyOp24
 70
     0
102
RTVSPropertyOp25
 70
     0
102
RTVSPropertyOp26
 70
     0
102
RTVSPropertyOp27
 70
     0
102
RTVSPropertyOp28
 70
     0
102
RTVSPropertyOp29
 70
     0
102
RTVSPropertyOp30
 70
     0
102
RTVSPropertyOp31
 70
     0
102
RTVSPropertyOp32
 70
     0
102
RTVSPropertyOp33
 70
     0
102
RTVSPropertyOp34
 70
     0
102
RTVSPropertyOp35
 70
     0
102
RTVSPropertyOp36
 70
     0
102
RTVSPropertyOp37
 70
     0
102
RTVSPropertyOp38
 70
     0
102
RTVSPropertyOp39
 70
     0
102
RTVSPropertyOp40
 70
     0
102
RTVSPropertyOp41
 70
     0
102
RTVSPropertyOp42
 70
     0
102
RTVSPropertyOp43
 70
     0
102
RTVSPropertyOp44
 70
     0
102
RTVSPropertyOp45
 70
     0
102
RTVSPropertyOp46
 70
     0
102
RTVSPropertyOp47
 70
     0
102
RTVSPropertyOp48
 70
     0
102
RTVSPropertyOp49
 70
     0
102
RTVSPropertyOp50
 70
     0
102
RTVSPropertyOp51
 70
     0
102
RTVSPropertyOp52
 70
     0
102
RTVSPropertyOp53
 70
     0
102
RTVSPropertyOp54
 70
     0
102
RTVSPropertyOp55
 70
     0
102
RTVSPropertyOp56
 70
     0
102
RTVSPropertyOp57
 70
     0
102
RTVSPost2010Prop28
280
     0
102
RTVSPost2010PropOp28
 70
     0
102
RTVSPost2010Prop29
280
     1
102
RTVSPost2010PropOp29
 70
     0
102
RTVSPost2010Prop30
280
     1
102
RTVSPost2010PropOp30
 70
     0
102
RTVSPost2010Prop31
280
     0
102
RTVSPost2010PropOp31
 70
     0
102
RTVSPost2010Prop32
280
     0
102
RTVSPost2010PropOp32
 70
     0
102
RTVSPost2010Prop33
280
     0
102
RTVSPost2010PropOp33
 70
     0
102
RTVSPost2010Prop34
280
     0
102
RTVSPost2010PropOp34
 70
     0
102
RTVSPost2010Prop35
280
     0
102
RTVSPost2010PropOp35
 70
     0
102
RTVSPost2010Prop36
280
     0
102
RTVSPost2010PropOp36
 70
     0
102
RTVSPost2010Prop37
 90
       50
102
RTVSPost2010PropOp37
 70
     0
102
RTVSPost2010Prop38
140
0.0
102
RTVSPost2010PropOp38
 70
     0
102
RTVSPost2010Prop39
140
1.0
102
RTVSPost2010PropOp39
 70
     0
102
RTVSPost2010Prop40
 90
        0
102
RTVSPost2010PropOp40
 70
     0
102
RTVSPost2010Prop41ColorIndex
 90
       18
102
RTVSPost2010Prop41ColorRGB
 90
        0
102
RTVSPost2010PropOp41
 70
     0
102
RTVSPost2010Prop42
 90
       50
102
RTVSPost2010PropOp42
 70
     0
102
RTVSPost2010Prop43
 90
        3
102
RTVSPost2010PropOp43
 70
     0
102
RTVSPost2010Prop44ColorIndex
 90
        5
102
RTVSPost2010Prop44ColorRGB
 90
      255
102
RTVSPost2010PropOp44
 70
     0
102
RTVSPost2010Prop45
280
     0
102
RTVSPost2010PropOp45
 70
     0
102
RTVSPost2010Prop46
 90
       50
102
RTVSPost2010PropOp46
 70
     0
102
RTVSPost2010Prop47
 90
       50
102
RTVSPost2010PropOp47
 70
     0
102
RTVSPost2010Prop48
 90
       50
102
RTVSPost2010PropOp48
 70
     0
102
RTVSPost2010Prop49
280
     0
102
RTVSPost2010PropOp49
 70
     0
102
RTVSPost2010Prop50
 90
       50
102
RTVSPost2010PropOp50
 70
     0
102
RTVSPost2010Prop51ColorIndex
 90
      256
102
RTVSPost2010Prop51ColorRGB
 90
-16777216
102
RTVSPost2010PropOp51
 70
     0
102
RTVSPost2010Prop52
140
1.0
102
RTVSPost2010PropOp52
 70
     0
102
RTVSPost2010Prop53
 90
        2
102
RTVSPost2010PropOp53
 70
     0
102
RTVSPost2010Prop54
  1
strokes_ogs.tif
102
RTVSPost2010PropOp54
 70
     0
102
RTVSPost2010Prop55
280
     0
102
RTVSPost2010PropOp55
 70
     0
102
RTVSPost2010Prop56
140
1.0
102
RTVSPost2010PropOp56
 70
     0
102
RTVSPost2010Prop57
140
1.0
102
RTVSPost2010PropOp57
 70
     0
  0
XRECORD
  5
452
102
{ACAD_REACTORS
330
451
102
}
330
451
100
AcDbXrecord
280
     1
102
RTVSPropertyOp0
 70
     1
102
RTVSPropertyOp1
 70
     1
102
RTVSPropertyOp2
 70
     1
102
RTVSPropertyOp3
 70
     1
102
RTVSPropertyOp4
 70
     1
102
RTVSPropertyOp5
 70
     1
102
RTVSPropertyOp6
 70
     1
102
RTVSPropertyOp7
 70
     1
102
RTVSPropertyOp8
 70
     1
102
RTVSPropertyOp9
 70
     1
102
RTVSPropertyOp10
 70
     1
102
RTVSPropertyOp11
 70
     1
102
RTVSPropertyOp12
 70
     1
102
RTVSPropertyOp13
 70
     1
102
RTVSPropertyOp14
 70
     1
102
RTVSPropertyOp15
 70
     1
102
RTVSPropertyOp16
 70
     1
102
RTVSPropertyOp17
 70
     1
102
RTVSPropertyOp18
 70
     1
102
RTVSPropertyOp19
 70
     1
102
RTVSPropertyOp20
 70
     1
102
RTVSPropertyOp21
 70
     1
102
RTVSPropertyOp22
 70
     1
102
RTVSPropertyOp23
 70
     1
102
RTVSPropertyOp24
 70
     1
102
RTVSPropertyOp25
 70
     1
102
RTVSPropertyOp26
 70
     1
102
RTVSPropertyOp27
 70
     1
102
RTVSPropertyOp28
 70
     1
102
RTVSPropertyOp29
 70
     1
102
RTVSPropertyOp30
 70
     1
102
RTVSPropertyOp31
 70
     1
102
RTVSPropertyOp32
 70
     1
102
RTVSPropertyOp33
 70
     1
102
RTVSPropertyOp34
 70
     1
102
RTVSPropertyOp35
 70
     1
102
RTVSPropertyOp36
 70
     1
102
RTVSPropertyOp37
 70
     1
102
RTVSPropertyOp38
 70
     1
102
RTVSPropertyOp39
 70
     1
102
RTVSPropertyOp40
 70
     1
102
RTVSPropertyOp41
 70
     1
102
RTVSPropertyOp42
 70
     1
102
RTVSPropertyOp43
 70
     1
102
RTVSPropertyOp44
 70
     1
102
RTVSPropertyOp45
 70
     1
102
RTVSPropertyOp46
 70
     1
102
RTVSPropertyOp47
 70
     1
102
RTVSPropertyOp48
 70
     1
102
RTVSPropertyOp49
 70
     1
102
RTVSPropertyOp50
 70
     1
102
RTVSPropertyOp51
 70
     0
102
RTVSPropertyOp52
 70
     0
102
RTVSPropertyOp53
 70
     1
102
RTVSPropertyOp54
 70
     1
102
RTVSPropertyOp55
 70
     1
102
RTVSPropertyOp56
 70
     1
102
RTVSPropertyOp57
 70
     1
102
RTVSPost2010Prop28
280
     0
102
RTVSPost2010PropOp28
 70
     1
102
RTVSPost2010Prop29
280
     1
102
RTVSPost2010PropOp29
 70
     1
102
RTVSPost2010Prop30
280
     1
102
RTVSPost2010PropOp30
 70
     1
102
RTVSPost2010Prop31
280
     0
102
RTVSPost2010PropOp31
 70
     1
102
RTVSPost2010Prop32
280
     0
102
RTVSPost2010PropOp32
 70
     1
102
RTVSPost2010Prop33
280
     0
102
RTVSPost2010PropOp33
 70
     1
102
RTVSPost2010Prop34
280
     0
102
RTVSPost2010PropOp34
 70
     1
102
RTVSPost2010Prop35
280
     0
102
RTVSPost2010PropOp35
 70
     1
102
RTVSPost2010Prop36
280
     0
102
RTVSPost2010PropOp36
 70
     1
102
RTVSPost2010Prop37
 90
       50
102
RTVSPost2010PropOp37
 70
     1
102
RTVSPost2010Prop38
140
0.0
102
RTVSPost2010PropOp38
 70
     1
102
RTVSPost2010Prop39
140
1.0
102
RTVSPost2010PropOp39
 70
     1
102
RTVSPost2010Prop40
 90
        0
102
RTVSPost2010PropOp40
 70
     1
102
RTVSPost2010Prop41ColorIndex
 90
       18
102
RTVSPost2010Prop41ColorRGB
 90
        0
102
RTVSPost2010PropOp41
 70
     1
102
RTVSPost2010Prop42
 90
       50
102
RTVSPost2010PropOp42
 70
     1
102
RTVSPost2010Prop43
 90
        3
102
RTVSPost2010PropOp43
 70
     1
102
RTVSPost2010Prop44ColorIndex
 90
        5
102
RTVSPost2010Prop44ColorRGB
 90
      255
102
RTVSPost2010PropOp44
 70
     1
102
RTVSPost2010Prop45
280
     0
102
RTVSPost2010PropOp45
 70
     1
102
RTVSPost2010Prop46
 90
       50
102
RTVSPost2010PropOp46
 70
     1
102
RTVSPost2010Prop47
 90
       50
102
RTVSPost2010PropOp47
 70
     1
102
RTVSPost2010Prop48
 90
       50
102
RTVSPost2010PropOp48
 70
     1
102
RTVSPost2010Prop49
280
     0
102
RTVSPost2010PropOp49
 70
     1
102
RTVSPost2010Prop50
 90
       50
102
RTVSPost2010PropOp50
 70
     1
102
RTVSPost2010Prop51ColorIndex
 90
      256
102
RTVSPost2010Prop51ColorRGB
 90
-16777216
102
RTVSPost2010PropOp51
 70
     0
102
RTVSPost2010Prop52
140
1.0
102
RTVSPost2010PropOp52
 70
     0
102
RTVSPost2010Prop53
 90
        2
102
RTVSPost2010PropOp53
 70
     1
102
RTVSPost2010Prop54
  1
strokes_ogs.tif
102
RTVSPost2010PropOp54
 70
     1
102
RTVSPost2010Prop55
280
     0
102
RTVSPost2010PropOp55
 70
     1
102
RTVSPost2010Prop56
140
1.0
102
RTVSPost2010PropOp56
 70
     1
102
RTVSPost2010Prop57
140
1.0
102
RTVSPost2010PropOp57
 70
     1
  0
XRECORD
  5
436
102
{ACAD_REACTORS
330
435
102
}
330
435
100
AcDbXrecord
280
     1
102
RTVSPropertyOp0
 70
     1
102
RTVSPropertyOp1
 70
     1
102
RTVSPropertyOp2
 70
     1
102
RTVSPropertyOp3
 70
     1
102
RTVSPropertyOp4
 70
     1
102
RTVSPropertyOp5
 70
     1
102
RTVSPropertyOp6
 70
     1
102
RTVSPropertyOp7
 70
     1
102
RTVSPropertyOp8
 70
     1
102
RTVSPropertyOp9
 70
     1
102
RTVSPropertyOp10
 70
     1
102
RTVSPropertyOp11
 70
     1
102
RTVSPropertyOp12
 70
     1
102
RTVSPropertyOp13
 70
     1
102
RTVSPropertyOp14
 70
     1
102
RTVSPropertyOp15
 70
     1
102
RTVSPropertyOp16
 70
     1
102
RTVSPropertyOp17
 70
     1
102
RTVSPropertyOp18
 70
     1
102
RTVSPropertyOp19
 70
     1
102
RTVSPropertyOp20
 70
     1
102
RTVSPropertyOp21
 70
     1
102
RTVSPropertyOp22
 70
     1
102
RTVSPropertyOp23
 70
     1
102
RTVSPropertyOp24
 70
     1
102
RTVSPropertyOp25
 70
     1
102
RTVSPropertyOp26
 70
     1
102
RTVSPropertyOp27
 70
     1
102
RTVSPropertyOp28
 70
     1
102
RTVSPropertyOp29
 70
     1
102
RTVSPropertyOp30
 70
     1
102
RTVSPropertyOp31
 70
     1
102
RTVSPropertyOp32
 70
     1
102
RTVSPropertyOp33
 70
     1
102
RTVSPropertyOp34
 70
     1
102
RTVSPropertyOp35
 70
     1
102
RTVSPropertyOp36
 70
     1
102
RTVSPropertyOp37
 70
     1
102
RTVSPropertyOp38
 70
     1
102
RTVSPropertyOp39
 70
     1
102
RTVSPropertyOp40
 70
     1
102
RTVSPropertyOp41
 70
     1
102
RTVSPropertyOp42
 70
     1
102
RTVSPropertyOp43
 70
     1
102
RTVSPropertyOp44
 70
     1
102
RTVSPropertyOp45
 70
     1
102
RTVSPropertyOp46
 70
     1
102
RTVSPropertyOp47
 70
     1
102
RTVSPropertyOp48
 70
     1
102
RTVSPropertyOp49
 70
     1
102
RTVSPropertyOp50
 70
     1
102
RTVSPropertyOp51
 70
     0
102
RTVSPropertyOp52
 70
     0
102
RTVSPropertyOp53
 70
     1
102
RTVSPropertyOp54
 70
     1
102
RTVSPropertyOp55
 70
     1
102
RTVSPropertyOp56
 70
     1
102
RTVSPropertyOp57
 70
     1
102
RTVSPost2010Prop28
280
     0
102
RTVSPost2010PropOp28
 70
     1
102
RTVSPost2010Prop29
280
     1
102
RTVSPost2010PropOp29
 70
     1
102
RTVSPost2010Prop30
280
     1
102
RTVSPost2010PropOp30
 70
     1
102
RTVSPost2010Prop31
280
     0
102
RTVSPost2010PropOp31
 70
     1
102
RTVSPost2010Prop32
280
     0
102
RTVSPost2010PropOp32
 70
     1
102
RTVSPost2010Prop33
280
     0
102
RTVSPost2010PropOp33
 70
     1
102
RTVSPost2010Prop34
280
     0
102
RTVSPost2010PropOp34
 70
     1
102
RTVSPost2010Prop35
280
     0
102
RTVSPost2010PropOp35
 70
     1
102
RTVSPost2010Prop36
280
     0
102
RTVSPost2010PropOp36
 70
     1
102
RTVSPost2010Prop37
 90
       50
102
RTVSPost2010PropOp37
 70
     1
102
RTVSPost2010Prop38
140
0.0
102
RTVSPost2010PropOp38
 70
     1
102
RTVSPost2010Prop39
140
1.0
102
RTVSPost2010PropOp39
 70
     1
102
RTVSPost2010Prop40
 90
        0
102
RTVSPost2010PropOp40
 70
     1
102
RTVSPost2010Prop41ColorIndex
 90
       18
102
RTVSPost2010Prop41ColorRGB
 90
        0
102
RTVSPost2010PropOp41
 70
     1
102
RTVSPost2010Prop42
 90
       50
102
RTVSPost2010PropOp42
 70
     1
102
RTVSPost2010Prop43
 90
        3
102
RTVSPost2010PropOp43
 70
     1
102
RTVSPost2010Prop44ColorIndex
 90
        5
102
RTVSPost2010Prop44ColorRGB
 90
      255
102
RTVSPost2010PropOp44
 70
     1
102
RTVSPost2010Prop45
280
     0
102
RTVSPost2010PropOp45
 70
     1
102
RTVSPost2010Prop46
 90
       50
102
RTVSPost2010PropOp46
 70
     1
102
RTVSPost2010Prop47
 90
       50
102
RTVSPost2010PropOp47
 70
     1
102
RTVSPost2010Prop48
 90
       50
102
RTVSPost2010PropOp48
 70
     1
102
RTVSPost2010Prop49
280
     0
102
RTVSPost2010PropOp49
 70
     1
102
RTVSPost2010Prop50
 90
       50
102
RTVSPost2010PropOp50
 70
     1
102
RTVSPost2010Prop51ColorIndex
 90
      256
102
RTVSPost2010Prop51ColorRGB
 90
-16777216
102
RTVSPost2010PropOp51
 70
     0
102
RTVSPost2010Prop52
140
1.0
102
RTVSPost2010PropOp52
 70
     0
102
RTVSPost2010Prop53
 90
        2
102
RTVSPost2010PropOp53
 70
     1
102
RTVSPost2010Prop54
  1
strokes_ogs.tif
102
RTVSPost2010PropOp54
 70
     1
102
RTVSPost2010Prop55
280
     0
102
RTVSPost2010PropOp55
 70
     1
102
RTVSPost2010Prop56
140
1.0
102
RTVSPost2010PropOp56
 70
     1
102
RTVSPost2010Prop57
140
1.0
102
RTVSPost2010PropOp57
 70
     1
  0
XRECORD
  5
438
102
{ACAD_REACTORS
330
437
102
}
330
437
100
AcDbXrecord
280
     1
102
RTVSPropertyOp0
 70
     1
102
RTVSPropertyOp1
 70
     1
102
RTVSPropertyOp2
 70
     1
102
RTVSPropertyOp3
 70
     1
102
RTVSPropertyOp4
 70
     1
102
RTVSPropertyOp5
 70
     1
102
RTVSPropertyOp6
 70
     1
102
RTVSPropertyOp7
 70
     1
102
RTVSPropertyOp8
 70
     1
102
RTVSPropertyOp9
 70
     1
102
RTVSPropertyOp10
 70
     1
102
RTVSPropertyOp11
 70
     1
102
RTVSPropertyOp12
 70
     1
102
RTVSPropertyOp13
 70
     1
102
RTVSPropertyOp14
 70
     1
102
RTVSPropertyOp15
 70
     1
102
RTVSPropertyOp16
 70
     1
102
RTVSPropertyOp17
 70
     1
102
RTVSPropertyOp18
 70
     1
102
RTVSPropertyOp19
 70
     1
102
RTVSPropertyOp20
 70
     1
102
RTVSPropertyOp21
 70
     1
102
RTVSPropertyOp22
 70
     1
102
RTVSPropertyOp23
 70
     1
102
RTVSPropertyOp24
 70
     1
102
RTVSPropertyOp25
 70
     1
102
RTVSPropertyOp26
 70
     1
102
RTVSPropertyOp27
 70
     1
102
RTVSPropertyOp28
 70
     1
102
RTVSPropertyOp29
 70
     1
102
RTVSPropertyOp30
 70
     1
102
RTVSPropertyOp31
 70
     1
102
RTVSPropertyOp32
 70
     1
102
RTVSPropertyOp33
 70
     1
102
RTVSPropertyOp34
 70
     1
102
RTVSPropertyOp35
 70
     1
102
RTVSPropertyOp36
 70
     1
102
RTVSPropertyOp37
 70
     1
102
RTVSPropertyOp38
 70
     1
102
RTVSPropertyOp39
 70
     1
102
RTVSPropertyOp40
 70
     1
102
RTVSPropertyOp41
 70
     1
102
RTVSPropertyOp42
 70
     1
102
RTVSPropertyOp43
 70
     1
102
RTVSPropertyOp44
 70
     1
102
RTVSPropertyOp45
 70
     1
102
RTVSPropertyOp46
 70
     1
102
RTVSPropertyOp47
 70
     1
102
RTVSPropertyOp48
 70
     1
102
RTVSPropertyOp49
 70
     1
102
RTVSPropertyOp50
 70
     1
102
RTVSPropertyOp51
 70
     0
102
RTVSPropertyOp52
 70
     0
102
RTVSPropertyOp53
 70
     1
102
RTVSPropertyOp54
 70
     1
102
RTVSPropertyOp55
 70
     1
102
RTVSPropertyOp56
 70
     1
102
RTVSPropertyOp57
 70
     1
102
RTVSPost2010Prop28
280
     0
102
RTVSPost2010PropOp28
 70
     1
102
RTVSPost2010Prop29
280
     1
102
RTVSPost2010PropOp29
 70
     1
102
RTVSPost2010Prop30
280
     1
102
RTVSPost2010PropOp30
 70
     1
102
RTVSPost2010Prop31
280
     0
102
RTVSPost2010PropOp31
 70
     1
102
RTVSPost2010Prop32
280
     0
102
RTVSPost2010PropOp32
 70
     1
102
RTVSPost2010Prop33
280
     0
102
RTVSPost2010PropOp33
 70
     1
102
RTVSPost2010Prop34
280
     0
102
RTVSPost2010PropOp34
 70
     1
102
RTVSPost2010Prop35
280
     0
102
RTVSPost2010PropOp35
 70
     1
102
RTVSPost2010Prop36
280
     0
102
RTVSPost2010PropOp36
 70
     1
102
RTVSPost2010Prop37
 90
       50
102
RTVSPost2010PropOp37
 70
     1
102
RTVSPost2010Prop38
140
0.0
102
RTVSPost2010PropOp38
 70
     1
102
RTVSPost2010Prop39
140
1.0
102
RTVSPost2010PropOp39
 70
     1
102
RTVSPost2010Prop40
 90
        0
102
RTVSPost2010PropOp40
 70
     1
102
RTVSPost2010Prop41ColorIndex
 90
       18
102
RTVSPost2010Prop41ColorRGB
 90
        0
102
RTVSPost2010PropOp41
 70
     1
102
RTVSPost2010Prop42
 90
       50
102
RTVSPost2010PropOp42
 70
     1
102
RTVSPost2010Prop43
 90
        3
102
RTVSPost2010PropOp43
 70
     1
102
RTVSPost2010Prop44ColorIndex
 90
        5
102
RTVSPost2010Prop44ColorRGB
 90
      255
102
RTVSPost2010PropOp44
 70
     1
102
RTVSPost2010Prop45
280
     0
102
RTVSPost2010PropOp45
 70
     1
102
RTVSPost2010Prop46
 90
       50
102
RTVSPost2010PropOp46
 70
     1
102
RTVSPost2010Prop47
 90
       50
102
RTVSPost2010PropOp47
 70
     1
102
RTVSPost2010Prop48
 90
       50
102
RTVSPost2010PropOp48
 70
     1
102
RTVSPost2010Prop49
280
     0
102
RTVSPost2010PropOp49
 70
     1
102
RTVSPost2010Prop50
 90
       50
102
RTVSPost2010PropOp50
 70
     1
102
RTVSPost2010Prop51ColorIndex
 90
      256
102
RTVSPost2010Prop51ColorRGB
 90
-16777216
102
RTVSPost2010PropOp51
 70
     0
102
RTVSPost2010Prop52
140
1.0
102
RTVSPost2010PropOp52
 70
     0
102
RTVSPost2010Prop53
 90
        2
102
RTVSPost2010PropOp53
 70
     1
102
RTVSPost2010Prop54
  1
strokes_ogs.tif
102
RTVSPost2010PropOp54
 70
     1
102
RTVSPost2010Prop55
280
     0
102
RTVSPost2010PropOp55
 70
     1
102
RTVSPost2010Prop56
140
1.0
102
RTVSPost2010PropOp56
 70
     1
102
RTVSPost2010Prop57
140
1.0
102
RTVSPost2010PropOp57
 70
     1
  0
XRECORD
  5
43A
102
{ACAD_REACTORS
330
439
102
}
330
439
100
AcDbXrecord
280
     1
102
RTVSPropertyOp0
 70
     1
102
RTVSPropertyOp1
 70
     1
102
RTVSPropertyOp2
 70
     1
102
RTVSPropertyOp3
 70
     1
102
RTVSPropertyOp4
 70
     1
102
RTVSPropertyOp5
 70
     1
102
RTVSPropertyOp6
 70
     1
102
RTVSPropertyOp7
 70
     1
102
RTVSPropertyOp8
 70
     1
102
RTVSPropertyOp9
 70
     1
102
RTVSPropertyOp10
 70
     1
102
RTVSPropertyOp11
 70
     1
102
RTVSPropertyOp12
 70
     1
102
RTVSPropertyOp13
 70
     1
102
RTVSPropertyOp14
 70
     1
102
RTVSPropertyOp15
 70
     1
102
RTVSPropertyOp16
 70
     1
102
RTVSPropertyOp17
 70
     1
102
RTVSPropertyOp18
 70
     1
102
RTVSPropertyOp19
 70
     1
102
RTVSPropertyOp20
 70
     1
102
RTVSPropertyOp21
 70
     1
102
RTVSPropertyOp22
 70
     1
102
RTVSPropertyOp23
 70
     1
102
RTVSPropertyOp24
 70
     1
102
RTVSPropertyOp25
 70
     1
102
RTVSPropertyOp26
 70
     1
102
RTVSPropertyOp27
 70
     1
102
RTVSPropertyOp28
 70
     1
102
RTVSPropertyOp29
 70
     1
102
RTVSPropertyOp30
 70
     1
102
RTVSPropertyOp31
 70
     1
102
RTVSPropertyOp32
 70
     1
102
RTVSPropertyOp33
 70
     1
102
RTVSPropertyOp34
 70
     1
102
RTVSPropertyOp35
 70
     1
102
RTVSPropertyOp36
 70
     1
102
RTVSPropertyOp37
 70
     1
102
RTVSPropertyOp38
 70
     1
102
RTVSPropertyOp39
 70
     1
102
RTVSPropertyOp40
 70
     1
102
RTVSPropertyOp41
 70
     1
102
RTVSPropertyOp42
 70
     1
102
RTVSPropertyOp43
 70
     1
102
RTVSPropertyOp44
 70
     1
102
RTVSPropertyOp45
 70
     1
102
RTVSPropertyOp46
 70
     1
102
RTVSPropertyOp47
 70
     1
102
RTVSPropertyOp48
 70
     1
102
RTVSPropertyOp49
 70
     1
102
RTVSPropertyOp50
 70
     1
102
RTVSPropertyOp51
 70
     0
102
RTVSPropertyOp52
 70
     0
102
RTVSPropertyOp53
 70
     1
102
RTVSPropertyOp54
 70
     1
102
RTVSPropertyOp55
 70
     1
102
RTVSPropertyOp56
 70
     1
102
RTVSPropertyOp57
 70
     1
102
RTVSPost2010Prop28
280
     0
102
RTVSPost2010PropOp28
 70
     1
102
RTVSPost2010Prop29
280
     1
102
RTVSPost2010PropOp29
 70
     1
102
RTVSPost2010Prop30
280
     1
102
RTVSPost2010PropOp30
 70
     1
102
RTVSPost2010Prop31
280
     0
102
RTVSPost2010PropOp31
 70
     1
102
RTVSPost2010Prop32
280
     0
102
RTVSPost2010PropOp32
 70
     1
102
RTVSPost2010Prop33
280
     0
102
RTVSPost2010PropOp33
 70
     1
102
RTVSPost2010Prop34
280
     0
102
RTVSPost2010PropOp34
 70
     1
102
RTVSPost2010Prop35
280
     0
102
RTVSPost2010PropOp35
 70
     1
102
RTVSPost2010Prop36
280
     0
102
RTVSPost2010PropOp36
 70
     1
102
RTVSPost2010Prop37
 90
       50
102
RTVSPost2010PropOp37
 70
     1
102
RTVSPost2010Prop38
140
0.0
102
RTVSPost2010PropOp38
 70
     1
102
RTVSPost2010Prop39
140
1.0
102
RTVSPost2010PropOp39
 70
     1
102
RTVSPost2010Prop40
 90
        0
102
RTVSPost2010PropOp40
 70
     1
102
RTVSPost2010Prop41ColorIndex
 90
       18
102
RTVSPost2010Prop41ColorRGB
 90
        0
102
RTVSPost2010PropOp41
 70
     1
102
RTVSPost2010Prop42
 90
       50
102
RTVSPost2010PropOp42
 70
     1
102
RTVSPost2010Prop43
 90
        3
102
RTVSPost2010PropOp43
 70
     1
102
RTVSPost2010Prop44ColorIndex
 90
        5
102
RTVSPost2010Prop44ColorRGB
 90
      255
102
RTVSPost2010PropOp44
 70
     1
102
RTVSPost2010Prop45
280
     0
102
RTVSPost2010PropOp45
 70
     1
102
RTVSPost2010Prop46
 90
       50
102
RTVSPost2010PropOp46
 70
     1
102
RTVSPost2010Prop47
 90
       50
102
RTVSPost2010PropOp47
 70
     1
102
RTVSPost2010Prop48
 90
       50
102
RTVSPost2010PropOp48
 70
     1
102
RTVSPost2010Prop49
280
     0
102
RTVSPost2010PropOp49
 70
     1
102
RTVSPost2010Prop50
 90
       50
102
RTVSPost2010PropOp50
 70
     1
102
RTVSPost2010Prop51ColorIndex
 90
      256
102
RTVSPost2010Prop51ColorRGB
 90
-16777216
102
RTVSPost2010PropOp51
 70
     0
102
RTVSPost2010Prop52
140
1.0
102
RTVSPost2010PropOp52
 70
     0
102
RTVSPost2010Prop53
 90
        2
102
RTVSPost2010PropOp53
 70
     1
102
RTVSPost2010Prop54
  1
strokes_ogs.tif
102
RTVSPost2010PropOp54
 70
     1
102
RTVSPost2010Prop55
280
     0
102
RTVSPost2010PropOp55
 70
     1
102
RTVSPost2010Prop56
140
1.0
102
RTVSPost2010PropOp56
 70
     1
102
RTVSPost2010Prop57
140
1.0
102
RTVSPost2010PropOp57
 70
     1
  0
XRECORD
  5
43C
102
{ACAD_REACTORS
330
43B
102
}
330
43B
100
AcDbXrecord
280
     1
102
RTVSPropertyOp0
 70
     1
102
RTVSPropertyOp1
 70
     1
102
RTVSPropertyOp2
 70
     1
102
RTVSPropertyOp3
 70
     1
102
RTVSPropertyOp4
 70
     1
102
RTVSPropertyOp5
 70
     1
102
RTVSPropertyOp6
 70
     1
102
RTVSPropertyOp7
 70
     1
102
RTVSPropertyOp8
 70
     1
102
RTVSPropertyOp9
 70
     1
102
RTVSPropertyOp10
 70
     1
102
RTVSPropertyOp11
 70
     1
102
RTVSPropertyOp12
 70
     1
102
RTVSPropertyOp13
 70
     1
102
RTVSPropertyOp14
 70
     1
102
RTVSPropertyOp15
 70
     1
102
RTVSPropertyOp16
 70
     1
102
RTVSPropertyOp17
 70
     1
102
RTVSPropertyOp18
 70
     1
102
RTVSPropertyOp19
 70
     1
102
RTVSPropertyOp20
 70
     1
102
RTVSPropertyOp21
 70
     1
102
RTVSPropertyOp22
 70
     1
102
RTVSPropertyOp23
 70
     1
102
RTVSPropertyOp24
 70
     1
102
RTVSPropertyOp25
 70
     1
102
RTVSPropertyOp26
 70
     1
102
RTVSPropertyOp27
 70
     1
102
RTVSPropertyOp28
 70
     1
102
RTVSPropertyOp29
 70
     1
102
RTVSPropertyOp30
 70
     1
102
RTVSPropertyOp31
 70
     1
102
RTVSPropertyOp32
 70
     1
102
RTVSPropertyOp33
 70
     1
102
RTVSPropertyOp34
 70
     1
102
RTVSPropertyOp35
 70
     1
102
RTVSPropertyOp36
 70
     1
102
RTVSPropertyOp37
 70
     1
102
RTVSPropertyOp38
 70
     1
102
RTVSPropertyOp39
 70
     1
102
RTVSPropertyOp40
 70
     1
102
RTVSPropertyOp41
 70
     1
102
RTVSPropertyOp42
 70
     1
102
RTVSPropertyOp43
 70
     1
102
RTVSPropertyOp44
 70
     1
102
RTVSPropertyOp45
 70
     1
102
RTVSPropertyOp46
 70
     1
102
RTVSPropertyOp47
 70
     1
102
RTVSPropertyOp48
 70
     1
102
RTVSPropertyOp49
 70
     1
102
RTVSPropertyOp50
 70
     1
102
RTVSPropertyOp51
 70
     0
102
RTVSPropertyOp52
 70
     0
102
RTVSPropertyOp53
 70
     1
102
RTVSPropertyOp54
 70
     1
102
RTVSPropertyOp55
 70
     1
102
RTVSPropertyOp56
 70
     1
102
RTVSPropertyOp57
 70
     1
102
RTVSPost2010Prop28
280
     0
102
RTVSPost2010PropOp28
 70
     1
102
RTVSPost2010Prop29
280
     1
102
RTVSPost2010PropOp29
 70
     1
102
RTVSPost2010Prop30
280
     1
102
RTVSPost2010PropOp30
 70
     1
102
RTVSPost2010Prop31
280
     0
102
RTVSPost2010PropOp31
 70
     1
102
RTVSPost2010Prop32
280
     0
102
RTVSPost2010PropOp32
 70
     1
102
RTVSPost2010Prop33
280
     0
102
RTVSPost2010PropOp33
 70
     1
102
RTVSPost2010Prop34
280
     0
102
RTVSPost2010PropOp34
 70
     1
102
RTVSPost2010Prop35
280
     0
102
RTVSPost2010PropOp35
 70
     1
102
RTVSPost2010Prop36
280
     0
102
RTVSPost2010PropOp36
 70
     1
102
RTVSPost2010Prop37
 90
       50
102
RTVSPost2010PropOp37
 70
     1
102
RTVSPost2010Prop38
140
0.0
102
RTVSPost2010PropOp38
 70
     1
102
RTVSPost2010Prop39
140
1.0
102
RTVSPost2010PropOp39
 70
     1
102
RTVSPost2010Prop40
 90
        0
102
RTVSPost2010PropOp40
 70
     1
102
RTVSPost2010Prop41ColorIndex
 90
       18
102
RTVSPost2010Prop41ColorRGB
 90
        0
102
RTVSPost2010PropOp41
 70
     1
102
RTVSPost2010Prop42
 90
       50
102
RTVSPost2010PropOp42
 70
     1
102
RTVSPost2010Prop43
 90
        3
102
RTVSPost2010PropOp43
 70
     1
102
RTVSPost2010Prop44ColorIndex
 90
        5
102
RTVSPost2010Prop44ColorRGB
 90
      255
102
RTVSPost2010PropOp44
 70
     1
102
RTVSPost2010Prop45
280
     0
102
RTVSPost2010PropOp45
 70
     1
102
RTVSPost2010Prop46
 90
       50
102
RTVSPost2010PropOp46
 70
     1
102
RTVSPost2010Prop47
 90
       50
102
RTVSPost2010PropOp47
 70
     1
102
RTVSPost2010Prop48
 90
       50
102
RTVSPost2010PropOp48
 70
     1
102
RTVSPost2010Prop49
280
     0
102
RTVSPost2010PropOp49
 70
     1
102
RTVSPost2010Prop50
 90
       50
102
RTVSPost2010PropOp50
 70
     1
102
RTVSPost2010Prop51ColorIndex
 90
      256
102
RTVSPost2010Prop51ColorRGB
 90
-16777216
102
RTVSPost2010PropOp51
 70
     0
102
RTVSPost2010Prop52
140
1.0
102
RTVSPost2010PropOp52
 70
     0
102
RTVSPost2010Prop53
 90
        2
102
RTVSPost2010PropOp53
 70
     1
102
RTVSPost2010Prop54
  1
strokes_ogs.tif
102
RTVSPost2010PropOp54
 70
     1
102
RTVSPost2010Prop55
280
     0
102
RTVSPost2010PropOp55
 70
     1
102
RTVSPost2010Prop56
140
1.0
102
RTVSPost2010PropOp56
 70
     1
102
RTVSPost2010Prop57
140
1.0
102
RTVSPost2010PropOp57
 70
     1
  0
XRECORD
  5
442
102
{ACAD_REACTORS
330
441
102
}
330
441
100
AcDbXrecord
280
     1
102
RTVSPropertyOp0
 70
     1
102
RTVSPropertyOp1
 70
     1
102
RTVSPropertyOp2
 70
     1
102
RTVSPropertyOp3
 70
     1
102
RTVSPropertyOp4
 70
     1
102
RTVSPropertyOp5
 70
     1
102
RTVSPropertyOp6
 70
     1
102
RTVSPropertyOp7
 70
     1
102
RTVSPropertyOp8
 70
     1
102
RTVSPropertyOp9
 70
     1
102
RTVSPropertyOp10
 70
     1
102
RTVSPropertyOp11
 70
     1
102
RTVSPropertyOp12
 70
     1
102
RTVSPropertyOp13
 70
     1
102
RTVSPropertyOp14
 70
     1
102
RTVSPropertyOp15
 70
     1
102
RTVSPropertyOp16
 70
     1
102
RTVSPropertyOp17
 70
     1
102
RTVSPropertyOp18
 70
     1
102
RTVSPropertyOp19
 70
     1
102
RTVSPropertyOp20
 70
     1
102
RTVSPropertyOp21
 70
     1
102
RTVSPropertyOp22
 70
     1
102
RTVSPropertyOp23
 70
     1
102
RTVSPropertyOp24
 70
     1
102
RTVSPropertyOp25
 70
     1
102
RTVSPropertyOp26
 70
     1
102
RTVSPropertyOp27
 70
     1
102
RTVSPropertyOp28
 70
     1
102
RTVSPropertyOp29
 70
     1
102
RTVSPropertyOp30
 70
     1
102
RTVSPropertyOp31
 70
     1
102
RTVSPropertyOp32
 70
     1
102
RTVSPropertyOp33
 70
     1
102
RTVSPropertyOp34
 70
     1
102
RTVSPropertyOp35
 70
     1
102
RTVSPropertyOp36
 70
     1
102
RTVSPropertyOp37
 70
     1
102
RTVSPropertyOp38
 70
     1
102
RTVSPropertyOp39
 70
     1
102
RTVSPropertyOp40
 70
     1
102
RTVSPropertyOp41
 70
     1
102
RTVSPropertyOp42
 70
     1
102
RTVSPropertyOp43
 70
     1
102
RTVSPropertyOp44
 70
     1
102
RTVSPropertyOp45
 70
     1
102
RTVSPropertyOp46
 70
     1
102
RTVSPropertyOp47
 70
     1
102
RTVSPropertyOp48
 70
     1
102
RTVSPropertyOp49
 70
     1
102
RTVSPropertyOp50
 70
     1
102
RTVSPropertyOp51
 70
     0
102
RTVSPropertyOp52
 70
     0
102
RTVSPropertyOp53
 70
     1
102
RTVSPropertyOp54
 70
     1
102
RTVSPropertyOp55
 70
     1
102
RTVSPropertyOp56
 70
     1
102
RTVSPropertyOp57
 70
     1
102
RTVSPost2010Prop28
280
     0
102
RTVSPost2010PropOp28
 70
     1
102
RTVSPost2010Prop29
280
     1
102
RTVSPost2010PropOp29
 70
     1
102
RTVSPost2010Prop30
280
     1
102
RTVSPost2010PropOp30
 70
     1
102
RTVSPost2010Prop31
280
     0
102
RTVSPost2010PropOp31
 70
     1
102
RTVSPost2010Prop32
280
     0
102
RTVSPost2010PropOp32
 70
     1
102
RTVSPost2010Prop33
280
     0
102
RTVSPost2010PropOp33
 70
     1
102
RTVSPost2010Prop34
280
     0
102
RTVSPost2010PropOp34
 70
     1
102
RTVSPost2010Prop35
280
     0
102
RTVSPost2010PropOp35
 70
     1
102
RTVSPost2010Prop36
280
     0
102
RTVSPost2010PropOp36
 70
     1
102
RTVSPost2010Prop37
 90
       50
102
RTVSPost2010PropOp37
 70
     1
102
RTVSPost2010Prop38
140
0.0
102
RTVSPost2010PropOp38
 70
     1
102
RTVSPost2010Prop39
140
1.0
102
RTVSPost2010PropOp39
 70
     1
102
RTVSPost2010Prop40
 90
        0
102
RTVSPost2010PropOp40
 70
     1
102
RTVSPost2010Prop41ColorIndex
 90
       18
102
RTVSPost2010Prop41ColorRGB
 90
        0
102
RTVSPost2010PropOp41
 70
     1
102
RTVSPost2010Prop42
 90
       50
102
RTVSPost2010PropOp42
 70
     1
102
RTVSPost2010Prop43
 90
        3
102
RTVSPost2010PropOp43
 70
     1
102
RTVSPost2010Prop44ColorIndex
 90
        5
102
RTVSPost2010Prop44ColorRGB
 90
      255
102
RTVSPost2010PropOp44
 70
     1
102
RTVSPost2010Prop45
280
     0
102
RTVSPost2010PropOp45
 70
     1
102
RTVSPost2010Prop46
 90
       50
102
RTVSPost2010PropOp46
 70
     1
102
RTVSPost2010Prop47
 90
       50
102
RTVSPost2010PropOp47
 70
     1
102
RTVSPost2010Prop48
 90
       50
102
RTVSPost2010PropOp48
 70
     1
102
RTVSPost2010Prop49
280
     0
102
RTVSPost2010PropOp49
 70
     1
102
RTVSPost2010Prop50
 90
       50
102
RTVSPost2010PropOp50
 70
     1
102
RTVSPost2010Prop51ColorIndex
 90
      256
102
RTVSPost2010Prop51ColorRGB
 90
-16777216
102
RTVSPost2010PropOp51
 70
     0
102
RTVSPost2010Prop52
140
1.0
102
RTVSPost2010PropOp52
 70
     0
102
RTVSPost2010Prop53
 90
        2
102
RTVSPost2010PropOp53
 70
     1
102
RTVSPost2010Prop54
  1
strokes_ogs.tif
102
RTVSPost2010PropOp54
 70
     1
102
RTVSPost2010Prop55
280
     0
102
RTVSPost2010PropOp55
 70
     1
102
RTVSPost2010Prop56
140
1.0
102
RTVSPost2010PropOp56
 70
     1
102
RTVSPost2010Prop57
140
1.0
102
RTVSPost2010PropOp57
 70
     1
  0
XRECORD
  5
456
102
{ACAD_REACTORS
330
455
102
}
330
455
100
AcDbXrecord
280
     1
102
RTVSPropertyOp0
 70
     0
102
RTVSPropertyOp1
 70
     0
102
RTVSPropertyOp2
 70
     0
102
RTVSPropertyOp3
 70
     0
102
RTVSPropertyOp4
 70
     0
102
RTVSPropertyOp5
 70
     0
102
RTVSPropertyOp6
 70
     0
102
RTVSPropertyOp7
 70
     0
102
RTVSPropertyOp8
 70
     0
102
RTVSPropertyOp9
 70
     0
102
RTVSPropertyOp10
 70
     0
102
RTVSPropertyOp11
 70
     0
102
RTVSPropertyOp12
 70
     0
102
RTVSPropertyOp13
 70
     0
102
RTVSPropertyOp14
 70
     2
102
RTVSPropertyOp15
 70
     0
102
RTVSPropertyOp16
 70
     0
102
RTVSPropertyOp17
 70
     0
102
RTVSPropertyOp18
 70
     0
102
RTVSPropertyOp19
 70
     0
102
RTVSPropertyOp20
 70
     0
102
RTVSPropertyOp21
 70
     0
102
RTVSPropertyOp22
 70
     0
102
RTVSPropertyOp23
 70
     0
102
RTVSPropertyOp24
 70
     0
102
RTVSPropertyOp25
 70
     0
102
RTVSPropertyOp26
 70
     0
102
RTVSPropertyOp27
 70
     0
102
RTVSPropertyOp28
 70
     0
102
RTVSPropertyOp29
 70
     0
102
RTVSPropertyOp30
 70
     0
102
RTVSPropertyOp31
 70
     0
102
RTVSPropertyOp32
 70
     0
102
RTVSPropertyOp33
 70
     0
102
RTVSPropertyOp34
 70
     0
102
RTVSPropertyOp35
 70
     0
102
RTVSPropertyOp36
 70
     0
102
RTVSPropertyOp37
 70
     0
102
RTVSPropertyOp38
 70
     0
102
RTVSPropertyOp39
 70
     0
102
RTVSPropertyOp40
 70
     0
102
RTVSPropertyOp41
 70
     0
102
RTVSPropertyOp42
 70
     0
102
RTVSPropertyOp43
 70
     0
102
RTVSPropertyOp44
 70
     0
102
RTVSPropertyOp45
 70
     0
102
RTVSPropertyOp46
 70
     0
102
RTVSPropertyOp47
 70
     0
102
RTVSPropertyOp48
 70
     0
102
RTVSPropertyOp49
 70
     0
102
RTVSPropertyOp50
 70
     0
102
RTVSPropertyOp51
 70
     0
102
RTVSPropertyOp52
 70
     0
102
RTVSPropertyOp53
 70
     0
102
RTVSPropertyOp54
 70
     0
102
RTVSPropertyOp55
 70
     0
102
RTVSPropertyOp56
 70
     0
102
RTVSPropertyOp57
 70
     0
102
RTVSPost2010Prop28
280
     0
102
RTVSPost2010PropOp28
 70
     0
102
RTVSPost2010Prop29
280
     1
102
RTVSPost2010PropOp29
 70
     0
102
RTVSPost2010Prop30
280
     1
102
RTVSPost2010PropOp30
 70
     0
102
RTVSPost2010Prop31
280
     0
102
RTVSPost2010PropOp31
 70
     0
102
RTVSPost2010Prop32
280
     0
102
RTVSPost2010PropOp32
 70
     0
102
RTVSPost2010Prop33
280
     0
102
RTVSPost2010PropOp33
 70
     0
102
RTVSPost2010Prop34
280
     0
102
RTVSPost2010PropOp34
 70
     0
102
RTVSPost2010Prop35
280
     0
102
RTVSPost2010PropOp35
 70
     0
102
RTVSPost2010Prop36
280
     0
102
RTVSPost2010PropOp36
 70
     0
102
RTVSPost2010Prop37
 90
       50
102
RTVSPost2010PropOp37
 70
     0
102
RTVSPost2010Prop38
140
0.0
102
RTVSPost2010PropOp38
 70
     0
102
RTVSPost2010Prop39
140
1.0
102
RTVSPost2010PropOp39
 70
     0
102
RTVSPost2010Prop40
 90
        0
102
RTVSPost2010PropOp40
 70
     0
102
RTVSPost2010Prop41ColorIndex
 90
       18
102
RTVSPost2010Prop41ColorRGB
 90
        0
102
RTVSPost2010PropOp41
 70
     0
102
RTVSPost2010Prop42
 90
       50
102
RTVSPost2010PropOp42
 70
     0
102
RTVSPost2010Prop43
 90
        3
102
RTVSPost2010PropOp43
 70
     0
102
RTVSPost2010Prop44ColorIndex
 90
        5
102
RTVSPost2010Prop44ColorRGB
 90
      255
102
RTVSPost2010PropOp44
 70
     0
102
RTVSPost2010Prop45
280
     0
102
RTVSPost2010PropOp45
 70
     0
102
RTVSPost2010Prop46
 90
       50
102
RTVSPost2010PropOp46
 70
     0
102
RTVSPost2010Prop47
 90
       50
102
RTVSPost2010PropOp47
 70
     0
102
RTVSPost2010Prop48
 90
       50
102
RTVSPost2010PropOp48
 70
     0
102
RTVSPost2010Prop49
280
     0
102
RTVSPost2010PropOp49
 70
     0
102
RTVSPost2010Prop50
 90
       50
102
RTVSPost2010PropOp50
 70
     0
102
RTVSPost2010Prop51ColorIndex
 90
      256
102
RTVSPost2010Prop51ColorRGB
 90
-16777216
102
RTVSPost2010PropOp51
 70
     0
102
RTVSPost2010Prop52
140
1.0
102
RTVSPost2010PropOp52
 70
     0
102
RTVSPost2010Prop53
 90
        2
102
RTVSPost2010PropOp53
 70
     0
102
RTVSPost2010Prop54
  1
strokes_ogs.tif
102
RTVSPost2010PropOp54
 70
     0
102
RTVSPost2010Prop55
280
     0
102
RTVSPost2010PropOp55
 70
     0
102
RTVSPost2010Prop56
140
1.0
102
RTVSPost2010PropOp56
 70
     0
102
RTVSPost2010Prop57
140
1.0
102
RTVSPost2010PropOp57
 70
     0
  0
XRECORD
  5
450
102
{ACAD_REACTORS
330
44F
102
}
330
44F
100
AcDbXrecord
280
     1
102
RTVSPropertyOp0
 70
     1
102
RTVSPropertyOp1
 70
     1
102
RTVSPropertyOp2
 70
     1
102
RTVSPropertyOp3
 70
     1
102
RTVSPropertyOp4
 70
     1
102
RTVSPropertyOp5
 70
     1
102
RTVSPropertyOp6
 70
     1
102
RTVSPropertyOp7
 70
     1
102
RTVSPropertyOp8
 70
     1
102
RTVSPropertyOp9
 70
     1
102
RTVSPropertyOp10
 70
     1
102
RTVSPropertyOp11
 70
     1
102
RTVSPropertyOp12
 70
     1
102
RTVSPropertyOp13
 70
     1
102
RTVSPropertyOp14
 70
     1
102
RTVSPropertyOp15
 70
     1
102
RTVSPropertyOp16
 70
     1
102
RTVSPropertyOp17
 70
     1
102
RTVSPropertyOp18
 70
     1
102
RTVSPropertyOp19
 70
     1
102
RTVSPropertyOp20
 70
     1
102
RTVSPropertyOp21
 70
     1
102
RTVSPropertyOp22
 70
     1
102
RTVSPropertyOp23
 70
     1
102
RTVSPropertyOp24
 70
     1
102
RTVSPropertyOp25
 70
     1
102
RTVSPropertyOp26
 70
     1
102
RTVSPropertyOp27
 70
     1
102
RTVSPropertyOp28
 70
     1
102
RTVSPropertyOp29
 70
     1
102
RTVSPropertyOp30
 70
     1
102
RTVSPropertyOp31
 70
     1
102
RTVSPropertyOp32
 70
     1
102
RTVSPropertyOp33
 70
     1
102
RTVSPropertyOp34
 70
     1
102
RTVSPropertyOp35
 70
     1
102
RTVSPropertyOp36
 70
     1
102
RTVSPropertyOp37
 70
     1
102
RTVSPropertyOp38
 70
     1
102
RTVSPropertyOp39
 70
     1
102
RTVSPropertyOp40
 70
     1
102
RTVSPropertyOp41
 70
     1
102
RTVSPropertyOp42
 70
     1
102
RTVSPropertyOp43
 70
     1
102
RTVSPropertyOp44
 70
     1
102
RTVSPropertyOp45
 70
     1
102
RTVSPropertyOp46
 70
     1
102
RTVSPropertyOp47
 70
     1
102
RTVSPropertyOp48
 70
     1
102
RTVSPropertyOp49
 70
     1
102
RTVSPropertyOp50
 70
     1
102
RTVSPropertyOp51
 70
     0
102
RTVSPropertyOp52
 70
     0
102
RTVSPropertyOp53
 70
     1
102
RTVSPropertyOp54
 70
     1
102
RTVSPropertyOp55
 70
     1
102
RTVSPropertyOp56
 70
     1
102
RTVSPropertyOp57
 70
     1
102
RTVSPost2010Prop28
280
     0
102
RTVSPost2010PropOp28
 70
     1
102
RTVSPost2010Prop29
280
     1
102
RTVSPost2010PropOp29
 70
     1
102
RTVSPost2010Prop30
280
     1
102
RTVSPost2010PropOp30
 70
     1
102
RTVSPost2010Prop31
280
     0
102
RTVSPost2010PropOp31
 70
     1
102
RTVSPost2010Prop32
280
     0
102
RTVSPost2010PropOp32
 70
     1
102
RTVSPost2010Prop33
280
     0
102
RTVSPost2010PropOp33
 70
     1
102
RTVSPost2010Prop34
280
     0
102
RTVSPost2010PropOp34
 70
     1
102
RTVSPost2010Prop35
280
     0
102
RTVSPost2010PropOp35
 70
     1
102
RTVSPost2010Prop36
280
     0
102
RTVSPost2010PropOp36
 70
     1
102
RTVSPost2010Prop37
 90
       50
102
RTVSPost2010PropOp37
 70
     1
102
RTVSPost2010Prop38
140
0.0
102
RTVSPost2010PropOp38
 70
     1
102
RTVSPost2010Prop39
140
1.0
102
RTVSPost2010PropOp39
 70
     1
102
RTVSPost2010Prop40
 90
        0
102
RTVSPost2010PropOp40
 70
     1
102
RTVSPost2010Prop41ColorIndex
 90
       18
102
RTVSPost2010Prop41ColorRGB
 90
        0
102
RTVSPost2010PropOp41
 70
     1
102
RTVSPost2010Prop42
 90
       50
102
RTVSPost2010PropOp42
 70
     1
102
RTVSPost2010Prop43
 90
        3
102
RTVSPost2010PropOp43
 70
     1
102
RTVSPost2010Prop44ColorIndex
 90
        5
102
RTVSPost2010Prop44ColorRGB
 90
      255
102
RTVSPost2010PropOp44
 70
     1
102
RTVSPost2010Prop45
280
     0
102
RTVSPost2010PropOp45
 70
     1
102
RTVSPost2010Prop46
 90
       50
102
RTVSPost2010PropOp46
 70
     1
102
RTVSPost2010Prop47
 90
       50
102
RTVSPost2010PropOp47
 70
     1
102
RTVSPost2010Prop48
 90
       50
102
RTVSPost2010PropOp48
 70
     1
102
RTVSPost2010Prop49
280
     0
102
RTVSPost2010PropOp49
 70
     1
102
RTVSPost2010Prop50
 90
       50
102
RTVSPost2010PropOp50
 70
     1
102
RTVSPost2010Prop51ColorIndex
 90
      256
102
RTVSPost2010Prop51ColorRGB
 90
-16777216
102
RTVSPost2010PropOp51
 70
     0
102
RTVSPost2010Prop52
140
1.0
102
RTVSPost2010PropOp52
 70
     0
102
RTVSPost2010Prop53
 90
        2
102
RTVSPost2010PropOp53
 70
     1
102
RTVSPost2010Prop54
  1
strokes_ogs.tif
102
RTVSPost2010PropOp54
 70
     1
102
RTVSPost2010Prop55
280
     0
102
RTVSPost2010PropOp55
 70
     1
102
RTVSPost2010Prop56
140
1.0
102
RTVSPost2010PropOp56
 70
     1
102
RTVSPost2010Prop57
140
1.0
102
RTVSPost2010PropOp57
 70
     1
  0
XRECORD
  5
458
102
{ACAD_REACTORS
330
457
102
}
330
457
100
AcDbXrecord
280
     1
102
RTVSPropertyOp0
 70
     0
102
RTVSPropertyOp1
 70
     0
102
RTVSPropertyOp2
 70
     0
102
RTVSPropertyOp3
 70
     0
102
RTVSPropertyOp4
 70
     0
102
RTVSPropertyOp5
 70
     0
102
RTVSPropertyOp6
 70
     0
102
RTVSPropertyOp7
 70
     0
102
RTVSPropertyOp8
 70
     0
102
RTVSPropertyOp9
 70
     0
102
RTVSPropertyOp10
 70
     0
102
RTVSPropertyOp11
 70
     0
102
RTVSPropertyOp12
 70
     0
102
RTVSPropertyOp13
 70
     0
102
RTVSPropertyOp14
 70
     2
102
RTVSPropertyOp15
 70
     0
102
RTVSPropertyOp16
 70
     0
102
RTVSPropertyOp17
 70
     0
102
RTVSPropertyOp18
 70
     0
102
RTVSPropertyOp19
 70
     0
102
RTVSPropertyOp20
 70
     0
102
RTVSPropertyOp21
 70
     0
102
RTVSPropertyOp22
 70
     0
102
RTVSPropertyOp23
 70
     0
102
RTVSPropertyOp24
 70
     0
102
RTVSPropertyOp25
 70
     0
102
RTVSPropertyOp26
 70
     0
102
RTVSPropertyOp27
 70
     0
102
RTVSPropertyOp28
 70
     0
102
RTVSPropertyOp29
 70
     0
102
RTVSPropertyOp30
 70
     0
102
RTVSPropertyOp31
 70
     0
102
RTVSPropertyOp32
 70
     0
102
RTVSPropertyOp33
 70
     0
102
RTVSPropertyOp34
 70
     0
102
RTVSPropertyOp35
 70
     0
102
RTVSPropertyOp36
 70
     0
102
RTVSPropertyOp37
 70
     0
102
RTVSPropertyOp38
 70
     0
102
RTVSPropertyOp39
 70
     0
102
RTVSPropertyOp40
 70
     0
102
RTVSPropertyOp41
 70
     0
102
RTVSPropertyOp42
 70
     0
102
RTVSPropertyOp43
 70
     0
102
RTVSPropertyOp44
 70
     0
102
RTVSPropertyOp45
 70
     0
102
RTVSPropertyOp46
 70
     0
102
RTVSPropertyOp47
 70
     0
102
RTVSPropertyOp48
 70
     0
102
RTVSPropertyOp49
 70
     0
102
RTVSPropertyOp50
 70
     0
102
RTVSPropertyOp51
 70
     0
102
RTVSPropertyOp52
 70
     0
102
RTVSPropertyOp53
 70
     0
102
RTVSPropertyOp54
 70
     0
102
RTVSPropertyOp55
 70
     0
102
RTVSPropertyOp56
 70
     0
102
RTVSPropertyOp57
 70
     0
102
RTVSPost2010Prop28
280
     0
102
RTVSPost2010PropOp28
 70
     0
102
RTVSPost2010Prop29
280
     1
102
RTVSPost2010PropOp29
 70
     0
102
RTVSPost2010Prop30
280
     1
102
RTVSPost2010PropOp30
 70
     0
102
RTVSPost2010Prop31
280
     0
102
RTVSPost2010PropOp31
 70
     0
102
RTVSPost2010Prop32
280
     0
102
RTVSPost2010PropOp32
 70
     0
102
RTVSPost2010Prop33
280
     0
102
RTVSPost2010PropOp33
 70
     0
102
RTVSPost2010Prop34
280
     0
102
RTVSPost2010PropOp34
 70
     0
102
RTVSPost2010Prop35
280
     0
102
RTVSPost2010PropOp35
 70
     0
102
RTVSPost2010Prop36
280
     0
102
RTVSPost2010PropOp36
 70
     0
102
RTVSPost2010Prop37
 90
       50
102
RTVSPost2010PropOp37
 70
     0
102
RTVSPost2010Prop38
140
0.0
102
RTVSPost2010PropOp38
 70
     0
102
RTVSPost2010Prop39
140
1.0
102
RTVSPost2010PropOp39
 70
     0
102
RTVSPost2010Prop40
 90
        0
102
RTVSPost2010PropOp40
 70
     0
102
RTVSPost2010Prop41ColorIndex
 90
       18
102
RTVSPost2010Prop41ColorRGB
 90
        0
102
RTVSPost2010PropOp41
 70
     0
102
RTVSPost2010Prop42
 90
       50
102
RTVSPost2010PropOp42
 70
     0
102
RTVSPost2010Prop43
 90
        3
102
RTVSPost2010PropOp43
 70
     0
102
RTVSPost2010Prop44ColorIndex
 90
        5
102
RTVSPost2010Prop44ColorRGB
 90
      255
102
RTVSPost2010PropOp44
 70
     0
102
RTVSPost2010Prop45
280
     0
102
RTVSPost2010PropOp45
 70
     0
102
RTVSPost2010Prop46
 90
       50
102
RTVSPost2010PropOp46
 70
     0
102
RTVSPost2010Prop47
 90
       50
102
RTVSPost2010PropOp47
 70
     0
102
RTVSPost2010Prop48
 90
       50
102
RTVSPost2010PropOp48
 70
     0
102
RTVSPost2010Prop49
280
     0
102
RTVSPost2010PropOp49
 70
     0
102
RTVSPost2010Prop50
 90
       50
102
RTVSPost2010PropOp50
 70
     0
102
RTVSPost2010Prop51ColorIndex
 90
      256
102
RTVSPost2010Prop51ColorRGB
 90
-16777216
102
RTVSPost2010PropOp51
 70
     0
102
RTVSPost2010Prop52
140
1.0
102
RTVSPost2010PropOp52
 70
     0
102
RTVSPost2010Prop53
 90
        2
102
RTVSPost2010PropOp53
 70
     0
102
RTVSPost2010Prop54
  1
strokes_ogs.tif
102
RTVSPost2010PropOp54
 70
     0
102
RTVSPost2010Prop55
280
     0
102
RTVSPost2010PropOp55
 70
     0
102
RTVSPost2010Prop56
140
1.0
102
RTVSPost2010PropOp56
 70
     0
102
RTVSPost2010Prop57
140
1.0
102
RTVSPost2010PropOp57
 70
     0
  0
XRECORD
  5
446
102
{ACAD_REACTORS
330
445
102
}
330
445
100
AcDbXrecord
280
     1
102
RTVSPropertyOp0
 70
     1
102
RTVSPropertyOp1
 70
     1
102
RTVSPropertyOp2
 70
     1
102
RTVSPropertyOp3
 70
     1
102
RTVSPropertyOp4
 70
     1
102
RTVSPropertyOp5
 70
     1
102
RTVSPropertyOp6
 70
     1
102
RTVSPropertyOp7
 70
     1
102
RTVSPropertyOp8
 70
     1
102
RTVSPropertyOp9
 70
     1
102
RTVSPropertyOp10
 70
     1
102
RTVSPropertyOp11
 70
     1
102
RTVSPropertyOp12
 70
     1
102
RTVSPropertyOp13
 70
     1
102
RTVSPropertyOp14
 70
     1
102
RTVSPropertyOp15
 70
     1
102
RTVSPropertyOp16
 70
     1
102
RTVSPropertyOp17
 70
     1
102
RTVSPropertyOp18
 70
     1
102
RTVSPropertyOp19
 70
     1
102
RTVSPropertyOp20
 70
     1
102
RTVSPropertyOp21
 70
     1
102
RTVSPropertyOp22
 70
     1
102
RTVSPropertyOp23
 70
     1
102
RTVSPropertyOp24
 70
     1
102
RTVSPropertyOp25
 70
     1
102
RTVSPropertyOp26
 70
     1
102
RTVSPropertyOp27
 70
     1
102
RTVSPropertyOp28
 70
     1
102
RTVSPropertyOp29
 70
     1
102
RTVSPropertyOp30
 70
     1
102
RTVSPropertyOp31
 70
     1
102
RTVSPropertyOp32
 70
     1
102
RTVSPropertyOp33
 70
     1
102
RTVSPropertyOp34
 70
     1
102
RTVSPropertyOp35
 70
     1
102
RTVSPropertyOp36
 70
     1
102
RTVSPropertyOp37
 70
     1
102
RTVSPropertyOp38
 70
     1
102
RTVSPropertyOp39
 70
     1
102
RTVSPropertyOp40
 70
     1
102
RTVSPropertyOp41
 70
     1
102
RTVSPropertyOp42
 70
     1
102
RTVSPropertyOp43
 70
     1
102
RTVSPropertyOp44
 70
     1
102
RTVSPropertyOp45
 70
     1
102
RTVSPropertyOp46
 70
     1
102
RTVSPropertyOp47
 70
     1
102
RTVSPropertyOp48
 70
     1
102
RTVSPropertyOp49
 70
     1
102
RTVSPropertyOp50
 70
     1
102
RTVSPropertyOp51
 70
     0
102
RTVSPropertyOp52
 70
     0
102
RTVSPropertyOp53
 70
     1
102
RTVSPropertyOp54
 70
     1
102
RTVSPropertyOp55
 70
     1
102
RTVSPropertyOp56
 70
     1
102
RTVSPropertyOp57
 70
     1
102
RTVSPost2010Prop28
280
     0
102
RTVSPost2010PropOp28
 70
     1
102
RTVSPost2010Prop29
280
     1
102
RTVSPost2010PropOp29
 70
     1
102
RTVSPost2010Prop30
280
     1
102
RTVSPost2010PropOp30
 70
     1
102
RTVSPost2010Prop31
280
     0
102
RTVSPost2010PropOp31
 70
     1
102
RTVSPost2010Prop32
280
     0
102
RTVSPost2010PropOp32
 70
     1
102
RTVSPost2010Prop33
280
     0
102
RTVSPost2010PropOp33
 70
     1
102
RTVSPost2010Prop34
280
     0
102
RTVSPost2010PropOp34
 70
     1
102
RTVSPost2010Prop35
280
     0
102
RTVSPost2010PropOp35
 70
     1
102
RTVSPost2010Prop36
280
     0
102
RTVSPost2010PropOp36
 70
     1
102
RTVSPost2010Prop37
 90
       50
102
RTVSPost2010PropOp37
 70
     1
102
RTVSPost2010Prop38
140
0.0
102
RTVSPost2010PropOp38
 70
     1
102
RTVSPost2010Prop39
140
1.0
102
RTVSPost2010PropOp39
 70
     1
102
RTVSPost2010Prop40
 90
        0
102
RTVSPost2010PropOp40
 70
     1
102
RTVSPost2010Prop41ColorIndex
 90
       18
102
RTVSPost2010Prop41ColorRGB
 90
        0
102
RTVSPost2010PropOp41
 70
     1
102
RTVSPost2010Prop42
 90
       50
102
RTVSPost2010PropOp42
 70
     1
102
RTVSPost2010Prop43
 90
        3
102
RTVSPost2010PropOp43
 70
     1
102
RTVSPost2010Prop44ColorIndex
 90
        5
102
RTVSPost2010Prop44ColorRGB
 90
      255
102
RTVSPost2010PropOp44
 70
     1
102
RTVSPost2010Prop45
280
     0
102
RTVSPost2010PropOp45
 70
     1
102
RTVSPost2010Prop46
 90
       50
102
RTVSPost2010PropOp46
 70
     1
102
RTVSPost2010Prop47
 90
       50
102
RTVSPost2010PropOp47
 70
     1
102
RTVSPost2010Prop48
 90
       50
102
RTVSPost2010PropOp48
 70
     1
102
RTVSPost2010Prop49
280
     0
102
RTVSPost2010PropOp49
 70
     1
102
RTVSPost2010Prop50
 90
       50
102
RTVSPost2010PropOp50
 70
     1
102
RTVSPost2010Prop51ColorIndex
 90
      256
102
RTVSPost2010Prop51ColorRGB
 90
-16777216
102
RTVSPost2010PropOp51
 70
     0
102
RTVSPost2010Prop52
140
1.0
102
RTVSPost2010PropOp52
 70
     0
102
RTVSPost2010Prop53
 90
        2
102
RTVSPost2010PropOp53
 70
     1
102
RTVSPost2010Prop54
  1
strokes_ogs.tif
102
RTVSPost2010PropOp54
 70
     1
102
RTVSPost2010Prop55
280
     0
102
RTVSPost2010PropOp55
 70
     1
102
RTVSPost2010Prop56
140
1.0
102
RTVSPost2010PropOp56
 70
     1
102
RTVSPost2010Prop57
140
1.0
102
RTVSPost2010PropOp57
 70
     1
  0
XRECORD
  5
464
102
{ACAD_REACTORS
330
463
102
}
330
463
100
AcDbXrecord
280
     1
102
RTVSPropertyOp0
 70
     1
102
RTVSPropertyOp1
 70
     1
102
RTVSPropertyOp2
 70
     1
102
RTVSPropertyOp3
 70
     1
102
RTVSPropertyOp4
 70
     1
102
RTVSPropertyOp5
 70
     1
102
RTVSPropertyOp6
 70
     1
102
RTVSPropertyOp7
 70
     1
102
RTVSPropertyOp8
 70
     1
102
RTVSPropertyOp9
 70
     1
102
RTVSPropertyOp10
 70
     1
102
RTVSPropertyOp11
 70
     1
102
RTVSPropertyOp12
 70
     1
102
RTVSPropertyOp13
 70
     1
102
RTVSPropertyOp14
 70
     1
102
RTVSPropertyOp15
 70
     1
102
RTVSPropertyOp16
 70
     1
102
RTVSPropertyOp17
 70
     1
102
RTVSPropertyOp18
 70
     1
102
RTVSPropertyOp19
 70
     1
102
RTVSPropertyOp20
 70
     1
102
RTVSPropertyOp21
 70
     1
102
RTVSPropertyOp22
 70
     1
102
RTVSPropertyOp23
 70
     1
102
RTVSPropertyOp24
 70
     1
102
RTVSPropertyOp25
 70
     1
102
RTVSPropertyOp26
 70
     1
102
RTVSPropertyOp27
 70
     1
102
RTVSPropertyOp28
 70
     1
102
RTVSPropertyOp29
 70
     1
102
RTVSPropertyOp30
 70
     1
102
RTVSPropertyOp31
 70
     1
102
RTVSPropertyOp32
 70
     1
102
RTVSPropertyOp33
 70
     1
102
RTVSPropertyOp34
 70
     1
102
RTVSPropertyOp35
 70
     1
102
RTVSPropertyOp36
 70
     1
102
RTVSPropertyOp37
 70
     1
102
RTVSPropertyOp38
 70
     1
102
RTVSPropertyOp39
 70
     1
102
RTVSPropertyOp40
 70
     1
102
RTVSPropertyOp41
 70
     1
102
RTVSPropertyOp42
 70
     1
102
RTVSPropertyOp43
 70
     1
102
RTVSPropertyOp44
 70
     1
102
RTVSPropertyOp45
 70
     1
102
RTVSPropertyOp46
 70
     1
102
RTVSPropertyOp47
 70
     1
102
RTVSPropertyOp48
 70
     1
102
RTVSPropertyOp49
 70
     1
102
RTVSPropertyOp50
 70
     1
102
RTVSPropertyOp51
 70
     0
102
RTVSPropertyOp52
 70
     0
102
RTVSPropertyOp53
 70
     1
102
RTVSPropertyOp54
 70
     1
102
RTVSPropertyOp55
 70
     1
102
RTVSPropertyOp56
 70
     1
102
RTVSPropertyOp57
 70
     1
102
RTVSPost2010Prop28
280
     0
102
RTVSPost2010PropOp28
 70
     1
102
RTVSPost2010Prop29
280
     1
102
RTVSPost2010PropOp29
 70
     1
102
RTVSPost2010Prop30
280
     1
102
RTVSPost2010PropOp30
 70
     1
102
RTVSPost2010Prop31
280
     0
102
RTVSPost2010PropOp31
 70
     1
102
RTVSPost2010Prop32
280
     0
102
RTVSPost2010PropOp32
 70
     1
102
RTVSPost2010Prop33
280
     0
102
RTVSPost2010PropOp33
 70
     1
102
RTVSPost2010Prop34
280
     0
102
RTVSPost2010PropOp34
 70
     1
102
RTVSPost2010Prop35
280
     0
102
RTVSPost2010PropOp35
 70
     1
102
RTVSPost2010Prop36
280
     0
102
RTVSPost2010PropOp36
 70
     1
102
RTVSPost2010Prop37
 90
       50
102
RTVSPost2010PropOp37
 70
     1
102
RTVSPost2010Prop38
140
0.0
102
RTVSPost2010PropOp38
 70
     1
102
RTVSPost2010Prop39
140
1.0
102
RTVSPost2010PropOp39
 70
     1
102
RTVSPost2010Prop40
 90
        0
102
RTVSPost2010PropOp40
 70
     1
102
RTVSPost2010Prop41ColorIndex
 90
       18
102
RTVSPost2010Prop41ColorRGB
 90
        0
102
RTVSPost2010PropOp41
 70
     1
102
RTVSPost2010Prop42
 90
       50
102
RTVSPost2010PropOp42
 70
     1
102
RTVSPost2010Prop43
 90
        3
102
RTVSPost2010PropOp43
 70
     1
102
RTVSPost2010Prop44ColorIndex
 90
        5
102
RTVSPost2010Prop44ColorRGB
 90
      255
102
RTVSPost2010PropOp44
 70
     1
102
RTVSPost2010Prop45
280
     0
102
RTVSPost2010PropOp45
 70
     1
102
RTVSPost2010Prop46
 90
       50
102
RTVSPost2010PropOp46
 70
     1
102
RTVSPost2010Prop47
 90
       50
102
RTVSPost2010PropOp47
 70
     1
102
RTVSPost2010Prop48
 90
       50
102
RTVSPost2010PropOp48
 70
     1
102
RTVSPost2010Prop49
280
     0
102
RTVSPost2010PropOp49
 70
     1
102
RTVSPost2010Prop50
 90
       50
102
RTVSPost2010PropOp50
 70
     1
102
RTVSPost2010Prop51ColorIndex
 90
      256
102
RTVSPost2010Prop51ColorRGB
 90
-16777216
102
RTVSPost2010PropOp51
 70
     0
102
RTVSPost2010Prop52
140
1.0
102
RTVSPost2010PropOp52
 70
     0
102
RTVSPost2010Prop53
 90
        2
102
RTVSPost2010PropOp53
 70
     1
102
RTVSPost2010Prop54
  1
strokes_ogs.tif
102
RTVSPost2010PropOp54
 70
     1
102
RTVSPost2010Prop55
280
     0
102
RTVSPost2010PropOp55
 70
     1
102
RTVSPost2010Prop56
140
1.0
102
RTVSPost2010PropOp56
 70
     1
102
RTVSPost2010Prop57
140
1.0
102
RTVSPost2010PropOp57
 70
     1
  0
XRECORD
  5
462
102
{ACAD_REACTORS
330
461
102
}
330
461
100
AcDbXrecord
280
     1
102
RTVSPropertyOp0
 70
     1
102
RTVSPropertyOp1
 70
     1
102
RTVSPropertyOp2
 70
     1
102
RTVSPropertyOp3
 70
     1
102
RTVSPropertyOp4
 70
     1
102
RTVSPropertyOp5
 70
     1
102
RTVSPropertyOp6
 70
     1
102
RTVSPropertyOp7
 70
     1
102
RTVSPropertyOp8
 70
     1
102
RTVSPropertyOp9
 70
     1
102
RTVSPropertyOp10
 70
     1
102
RTVSPropertyOp11
 70
     1
102
RTVSPropertyOp12
 70
     1
102
RTVSPropertyOp13
 70
     1
102
RTVSPropertyOp14
 70
     1
102
RTVSPropertyOp15
 70
     1
102
RTVSPropertyOp16
 70
     1
102
RTVSPropertyOp17
 70
     1
102
RTVSPropertyOp18
 70
     1
102
RTVSPropertyOp19
 70
     1
102
RTVSPropertyOp20
 70
     1
102
RTVSPropertyOp21
 70
     1
102
RTVSPropertyOp22
 70
     1
102
RTVSPropertyOp23
 70
     1
102
RTVSPropertyOp24
 70
     1
102
RTVSPropertyOp25
 70
     1
102
RTVSPropertyOp26
 70
     1
102
RTVSPropertyOp27
 70
     1
102
RTVSPropertyOp28
 70
     1
102
RTVSPropertyOp29
 70
     1
102
RTVSPropertyOp30
 70
     1
102
RTVSPropertyOp31
 70
     1
102
RTVSPropertyOp32
 70
     1
102
RTVSPropertyOp33
 70
     1
102
RTVSPropertyOp34
 70
     1
102
RTVSPropertyOp35
 70
     1
102
RTVSPropertyOp36
 70
     1
102
RTVSPropertyOp37
 70
     1
102
RTVSPropertyOp38
 70
     1
102
RTVSPropertyOp39
 70
     1
102
RTVSPropertyOp40
 70
     1
102
RTVSPropertyOp41
 70
     1
102
RTVSPropertyOp42
 70
     1
102
RTVSPropertyOp43
 70
     1
102
RTVSPropertyOp44
 70
     1
102
RTVSPropertyOp45
 70
     1
102
RTVSPropertyOp46
 70
     1
102
RTVSPropertyOp47
 70
     1
102
RTVSPropertyOp48
 70
     1
102
RTVSPropertyOp49
 70
     1
102
RTVSPropertyOp50
 70
     1
102
RTVSPropertyOp51
 70
     0
102
RTVSPropertyOp52
 70
     0
102
RTVSPropertyOp53
 70
     1
102
RTVSPropertyOp54
 70
     1
102
RTVSPropertyOp55
 70
     1
102
RTVSPropertyOp56
 70
     1
102
RTVSPropertyOp57
 70
     1
102
RTVSPost2010Prop28
280
     0
102
RTVSPost2010PropOp28
 70
     1
102
RTVSPost2010Prop29
280
     1
102
RTVSPost2010PropOp29
 70
     1
102
RTVSPost2010Prop30
280
     1
102
RTVSPost2010PropOp30
 70
     1
102
RTVSPost2010Prop31
280
     0
102
RTVSPost2010PropOp31
 70
     1
102
RTVSPost2010Prop32
280
     0
102
RTVSPost2010PropOp32
 70
     1
102
RTVSPost2010Prop33
280
     0
102
RTVSPost2010PropOp33
 70
     1
102
RTVSPost2010Prop34
280
     0
102
RTVSPost2010PropOp34
 70
     1
102
RTVSPost2010Prop35
280
     0
102
RTVSPost2010PropOp35
 70
     1
102
RTVSPost2010Prop36
280
     0
102
RTVSPost2010PropOp36
 70
     1
102
RTVSPost2010Prop37
 90
       50
102
RTVSPost2010PropOp37
 70
     1
102
RTVSPost2010Prop38
140
0.0
102
RTVSPost2010PropOp38
 70
     1
102
RTVSPost2010Prop39
140
1.0
102
RTVSPost2010PropOp39
 70
     1
102
RTVSPost2010Prop40
 90
        0
102
RTVSPost2010PropOp40
 70
     1
102
RTVSPost2010Prop41ColorIndex
 90
       18
102
RTVSPost2010Prop41ColorRGB
 90
        0
102
RTVSPost2010PropOp41
 70
     1
102
RTVSPost2010Prop42
 90
       50
102
RTVSPost2010PropOp42
 70
     1
102
RTVSPost2010Prop43
 90
        3
102
RTVSPost2010PropOp43
 70
     1
102
RTVSPost2010Prop44ColorIndex
 90
        5
102
RTVSPost2010Prop44ColorRGB
 90
      255
102
RTVSPost2010PropOp44
 70
     1
102
RTVSPost2010Prop45
280
     0
102
RTVSPost2010PropOp45
 70
     1
102
RTVSPost2010Prop46
 90
       50
102
RTVSPost2010PropOp46
 70
     1
102
RTVSPost2010Prop47
 90
       50
102
RTVSPost2010PropOp47
 70
     1
102
RTVSPost2010Prop48
 90
       50
102
RTVSPost2010PropOp48
 70
     1
102
RTVSPost2010Prop49
280
     0
102
RTVSPost2010PropOp49
 70
     1
102
RTVSPost2010Prop50
 90
       50
102
RTVSPost2010PropOp50
 70
     1
102
RTVSPost2010Prop51ColorIndex
 90
      256
102
RTVSPost2010Prop51ColorRGB
 90
-16777216
102
RTVSPost2010PropOp51
 70
     0
102
RTVSPost2010Prop52
140
1.0
102
RTVSPost2010PropOp52
 70
     0
102
RTVSPost2010Prop53
 90
        2
102
RTVSPost2010PropOp53
 70
     1
102
RTVSPost2010Prop54
  1
strokes_ogs.tif
102
RTVSPost2010PropOp54
 70
     1
102
RTVSPost2010Prop55
280
     0
102
RTVSPost2010PropOp55
 70
     1
102
RTVSPost2010Prop56
140
1.0
102
RTVSPost2010PropOp56
 70
     1
102
RTVSPost2010Prop57
140
1.0
102
RTVSPost2010PropOp57
 70
     1
  0
XRECORD
  5
45C
102
{ACAD_REACTORS
330
45B
102
}
330
45B
100
AcDbXrecord
280
     1
102
RTVSPropertyOp0
 70
     1
102
RTVSPropertyOp1
 70
     1
102
RTVSPropertyOp2
 70
     1
102
RTVSPropertyOp3
 70
     1
102
RTVSPropertyOp4
 70
     1
102
RTVSPropertyOp5
 70
     1
102
RTVSPropertyOp6
 70
     1
102
RTVSPropertyOp7
 70
     1
102
RTVSPropertyOp8
 70
     1
102
RTVSPropertyOp9
 70
     1
102
RTVSPropertyOp10
 70
     1
102
RTVSPropertyOp11
 70
     1
102
RTVSPropertyOp12
 70
     1
102
RTVSPropertyOp13
 70
     1
102
RTVSPropertyOp14
 70
     1
102
RTVSPropertyOp15
 70
     1
102
RTVSPropertyOp16
 70
     1
102
RTVSPropertyOp17
 70
     1
102
RTVSPropertyOp18
 70
     1
102
RTVSPropertyOp19
 70
     1
102
RTVSPropertyOp20
 70
     1
102
RTVSPropertyOp21
 70
     1
102
RTVSPropertyOp22
 70
     1
102
RTVSPropertyOp23
 70
     1
102
RTVSPropertyOp24
 70
     1
102
RTVSPropertyOp25
 70
     1
102
RTVSPropertyOp26
 70
     1
102
RTVSPropertyOp27
 70
     1
102
RTVSPropertyOp28
 70
     1
102
RTVSPropertyOp29
 70
     1
102
RTVSPropertyOp30
 70
     1
102
RTVSPropertyOp31
 70
     1
102
RTVSPropertyOp32
 70
     1
102
RTVSPropertyOp33
 70
     1
102
RTVSPropertyOp34
 70
     1
102
RTVSPropertyOp35
 70
     1
102
RTVSPropertyOp36
 70
     1
102
RTVSPropertyOp37
 70
     1
102
RTVSPropertyOp38
 70
     1
102
RTVSPropertyOp39
 70
     1
102
RTVSPropertyOp40
 70
     1
102
RTVSPropertyOp41
 70
     1
102
RTVSPropertyOp42
 70
     1
102
RTVSPropertyOp43
 70
     1
102
RTVSPropertyOp44
 70
     1
102
RTVSPropertyOp45
 70
     1
102
RTVSPropertyOp46
 70
     1
102
RTVSPropertyOp47
 70
     1
102
RTVSPropertyOp48
 70
     1
102
RTVSPropertyOp49
 70
     1
102
RTVSPropertyOp50
 70
     1
102
RTVSPropertyOp51
 70
     0
102
RTVSPropertyOp52
 70
     0
102
RTVSPropertyOp53
 70
     1
102
RTVSPropertyOp54
 70
     1
102
RTVSPropertyOp55
 70
     1
102
RTVSPropertyOp56
 70
     1
102
RTVSPropertyOp57
 70
     1
102
RTVSPost2010Prop28
280
     0
102
RTVSPost2010PropOp28
 70
     1
102
RTVSPost2010Prop29
280
     1
102
RTVSPost2010PropOp29
 70
     1
102
RTVSPost2010Prop30
280
     1
102
RTVSPost2010PropOp30
 70
     1
102
RTVSPost2010Prop31
280
     0
102
RTVSPost2010PropOp31
 70
     1
102
RTVSPost2010Prop32
280
     0
102
RTVSPost2010PropOp32
 70
     1
102
RTVSPost2010Prop33
280
     0
102
RTVSPost2010PropOp33
 70
     1
102
RTVSPost2010Prop34
280
     0
102
RTVSPost2010PropOp34
 70
     1
102
RTVSPost2010Prop35
280
     0
102
RTVSPost2010PropOp35
 70
     1
102
RTVSPost2010Prop36
280
     0
102
RTVSPost2010PropOp36
 70
     1
102
RTVSPost2010Prop37
 90
       50
102
RTVSPost2010PropOp37
 70
     1
102
RTVSPost2010Prop38
140
0.0
102
RTVSPost2010PropOp38
 70
     1
102
RTVSPost2010Prop39
140
1.0
102
RTVSPost2010PropOp39
 70
     1
102
RTVSPost2010Prop40
 90
        0
102
RTVSPost2010PropOp40
 70
     1
102
RTVSPost2010Prop41ColorIndex
 90
       18
102
RTVSPost2010Prop41ColorRGB
 90
        0
102
RTVSPost2010PropOp41
 70
     1
102
RTVSPost2010Prop42
 90
       50
102
RTVSPost2010PropOp42
 70
     1
102
RTVSPost2010Prop43
 90
        3
102
RTVSPost2010PropOp43
 70
     1
102
RTVSPost2010Prop44ColorIndex
 90
        5
102
RTVSPost2010Prop44ColorRGB
 90
      255
102
RTVSPost2010PropOp44
 70
     1
102
RTVSPost2010Prop45
280
     0
102
RTVSPost2010PropOp45
 70
     1
102
RTVSPost2010Prop46
 90
       50
102
RTVSPost2010PropOp46
 70
     1
102
RTVSPost2010Prop47
 90
       50
102
RTVSPost2010PropOp47
 70
     1
102
RTVSPost2010Prop48
 90
       50
102
RTVSPost2010PropOp48
 70
     1
102
RTVSPost2010Prop49
280
     0
102
RTVSPost2010PropOp49
 70
     1
102
RTVSPost2010Prop50
 90
       50
102
RTVSPost2010PropOp50
 70
     1
102
RTVSPost2010Prop51ColorIndex
 90
      256
102
RTVSPost2010Prop51ColorRGB
 90
-16777216
102
RTVSPost2010PropOp51
 70
     0
102
RTVSPost2010Prop52
140
1.0
102
RTVSPost2010PropOp52
 70
     0
102
RTVSPost2010Prop53
 90
        2
102
RTVSPost2010PropOp53
 70
     1
102
RTVSPost2010Prop54
  1
strokes_ogs.tif
102
RTVSPost2010PropOp54
 70
     1
102
RTVSPost2010Prop55
280
     0
102
RTVSPost2010PropOp55
 70
     1
102
RTVSPost2010Prop56
140
1.0
102
RTVSPost2010PropOp56
 70
     1
102
RTVSPost2010Prop57
140
1.0
102
RTVSPost2010PropOp57
 70
     1
  0
XRECORD
  5
45E
102
{ACAD_REACTORS
330
45D
102
}
330
45D
100
AcDbXrecord
280
     1
102
RTVSPropertyOp0
 70
     1
102
RTVSPropertyOp1
 70
     1
102
RTVSPropertyOp2
 70
     1
102
RTVSPropertyOp3
 70
     1
102
RTVSPropertyOp4
 70
     1
102
RTVSPropertyOp5
 70
     1
102
RTVSPropertyOp6
 70
     1
102
RTVSPropertyOp7
 70
     1
102
RTVSPropertyOp8
 70
     1
102
RTVSPropertyOp9
 70
     1
102
RTVSPropertyOp10
 70
     1
102
RTVSPropertyOp11
 70
     1
102
RTVSPropertyOp12
 70
     1
102
RTVSPropertyOp13
 70
     1
102
RTVSPropertyOp14
 70
     1
102
RTVSPropertyOp15
 70
     1
102
RTVSPropertyOp16
 70
     1
102
RTVSPropertyOp17
 70
     1
102
RTVSPropertyOp18
 70
     1
102
RTVSPropertyOp19
 70
     1
102
RTVSPropertyOp20
 70
     1
102
RTVSPropertyOp21
 70
     1
102
RTVSPropertyOp22
 70
     1
102
RTVSPropertyOp23
 70
     1
102
RTVSPropertyOp24
 70
     1
102
RTVSPropertyOp25
 70
     1
102
RTVSPropertyOp26
 70
     1
102
RTVSPropertyOp27
 70
     1
102
RTVSPropertyOp28
 70
     1
102
RTVSPropertyOp29
 70
     1
102
RTVSPropertyOp30
 70
     1
102
RTVSPropertyOp31
 70
     1
102
RTVSPropertyOp32
 70
     1
102
RTVSPropertyOp33
 70
     1
102
RTVSPropertyOp34
 70
     1
102
RTVSPropertyOp35
 70
     1
102
RTVSPropertyOp36
 70
     1
102
RTVSPropertyOp37
 70
     1
102
RTVSPropertyOp38
 70
     1
102
RTVSPropertyOp39
 70
     1
102
RTVSPropertyOp40
 70
     1
102
RTVSPropertyOp41
 70
     1
102
RTVSPropertyOp42
 70
     1
102
RTVSPropertyOp43
 70
     1
102
RTVSPropertyOp44
 70
     1
102
RTVSPropertyOp45
 70
     1
102
RTVSPropertyOp46
 70
     1
102
RTVSPropertyOp47
 70
     1
102
RTVSPropertyOp48
 70
     1
102
RTVSPropertyOp49
 70
     1
102
RTVSPropertyOp50
 70
     1
102
RTVSPropertyOp51
 70
     0
102
RTVSPropertyOp52
 70
     0
102
RTVSPropertyOp53
 70
     1
102
RTVSPropertyOp54
 70
     1
102
RTVSPropertyOp55
 70
     1
102
RTVSPropertyOp56
 70
     1
102
RTVSPropertyOp57
 70
     1
102
RTVSPost2010Prop28
280
     0
102
RTVSPost2010PropOp28
 70
     1
102
RTVSPost2010Prop29
280
     1
102
RTVSPost2010PropOp29
 70
     1
102
RTVSPost2010Prop30
280
     1
102
RTVSPost2010PropOp30
 70
     1
102
RTVSPost2010Prop31
280
     0
102
RTVSPost2010PropOp31
 70
     1
102
RTVSPost2010Prop32
280
     0
102
RTVSPost2010PropOp32
 70
     1
102
RTVSPost2010Prop33
280
     0
102
RTVSPost2010PropOp33
 70
     1
102
RTVSPost2010Prop34
280
     0
102
RTVSPost2010PropOp34
 70
     1
102
RTVSPost2010Prop35
280
     0
102
RTVSPost2010PropOp35
 70
     1
102
RTVSPost2010Prop36
280
     0
102
RTVSPost2010PropOp36
 70
     1
102
RTVSPost2010Prop37
 90
       50
102
RTVSPost2010PropOp37
 70
     1
102
RTVSPost2010Prop38
140
0.0
102
RTVSPost2010PropOp38
 70
     1
102
RTVSPost2010Prop39
140
1.0
102
RTVSPost2010PropOp39
 70
     1
102
RTVSPost2010Prop40
 90
        0
102
RTVSPost2010PropOp40
 70
     1
102
RTVSPost2010Prop41ColorIndex
 90
       18
102
RTVSPost2010Prop41ColorRGB
 90
        0
102
RTVSPost2010PropOp41
 70
     1
102
RTVSPost2010Prop42
 90
       50
102
RTVSPost2010PropOp42
 70
     1
102
RTVSPost2010Prop43
 90
        3
102
RTVSPost2010PropOp43
 70
     1
102
RTVSPost2010Prop44ColorIndex
 90
        5
102
RTVSPost2010Prop44ColorRGB
 90
      255
102
RTVSPost2010PropOp44
 70
     1
102
RTVSPost2010Prop45
280
     0
102
RTVSPost2010PropOp45
 70
     1
102
RTVSPost2010Prop46
 90
       50
102
RTVSPost2010PropOp46
 70
     1
102
RTVSPost2010Prop47
 90
       50
102
RTVSPost2010PropOp47
 70
     1
102
RTVSPost2010Prop48
 90
       50
102
RTVSPost2010PropOp48
 70
     1
102
RTVSPost2010Prop49
280
     0
102
RTVSPost2010PropOp49
 70
     1
102
RTVSPost2010Prop50
 90
       50
102
RTVSPost2010PropOp50
 70
     1
102
RTVSPost2010Prop51ColorIndex
 90
      256
102
RTVSPost2010Prop51ColorRGB
 90
-16777216
102
RTVSPost2010PropOp51
 70
     0
102
RTVSPost2010Prop52
140
1.0
102
RTVSPost2010PropOp52
 70
     0
102
RTVSPost2010Prop53
 90
        2
102
RTVSPost2010PropOp53
 70
     1
102
RTVSPost2010Prop54
  1
strokes_ogs.tif
102
RTVSPost2010PropOp54
 70
     1
102
RTVSPost2010Prop55
280
     0
102
RTVSPost2010PropOp55
 70
     1
102
RTVSPost2010Prop56
140
1.0
102
RTVSPost2010PropOp56
 70
     1
102
RTVSPost2010Prop57
140
1.0
102
RTVSPost2010PropOp57
 70
     1
  0
XRECORD
  5
44E
102
{ACAD_REACTORS
330
44D
102
}
330
44D
100
AcDbXrecord
280
     1
102
RTVSPropertyOp0
 70
     1
102
RTVSPropertyOp1
 70
     1
102
RTVSPropertyOp2
 70
     1
102
RTVSPropertyOp3
 70
     1
102
RTVSPropertyOp4
 70
     1
102
RTVSPropertyOp5
 70
     1
102
RTVSPropertyOp6
 70
     1
102
RTVSPropertyOp7
 70
     1
102
RTVSPropertyOp8
 70
     1
102
RTVSPropertyOp9
 70
     1
102
RTVSPropertyOp10
 70
     1
102
RTVSPropertyOp11
 70
     1
102
RTVSPropertyOp12
 70
     1
102
RTVSPropertyOp13
 70
     1
102
RTVSPropertyOp14
 70
     1
102
RTVSPropertyOp15
 70
     1
102
RTVSPropertyOp16
 70
     1
102
RTVSPropertyOp17
 70
     1
102
RTVSPropertyOp18
 70
     1
102
RTVSPropertyOp19
 70
     1
102
RTVSPropertyOp20
 70
     1
102
RTVSPropertyOp21
 70
     1
102
RTVSPropertyOp22
 70
     1
102
RTVSPropertyOp23
 70
     1
102
RTVSPropertyOp24
 70
     1
102
RTVSPropertyOp25
 70
     1
102
RTVSPropertyOp26
 70
     1
102
RTVSPropertyOp27
 70
     1
102
RTVSPropertyOp28
 70
     1
102
RTVSPropertyOp29
 70
     1
102
RTVSPropertyOp30
 70
     1
102
RTVSPropertyOp31
 70
     1
102
RTVSPropertyOp32
 70
     1
102
RTVSPropertyOp33
 70
     1
102
RTVSPropertyOp34
 70
     1
102
RTVSPropertyOp35
 70
     1
102
RTVSPropertyOp36
 70
     1
102
RTVSPropertyOp37
 70
     1
102
RTVSPropertyOp38
 70
     1
102
RTVSPropertyOp39
 70
     1
102
RTVSPropertyOp40
 70
     1
102
RTVSPropertyOp41
 70
     1
102
RTVSPropertyOp42
 70
     1
102
RTVSPropertyOp43
 70
     1
102
RTVSPropertyOp44
 70
     1
102
RTVSPropertyOp45
 70
     1
102
RTVSPropertyOp46
 70
     1
102
RTVSPropertyOp47
 70
     1
102
RTVSPropertyOp48
 70
     1
102
RTVSPropertyOp49
 70
     1
102
RTVSPropertyOp50
 70
     1
102
RTVSPropertyOp51
 70
     0
102
RTVSPropertyOp52
 70
     0
102
RTVSPropertyOp53
 70
     1
102
RTVSPropertyOp54
 70
     1
102
RTVSPropertyOp55
 70
     1
102
RTVSPropertyOp56
 70
     1
102
RTVSPropertyOp57
 70
     1
102
RTVSPost2010Prop28
280
     0
102
RTVSPost2010PropOp28
 70
     1
102
RTVSPost2010Prop29
280
     1
102
RTVSPost2010PropOp29
 70
     1
102
RTVSPost2010Prop30
280
     1
102
RTVSPost2010PropOp30
 70
     1
102
RTVSPost2010Prop31
280
     0
102
RTVSPost2010PropOp31
 70
     1
102
RTVSPost2010Prop32
280
     0
102
RTVSPost2010PropOp32
 70
     1
102
RTVSPost2010Prop33
280
     0
102
RTVSPost2010PropOp33
 70
     1
102
RTVSPost2010Prop34
280
     0
102
RTVSPost2010PropOp34
 70
     1
102
RTVSPost2010Prop35
280
     0
102
RTVSPost2010PropOp35
 70
     1
102
RTVSPost2010Prop36
280
     0
102
RTVSPost2010PropOp36
 70
     1
102
RTVSPost2010Prop37
 90
       50
102
RTVSPost2010PropOp37
 70
     1
102
RTVSPost2010Prop38
140
0.0
102
RTVSPost2010PropOp38
 70
     1
102
RTVSPost2010Prop39
140
1.0
102
RTVSPost2010PropOp39
 70
     1
102
RTVSPost2010Prop40
 90
        0
102
RTVSPost2010PropOp40
 70
     1
102
RTVSPost2010Prop41ColorIndex
 90
       18
102
RTVSPost2010Prop41ColorRGB
 90
        0
102
RTVSPost2010PropOp41
 70
     1
102
RTVSPost2010Prop42
 90
       50
102
RTVSPost2010PropOp42
 70
     1
102
RTVSPost2010Prop43
 90
        3
102
RTVSPost2010PropOp43
 70
     1
102
RTVSPost2010Prop44ColorIndex
 90
        5
102
RTVSPost2010Prop44ColorRGB
 90
      255
102
RTVSPost2010PropOp44
 70
     1
102
RTVSPost2010Prop45
280
     0
102
RTVSPost2010PropOp45
 70
     1
102
RTVSPost2010Prop46
 90
       50
102
RTVSPost2010PropOp46
 70
     1
102
RTVSPost2010Prop47
 90
       50
102
RTVSPost2010PropOp47
 70
     1
102
RTVSPost2010Prop48
 90
       50
102
RTVSPost2010PropOp48
 70
     1
102
RTVSPost2010Prop49
280
     0
102
RTVSPost2010PropOp49
 70
     1
102
RTVSPost2010Prop50
 90
       50
102
RTVSPost2010PropOp50
 70
     1
102
RTVSPost2010Prop51ColorIndex
 90
      256
102
RTVSPost2010Prop51ColorRGB
 90
-16777216
102
RTVSPost2010PropOp51
 70
     0
102
RTVSPost2010Prop52
140
1.0
102
RTVSPost2010PropOp52
 70
     0
102
RTVSPost2010Prop53
 90
        2
102
RTVSPost2010PropOp53
 70
     1
102
RTVSPost2010Prop54
  1
strokes_ogs.tif
102
RTVSPost2010PropOp54
 70
     1
102
RTVSPost2010Prop55
280
     0
102
RTVSPost2010PropOp55
 70
     1
102
RTVSPost2010Prop56
140
1.0
102
RTVSPost2010PropOp56
 70
     1
102
RTVSPost2010Prop57
140
1.0
102
RTVSPost2010PropOp57
 70
     1
  0
XRECORD
  5
440
102
{ACAD_REACTORS
330
43F
102
}
330
43F
100
AcDbXrecord
280
     1
102
RTVSPropertyOp0
 70
     1
102
RTVSPropertyOp1
 70
     1
102
RTVSPropertyOp2
 70
     1
102
RTVSPropertyOp3
 70
     1
102
RTVSPropertyOp4
 70
     1
102
RTVSPropertyOp5
 70
     1
102
RTVSPropertyOp6
 70
     1
102
RTVSPropertyOp7
 70
     1
102
RTVSPropertyOp8
 70
     1
102
RTVSPropertyOp9
 70
     1
102
RTVSPropertyOp10
 70
     1
102
RTVSPropertyOp11
 70
     1
102
RTVSPropertyOp12
 70
     1
102
RTVSPropertyOp13
 70
     1
102
RTVSPropertyOp14
 70
     1
102
RTVSPropertyOp15
 70
     1
102
RTVSPropertyOp16
 70
     1
102
RTVSPropertyOp17
 70
     1
102
RTVSPropertyOp18
 70
     1
102
RTVSPropertyOp19
 70
     1
102
RTVSPropertyOp20
 70
     1
102
RTVSPropertyOp21
 70
     1
102
RTVSPropertyOp22
 70
     1
102
RTVSPropertyOp23
 70
     1
102
RTVSPropertyOp24
 70
     1
102
RTVSPropertyOp25
 70
     1
102
RTVSPropertyOp26
 70
     1
102
RTVSPropertyOp27
 70
     1
102
RTVSPropertyOp28
 70
     1
102
RTVSPropertyOp29
 70
     1
102
RTVSPropertyOp30
 70
     1
102
RTVSPropertyOp31
 70
     1
102
RTVSPropertyOp32
 70
     1
102
RTVSPropertyOp33
 70
     1
102
RTVSPropertyOp34
 70
     1
102
RTVSPropertyOp35
 70
     1
102
RTVSPropertyOp36
 70
     1
102
RTVSPropertyOp37
 70
     1
102
RTVSPropertyOp38
 70
     1
102
RTVSPropertyOp39
 70
     1
102
RTVSPropertyOp40
 70
     1
102
RTVSPropertyOp41
 70
     1
102
RTVSPropertyOp42
 70
     1
102
RTVSPropertyOp43
 70
     1
102
RTVSPropertyOp44
 70
     1
102
RTVSPropertyOp45
 70
     1
102
RTVSPropertyOp46
 70
     1
102
RTVSPropertyOp47
 70
     1
102
RTVSPropertyOp48
 70
     1
102
RTVSPropertyOp49
 70
     1
102
RTVSPropertyOp50
 70
     1
102
RTVSPropertyOp51
 70
     0
102
RTVSPropertyOp52
 70
     0
102
RTVSPropertyOp53
 70
     1
102
RTVSPropertyOp54
 70
     1
102
RTVSPropertyOp55
 70
     1
102
RTVSPropertyOp56
 70
     1
102
RTVSPropertyOp57
 70
     1
102
RTVSPost2010Prop28
280
     0
102
RTVSPost2010PropOp28
 70
     1
102
RTVSPost2010Prop29
280
     1
102
RTVSPost2010PropOp29
 70
     1
102
RTVSPost2010Prop30
280
     1
102
RTVSPost2010PropOp30
 70
     1
102
RTVSPost2010Prop31
280
     0
102
RTVSPost2010PropOp31
 70
     1
102
RTVSPost2010Prop32
280
     0
102
RTVSPost2010PropOp32
 70
     1
102
RTVSPost2010Prop33
280
     0
102
RTVSPost2010PropOp33
 70
     1
102
RTVSPost2010Prop34
280
     0
102
RTVSPost2010PropOp34
 70
     1
102
RTVSPost2010Prop35
280
     0
102
RTVSPost2010PropOp35
 70
     1
102
RTVSPost2010Prop36
280
     0
102
RTVSPost2010PropOp36
 70
     1
102
RTVSPost2010Prop37
 90
       50
102
RTVSPost2010PropOp37
 70
     1
102
RTVSPost2010Prop38
140
0.0
102
RTVSPost2010PropOp38
 70
     1
102
RTVSPost2010Prop39
140
1.0
102
RTVSPost2010PropOp39
 70
     1
102
RTVSPost2010Prop40
 90
        0
102
RTVSPost2010PropOp40
 70
     1
102
RTVSPost2010Prop41ColorIndex
 90
       18
102
RTVSPost2010Prop41ColorRGB
 90
        0
102
RTVSPost2010PropOp41
 70
     1
102
RTVSPost2010Prop42
 90
       50
102
RTVSPost2010PropOp42
 70
     1
102
RTVSPost2010Prop43
 90
        3
102
RTVSPost2010PropOp43
 70
     1
102
RTVSPost2010Prop44ColorIndex
 90
        5
102
RTVSPost2010Prop44ColorRGB
 90
      255
102
RTVSPost2010PropOp44
 70
     1
102
RTVSPost2010Prop45
280
     0
102
RTVSPost2010PropOp45
 70
     1
102
RTVSPost2010Prop46
 90
       50
102
RTVSPost2010PropOp46
 70
     1
102
RTVSPost2010Prop47
 90
       50
102
RTVSPost2010PropOp47
 70
     1
102
RTVSPost2010Prop48
 90
       50
102
RTVSPost2010PropOp48
 70
     1
102
RTVSPost2010Prop49
280
     0
102
RTVSPost2010PropOp49
 70
     1
102
RTVSPost2010Prop50
 90
       50
102
RTVSPost2010PropOp50
 70
     1
102
RTVSPost2010Prop51ColorIndex
 90
      256
102
RTVSPost2010Prop51ColorRGB
 90
-16777216
102
RTVSPost2010PropOp51
 70
     0
102
RTVSPost2010Prop52
140
1.0
102
RTVSPost2010PropOp52
 70
     0
102
RTVSPost2010Prop53
 90
        2
102
RTVSPost2010PropOp53
 70
     1
102
RTVSPost2010Prop54
  1
strokes_ogs.tif
102
RTVSPost2010PropOp54
 70
     1
102
RTVSPost2010Prop55
280
     0
102
RTVSPost2010PropOp55
 70
     1
102
RTVSPost2010Prop56
140
1.0
102
RTVSPost2010PropOp56
 70
     1
102
RTVSPost2010Prop57
140
1.0
102
RTVSPost2010PropOp57
 70
     1
  0
XRECORD
  5
460
102
{ACAD_REACTORS
330
45F
102
}
330
45F
100
AcDbXrecord
280
     1
102
RTVSPropertyOp0
 70
     1
102
RTVSPropertyOp1
 70
     1
102
RTVSPropertyOp2
 70
     1
102
RTVSPropertyOp3
 70
     1
102
RTVSPropertyOp4
 70
     1
102
RTVSPropertyOp5
 70
     1
102
RTVSPropertyOp6
 70
     1
102
RTVSPropertyOp7
 70
     1
102
RTVSPropertyOp8
 70
     1
102
RTVSPropertyOp9
 70
     1
102
RTVSPropertyOp10
 70
     1
102
RTVSPropertyOp11
 70
     1
102
RTVSPropertyOp12
 70
     1
102
RTVSPropertyOp13
 70
     1
102
RTVSPropertyOp14
 70
     1
102
RTVSPropertyOp15
 70
     1
102
RTVSPropertyOp16
 70
     1
102
RTVSPropertyOp17
 70
     1
102
RTVSPropertyOp18
 70
     1
102
RTVSPropertyOp19
 70
     1
102
RTVSPropertyOp20
 70
     1
102
RTVSPropertyOp21
 70
     1
102
RTVSPropertyOp22
 70
     1
102
RTVSPropertyOp23
 70
     1
102
RTVSPropertyOp24
 70
     1
102
RTVSPropertyOp25
 70
     1
102
RTVSPropertyOp26
 70
     1
102
RTVSPropertyOp27
 70
     1
102
RTVSPropertyOp28
 70
     1
102
RTVSPropertyOp29
 70
     1
102
RTVSPropertyOp30
 70
     1
102
RTVSPropertyOp31
 70
     1
102
RTVSPropertyOp32
 70
     1
102
RTVSPropertyOp33
 70
     1
102
RTVSPropertyOp34
 70
     1
102
RTVSPropertyOp35
 70
     1
102
RTVSPropertyOp36
 70
     1
102
RTVSPropertyOp37
 70
     1
102
RTVSPropertyOp38
 70
     1
102
RTVSPropertyOp39
 70
     1
102
RTVSPropertyOp40
 70
     1
102
RTVSPropertyOp41
 70
     1
102
RTVSPropertyOp42
 70
     1
102
RTVSPropertyOp43
 70
     1
102
RTVSPropertyOp44
 70
     1
102
RTVSPropertyOp45
 70
     1
102
RTVSPropertyOp46
 70
     1
102
RTVSPropertyOp47
 70
     1
102
RTVSPropertyOp48
 70
     1
102
RTVSPropertyOp49
 70
     1
102
RTVSPropertyOp50
 70
     1
102
RTVSPropertyOp51
 70
     0
102
RTVSPropertyOp52
 70
     0
102
RTVSPropertyOp53
 70
     1
102
RTVSPropertyOp54
 70
     1
102
RTVSPropertyOp55
 70
     1
102
RTVSPropertyOp56
 70
     1
102
RTVSPropertyOp57
 70
     1
102
RTVSPost2010Prop28
280
     0
102
RTVSPost2010PropOp28
 70
     1
102
RTVSPost2010Prop29
280
     1
102
RTVSPost2010PropOp29
 70
     1
102
RTVSPost2010Prop30
280
     1
102
RTVSPost2010PropOp30
 70
     1
102
RTVSPost2010Prop31
280
     0
102
RTVSPost2010PropOp31
 70
     1
102
RTVSPost2010Prop32
280
     0
102
RTVSPost2010PropOp32
 70
     1
102
RTVSPost2010Prop33
280
     0
102
RTVSPost2010PropOp33
 70
     1
102
RTVSPost2010Prop34
280
     0
102
RTVSPost2010PropOp34
 70
     1
102
RTVSPost2010Prop35
280
     0
102
RTVSPost2010PropOp35
 70
     1
102
RTVSPost2010Prop36
280
     0
102
RTVSPost2010PropOp36
 70
     1
102
RTVSPost2010Prop37
 90
       50
102
RTVSPost2010PropOp37
 70
     1
102
RTVSPost2010Prop38
140
0.0
102
RTVSPost2010PropOp38
 70
     1
102
RTVSPost2010Prop39
140
1.0
102
RTVSPost2010PropOp39
 70
     1
102
RTVSPost2010Prop40
 90
        0
102
RTVSPost2010PropOp40
 70
     1
102
RTVSPost2010Prop41ColorIndex
 90
       18
102
RTVSPost2010Prop41ColorRGB
 90
        0
102
RTVSPost2010PropOp41
 70
     1
102
RTVSPost2010Prop42
 90
       50
102
RTVSPost2010PropOp42
 70
     1
102
RTVSPost2010Prop43
 90
        3
102
RTVSPost2010PropOp43
 70
     1
102
RTVSPost2010Prop44ColorIndex
 90
        5
102
RTVSPost2010Prop44ColorRGB
 90
      255
102
RTVSPost2010PropOp44
 70
     1
102
RTVSPost2010Prop45
280
     0
102
RTVSPost2010PropOp45
 70
     1
102
RTVSPost2010Prop46
 90
       50
102
RTVSPost2010PropOp46
 70
     1
102
RTVSPost2010Prop47
 90
       50
102
RTVSPost2010PropOp47
 70
     1
102
RTVSPost2010Prop48
 90
       50
102
RTVSPost2010PropOp48
 70
     1
102
RTVSPost2010Prop49
280
     0
102
RTVSPost2010PropOp49
 70
     1
102
RTVSPost2010Prop50
 90
       50
102
RTVSPost2010PropOp50
 70
     1
102
RTVSPost2010Prop51ColorIndex
 90
      256
102
RTVSPost2010Prop51ColorRGB
 90
-16777216
102
RTVSPost2010PropOp51
 70
     0
102
RTVSPost2010Prop52
140
1.0
102
RTVSPost2010PropOp52
 70
     0
102
RTVSPost2010Prop53
 90
        2
102
RTVSPost2010PropOp53
 70
     1
102
RTVSPost2010Prop54
  1
strokes_ogs.tif
102
RTVSPost2010PropOp54
 70
     1
102
RTVSPost2010Prop55
280
     0
102
RTVSPost2010PropOp55
 70
     1
102
RTVSPost2010Prop56
140
1.0
102
RTVSPost2010PropOp56
 70
     1
102
RTVSPost2010Prop57
140
1.0
102
RTVSPost2010PropOp57
 70
     1
  0
ENDSEC
  0
EOF
