  0
SECTION
  2
HEADER
  9
$ACADVER
  1
AC1006
  9
$DWGCODEPAGE
  3
ansi_1252
  9
$INSBASE
 10
0.0
 20
0.0
 30
0.0
  9
$EXTMIN
 10
-291.87832955
 20
-398.05620306
  9
$EXTMAX
 10
1243.80525089
 20
341.54340632
  9
$LIMMIN
 10
-291.87832955
 20
-398.05620306
  9
$LIMMAX
 10
1243.80525089
 20
341.54340632
  9
$ORTHOMODE
 70
     0
  9
$REGENMODE
 70
     1
  9
$FILLMODE
 70
     1
  9
$QTEXTMODE
 70
     0
  9
$MIRRTEXT
 70
     1
  9
$DRAGMODE
 70
     2
  9
$LTSCALE
 40
1.0
  9
$OSMODE
 70
    37
  9
$ATTMODE
 70
     1
  9
$TEXTSIZE
 40
1.0
  9
$TRACEWID
 40
0.05
  9
$TEXTSTYLE
  7
STANDARD
  9
$CLAYER
  8
0
  9
$CELTYPE
  6
BYBLOCK
  9
$CECOLOR
 62
   256
  9
$DIMSCALE
 40
1.0
  9
$DIMASZ
 40
0.18
  9
$DIMEXO
 40
0.0625
  9
$DIMDLI
 40
0.38
  9
$DIMRND
 40
0.0
  9
$DIMDLE
 40
0.0
  9
$DIMEXE
 40
0.18
  9
$DIMTP
 40
0.0
  9
$DIMTM
 40
0.0
  9
$DIMTXT
 40
0.18
  9
$DIMCEN
 40
0.09
  9
$DIMTSZ
 40
0.0
  9
$DIMTOL
 70
     0
  9
$DIMLIM
 70
     0
  9
$DIMTIH
 70
     1
  9
$DIMTOH
 70
     1
  9
$DIMSE1
 70
     0
  9
$DIMSE2
 70
     0
  9
$DIMTAD
 70
     0
  9
$DIMZIN
 70
     0
  9
$DIMBLK
  1

  9
$DIMASO
 70
     1
  9
$DIMSHO
 70
     1
  9
$DIMPOST
  1

  9
$DIMAPOST
  1

  9
$DIMALT
 70
     0
  9
$DIMALTD
 70
     2
  9
$DIMALTF
 40
25.4
  9
$DIMLFAC
 40
1.0
  9
$DIMTOFL
 70
     0
  9
$DIMTVP
 40
0.0
  9
$DIMTIX
 70
     0
  9
$DIMSOXD
 70
     0
  9
$DIMSAH
 70
     0
  9
$DIMBLK1
  1

  9
$DIMBLK2
  1

  9
$LUNITS
 70
     2
  9
$LUPREC
 70
     4
  9
$SKETCHINC
 40
0.1
  9
$FILLETRAD
 40
0.5
  9
$AUNITS
 70
     0
  9
$AUPREC
 70
     0
  9
$MENU
  1
.
  9
$ELEVATION
 40
0.0
  9
$THICKNESS
 40
0.0
  9
$LIMCHECK
 70
     0
  9
$CHAMFERA
 40
0.0
  9
$CHAMFERB
 40
0.0
  9
$SKPOLY
 70
     0
  9
$TDCREATE
 40
2447893.125
  9
$TDUPDATE
 40
2460791.498508113
  9
$TDINDWG
 40
0.0
  9
$TDUSRTIMER
 40
0.0
  9
$USRTIMER
 70
     1
  9
$ANGBASE
 50
0.0
  9
$ANGDIR
 70
     0
  9
$PDMODE
 70
     0
  9
$PDSIZE
 40
0.0
  9
$PLINEWID
 40
0.0
  9
$COORDS
 70
     1
  9
$SPLFRAME
 70
     0
  9
$SPLINETYPE
 70
     6
  9
$SPLINESEGS
 70
     8
  9
$ATTDIA
 70
     0
  9
$ATTREQ
 70
     1
  9
$HANDLING
 70
     1
  9
$HANDSEED
  5
78B
  9
$SURFTAB1
 70
     6
  9
$SURFTAB2
 70
     6
  9
$SURFTYPE
 70
     6
  9
$SURFU
 70
     6
  9
$SURFV
 70
     6
  9
$UCSNAME
  2

  9
$UCSORG
 10
0.0
 20
0.0
 30
0.0
  9
$UCSXDIR
 10
1.0
 20
0.0
 30
0.0
  9
$UCSYDIR
 10
0.0
 20
1.0
 30
0.0
  9
$USERI1
 70
     0
  9
$USERI2
 70
     0
  9
$USERI3
 70
     0
  9
$USERI4
 70
     0
  9
$USERI5
 70
     0
  9
$USERR1
 40
0.0
  9
$USERR2
 40
0.0
  9
$USERR3
 40
0.0
  9
$USERR4
 40
0.0
  9
$USERR5
 40
0.0
  9
$WORLDVIEW
 70
     1
  0
ENDSEC
  0
SECTION
  2
TABLES
  0
TABLE
  2
VPORT
 70
     1
  0
VPORT
  2
*ACTIVE
 70
     0
 10
0.0
 20
0.0
 11
1.0
 21
1.0
 12
475.96346067
 22
-28.25639837
 13
0.0
 23
0.0
 14
1.0
 24
1.0
 15
0.0
 25
0.0
 16
0.0
 26
0.0
 36
1.0
 17
0.0
 27
0.0
 37
0.0
 40
739.599609375
 41
2.076371541
 42
50.0
 43
0.0
 44
0.0
 50
0.0
 51
0.0
 71
     0
 72
   100
 73
     1
 74
     1
 75
     0
 76
     0
 77
     0
 78
     0
  0
ENDTAB
  0
TABLE
  2
LTYPE
 70
    19
  0
LTYPE
  2
CONTINUOUS
 70
     0
  3
Solid line
 72
    65
 73
     0
 40
0.0
  0
LTYPE
  2
DOT
 70
     0
  3
..............
 72
    65
 73
     2
 40
2.0
 49
0.5
 49
-1.5
  0
LTYPE
  2
HIDDEN
 70
     0
  3
-- -- -- -- --
 72
    65
 73
     2
 40
7.0
 49
4.0
 49
-3.0
  0
LTYPE
  2
DASHDOT
 70
     0
  3
--.--.--.--.--
 72
    65
 73
     4
 40
8.5
 49
4.0
 49
-2.0
 49
0.5
 49
-2.0
  0
LTYPE
  2
STRICHPUNKT2
 70
     0
  3
--.--.--.--.--
 72
    65
 73
     4
 40
18.5
 49
10.0
 49
-4.0
 49
0.5
 49
-4.0
  0
LTYPE
  2
STRICHPUNKT3
 70
     0
  3
--.--.--.--.--
 72
    65
 73
     4
 40
35.5
 49
25.0
 49
-5.0
 49
0.5
 49
-5.0
  0
LTYPE
  2
PHANTOM
 70
     0
  3
--..--..--..--
 72
    65
 73
     6
 40
23.0
 49
10.0
 49
-4.0
 49
0.5
 49
-4.0
 49
0.5
 49
-4.0
  0
LTYPE
  2
PHANTOM2
 70
     0
  3
--..--..--..--
 72
    65
 73
     6
 40
33.0
 49
20.0
 49
-4.0
 49
0.5
 49
-4.0
 49
0.5
 49
-4.0
  0
LTYPE
  2
PHANTOM3
 70
     0
  3
--..--..--..--
 72
    65
 73
     6
 40
50.0
 49
37.0
 49
-4.0
 49
0.5
 49
-4.0
 49
0.5
 49
-4.0
  0
LTYPE
  2
STR3PKT
 70
     0
  3
--...--...--...
 72
    65
 73
     8
 40
31.5
 49
20.0
 49
-2.5
 49
0.5
 49
-2.5
 49
0.5
 49
-2.5
 49
0.5
 49
-2.5
  0
LTYPE
  2
2STRPKT
 70
     0
  3
--.--.--.--.--
 72
    65
 73
     6
 40
28.0
 49
10.0
 49
-2.5
 49
10.0
 49
-2.5
 49
0.5
 49
-2.5
  0
LTYPE
  2
GESTRICHELT2
 70
     0
  3
-- -- -- -- --
 72
    65
 73
     2
 40
25.0
 49
10.0
 49
-15.0
  0
LTYPE
  2
2STR2PKT
 70
     0
  3
--..--..--..--
 72
    65
 73
     8
 40
31.0
 49
10.0
 49
-2.5
 49
10.0
 49
-2.5
 49
0.5
 49
-2.5
 49
0.5
 49
-2.5
  0
LTYPE
  2
STR3PKT2
 70
     0
  3
--...--...--...
 72
    65
 73
     8
 40
21.0
 49
10.0
 49
-2.5
 49
0.5
 49
-2.5
 49
0.5
 49
-2.5
 49
0.5
 49
-2.0
  0
LTYPE
  2
2STR3PKT
 70
     0
  3
--...--...--...
 72
    65
 73
    10
 40
34.0
 49
10.0
 49
-2.5
 49
10.0
 49
-2.5
 49
0.5
 49
-2.5
 49
0.5
 49
-2.5
 49
0.5
 49
-2.5
  0
LTYPE
  2
STRKSTR
 70
     0
  3
-- - -- - -- -
 72
    65
 73
     4
 40
30.0
 49
20.0
 49
-2.5
 49
5.0
 49
-2.5
  0
LTYPE
  2
STRKSTR2
 70
     0
  3
-- - -- - -- -
 72
    65
 73
     6
 40
37.5
 49
20.0
 49
-2.5
 49
5.0
 49
-2.5
 49
5.0
 49
-2.5
  0
LTYPE
  2
STRKSTR3
 70
     0
  3
-- - -- - -- -
 72
    65
 73
     8
 40
45.0
 49
20.0
 49
-2.5
 49
5.0
 49
-2.5
 49
5.0
 49
-2.5
 49
5.0
 49
-2.5
  0
LTYPE
  2
PUNKT2
 70
     0
  3
..............
 72
    65
 73
     2
 40
3.5
 49
0.5
 49
-3.0
  0
ENDTAB
  0
TABLE
  2
LAYER
 70
    15
  0
LAYER
  2
0
 70
     0
 62
     7
  6
CONTINUOUS
  0
LAYER
  2
LE_GREEN
 70
     0
 62
     3
  6
CONTINUOUS
  0
LAYER
  2
LE_RED
 70
     0
 62
     1
  6
CONTINUOUS
  0
LAYER
  2
LE_ALL
 70
     0
 62
     7
  6
CONTINUOUS
  0
LAYER
  2
LE_HIDDEN1
 70
     0
 62
     3
  6
HIDDEN
  0
LAYER
  2
LE_HIDDEN
 70
     0
 62
     7
  6
CONTINUOUS
  0
LAYER
  2
LE_MIDDLE
 70
     0
 62
     7
  6
CONTINUOUS
  0
LAYER
  2
TXT_YELLOW
 70
     0
 62
     2
  6
CONTINUOUS
  0
LAYER
  2
TXT_DIM49
 70
     0
 62
     2
  6
CONTINUOUS
  0
LAYER
  2
TXT_ALL
 70
     0
 62
     7
  6
CONTINUOUS
  0
LAYER
  2
DIM49
 70
     0
 62
     4
  6
CONTINUOUS
  0
LAYER
  2
HATCH
 70
     0
 62
     3
  6
CONTINUOUS
  0
LAYER
  2
APPLE
 70
     0
 62
     7
  6
CONTINUOUS
  0
LAYER
  2
10
 70
     0
 62
     7
  6
CONTINUOUS
  0
LAYER
  2
49
 70
     0
 62
     7
  6
CONTINUOUS
  0
ENDTAB
  0
TABLE
  2
STYLE
 70
     5
  0
STYLE
  2
MONOTXT
 70
     0
 40
0.0
 41
1.0
 50
0.0
 71
     0
 42
1.0
  3
monotxt.shx
  4

  0
STYLE
  2
STANDARD
 70
     0
 40
0.0
 41
1.0
 50
0.0
 71
     0
 42
1.0
  3
txt
  4

  0
STYLE
  2
ARIAL
 70
     0
 40
0.0
 41
1.0
 50
0.0
 71
     0
 42
1.0
  3
arial.ttf
  4

  0
STYLE
  2
ARIAL_NARROW
 70
     0
 40
0.0
 41
1.0
 50
0.0
 71
     0
 42
1.0
  3
ArialN.ttf
  4

  0
STYLE
  2
ISOCPEUR
 70
     0
 40
0.0
 41
1.0
 50
0.0
 71
     0
 42
1.0
  3
ISOCPEUR.ttf
  4

  0
ENDTAB
  0
TABLE
  2
VIEW
 70
     0
  0
ENDTAB
  0
TABLE
  2
UCS
 70
     0
  0
ENDTAB
  0
ENDSEC
  0
SECTION
  2
BLOCKS
  0
ENDSEC
  0
SECTION
  2
ENTITIES
  0
POLYLINE
  5
16C
  8
0
 66
     1
 10
0.0
 20
0.0
 30
0.0
 70
     1
  0
VERTEX
  5
16D
  8
0
 10
-63.34785888
 20
-83.73045026
 30
0.0
  0
VERTEX
  5
16E
  8
0
 10
356.65214112
 20
-83.73045026
 30
0.0
  0
VERTEX
  5
16F
  8
0
 10
356.65214112
 20
213.26954974
 30
0.0
  0
VERTEX
  5
170
  8
0
 10
-63.34785888
 20
213.26954974
 30
0.0
  0
SEQEND
  5
171
  8
0
  0
POLYLINE
  5
172
  8
0
 66
     1
 10
0.0
 20
0.0
 30
0.0
 70
     1
  0
VERTEX
  5
173
  8
0
 10
-58.34785888
 20
-78.73045026
 30
0.0
  0
VERTEX
  5
174
  8
0
 10
351.65214112
 20
-78.73045026
 30
0.0
  0
VERTEX
  5
175
  8
0
 10
351.65214112
 20
208.26954974
 30
0.0
  0
VERTEX
  5
176
  8
0
 10
-58.34785888
 20
208.26954974
 30
0.0
  0
SEQEND
  5
177
  8
0
  0
LINE
  5
178
  8
0
 10
166.65214112
 20
-78.73045026
 30
0.0
 11
166.65214112
 21
-83.73045026
 31
0.0
  0
LINE
  5
179
  8
0
 10
166.65214112
 20
208.26954974
 30
0.0
 11
166.65214112
 21
213.26954974
 31
0.0
  0
LINE
  5
17A
  8
0
 10
-43.34785888
 20
-78.73045026
 30
0.0
 11
-43.34785888
 21
-83.73045026
 31
0.0
  0
LINE
  5
17B
  8
0
 10
-43.34785888
 20
208.26954974
 30
0.0
 11
-43.34785888
 21
213.26954974
 31
0.0
  0
TEXT
  5
17C
  8
TXT_ALL
 62
     4
 10
355.65214112
 20
-82.73045026
 30
0.0
 40
2.5
  1

 50
90.00020741
  0
POLYLINE
  5
17D
  8
0
 66
     1
 10
0.0
 20
0.0
 30
0.0
  0
VERTEX
  5
17E
  8
0
 10
351.65214112
 20
198.26954974
 30
0.0
  0
VERTEX
  5
17F
  8
0
 10
282.65884112
 20
198.26954974
 30
0.0
  0
VERTEX
  5
180
  8
0
 10
282.65884112
 20
208.26954974
 30
0.0
  0
SEQEND
  5
181
  8
0
  0
LINE
  5
182
  8
0
 10
284.56214112
 20
-59.23045026
 30
0.0
 11
144.67214112
 21
-59.23045026
 31
0.0
  0
LINE
  5
183
  8
0
 10
144.67214112
 20
-68.98045026
 30
0.0
 11
284.56214112
 21
-68.98045026
 31
0.0
  0
POLYLINE
  5
184
  8
0
 66
     1
 10
0.0
 20
0.0
 30
0.0
  0
VERTEX
  5
185
  8
0
 10
144.67214112
 20
-59.23045026
 30
0.0
  0
VERTEX
  5
186
  8
0
 10
144.67214112
 20
-68.98045026
 30
0.0
  0
VERTEX
  5
187
  8
0
 10
144.67214112
 20
-78.73045026
 30
0.0
  0
SEQEND
  5
188
  8
0
  0
POLYLINE
  5
189
  8
0
 66
     1
 10
0.0
 20
0.0
 30
0.0
  0
VERTEX
  5
18A
  8
0
 10
214.61714112
 20
-59.23045026
 30
0.0
  0
VERTEX
  5
18B
  8
0
 10
214.61714112
 20
-68.98045026
 30
0.0
  0
VERTEX
  5
18C
  8
0
 10
214.61714112
 20
-78.73045026
 30
0.0
  0
SEQEND
  5
18D
  8
0
  0
TEXT
  5
18E
  8
TXT_ALL
 10
146.67214112
 20
-65.40545021
 30
0.0
 40
2.5999999
  1
E-mail: verkoop@jonkers-bouwmetaal.nl
  7
ARIAL
  0
TEXT
  5
18F
  8
TXT_ALL
 10
146.67214112
 20
-75.15545021
 30
0.0
 40
2.5999999
  1
Telefoon: 0527-685156
  7
ARIAL
  0
TEXT
  5
190
  8
TXT_ALL
 10
216.61714112
 20
-75.15545021
 30
0.0
 40
2.5999999
  1
Website: www.jonkers-bouwmetaal.nl
  7
ARIAL
  0
TEXT
  5
191
  8
TXT_ALL
 10
216.61714112
 20
-65.40545021
 30
0.0
 40
2.5999999
  1
Adres: Hoornse Hop 10, 8321 WX Urk
  7
ARIAL
  0
TEXT
  5
192
  8
TXT_ALL
 10
-54.90589863
 20
202.01954974
 30
0.0
 40
2.5
  1
Art. nr. 91003383
  7
ARIAL
  0
TEXT
  5
193
  8
TXT_ALL
 10
-12.16786181
 20
202.01954974
 30
0.0
 40
2.5
  1
Omschrijving: Scharnier 3"x3"x2.0, type 1
  7
ARIAL
  0
LINE
  5
194
  8
0
 10
351.65214112
 20
198.26954974
 30
0.0
 11
-58.34785888
 21
198.26954974
 31
0.0
  0
LINE
  5
195
  8
0
 10
-15.32785888
 20
198.26954974
 30
0.0
 11
-15.32785888
 21
208.26954974
 31
0.0
  0
LINE
  5
196
  8
0
 10
144.67214112
 20
198.26954974
 30
0.0
 11
144.67214112
 21
208.26954974
 31
0.0
  0
TEXT
  5
197
  8
TXT_ALL
 10
215.66584112
 20
202.01954974
 30
0.0
 40
2.5
  1
Behandeling: N.V.T.
  7
ARIAL
  0
LINE
  5
198
  8
0
 10
284.56214112
 20
-59.23045026
 30
0.0
 11
351.65214112
 21
-59.23045026
 31
0.0
  0
LINE
  5
199
  8
0
 10
284.56214112
 20
-78.73045026
 30
0.0
 11
284.56214112
 21
-59.23045026
 31
0.0
  0
LINE
  5
19A
  8
0
 10
284.56214112
 20
-78.73045026
 30
0.0
 11
284.56214112
 21
-59.23045026
 31
0.0
  0
TEXT
  5
19B
  8
TXT_ALL
 10
79.01733921
 20
-77.57591684
 30
0.0
 40
2.5
  1

  0
TEXT
  5
19C
  8
TXT_ALL
 10
200.15252217
 20
-67.48045026
 30
0.0
 40
2.5
  1

  0
POLYLINE
  5
19D
  8
0
 66
     1
 10
0.0
 20
0.0
 30
0.0
  0
VERTEX
  5
19E
  8
0
 10
282.65884112
 20
198.26954974
 30
0.0
  0
VERTEX
  5
19F
  8
0
 10
213.66584112
 20
198.26954974
 30
0.0
  0
VERTEX
  5
1A0
  8
0
 10
213.66584112
 20
208.26954974
 30
0.0
  0
SEQEND
  5
1A1
  8
0
  0
TEXT
  5
1A2
  8
TXT_ALL
 10
284.65884112
 20
202.01954974
 30
0.0
 40
2.5
  1
Verpakkingshoeveelheid: 100 st.
  7
ARIAL
  0
TEXT
  5
1A3
  8
TXT_ALL
 10
146.67214112
 20
202.01954974
 30
0.0
 40
2.5
  1
Materiaal: Sendzimir Verzinkt
  7
ARIAL
  0
TEXT
  5
1A4
  8
TXT_ALL
 10
319.43378834
 20
-81.97996011
 30
0.0
 40
1.5
  1
Onderdeel van
  7
ARIAL
  0
LINE
  5
1A5
  8
0
 10
193.41347207
 20
85.33301251
 30
0.0
 11
183.21347207
 21
85.33301251
 31
0.0
  0
LINE
  5
1A6
  8
0
 10
183.21347207
 20
85.93301251
 30
0.0
 11
183.21347207
 21
85.33301251
 31
0.0
  0
LINE
  5
1A7
  8
0
 10
193.41347207
 20
85.93301251
 30
0.0
 11
183.21347207
 21
85.93301251
 31
0.0
  0
LINE
  5
1A8
  8
0
 10
193.41347207
 20
85.93301251
 30
0.0
 11
193.41347207
 21
85.33301251
 31
0.0
  0
POLYLINE
  5
1A9
  8
0
 66
     1
 10
0.0
 20
0.0
 30
0.0
  0
VERTEX
  5
1AA
  8
0
 10
193.41347207
 20
85.93301251
 30
0.0
 42
0.414213562
  0
VERTEX
  5
1AB
  8
0
 10
189.41347207
 20
89.93301251
 30
0.0
  0
VERTEX
  5
1AC
  8
0
 10
187.21347207
 20
89.93301251
 30
0.0
 42
0.414213562
  0
VERTEX
  5
1AD
  8
0
 10
183.21347207
 20
85.93301251
 30
0.0
  0
SEQEND
  5
1AE
  8
0
  0
LINE
  5
1AF
  8
0
 10
185.21347207
 20
85.33301251
 30
0.0
 11
185.21347207
 21
85.18301251
 31
0.0
  0
LINE
  5
1B0
  8
0
 10
185.21347207
 20
72.78301251
 30
0.0
 11
185.21347207
 21
72.68301251
 31
0.0
  0
LINE
  5
1B1
  8
0
 10
185.21347207
 20
55.53301251
 30
0.0
 11
185.21347207
 21
55.28301251
 31
0.0
  0
LINE
  5
1B2
  8
0
 10
185.21347207
 20
39.08301251
 30
0.0
 11
185.21347207
 21
38.83301251
 31
0.0
  0
LINE
  5
1B3
  8
0
 10
185.21347207
 20
21.68301251
 30
0.0
 11
185.21347207
 21
21.58301251
 31
0.0
  0
LINE
  5
1B4
  8
0
 10
191.41347207
 20
85.33301251
 30
0.0
 11
191.41347207
 21
85.18301251
 31
0.0
  0
LINE
  5
1B5
  8
0
 10
191.41347207
 20
72.78301251
 30
0.0
 11
191.41347207
 21
72.68301251
 31
0.0
  0
LINE
  5
1B6
  8
0
 10
191.41347207
 20
55.53301251
 30
0.0
 11
191.41347207
 21
55.28301251
 31
0.0
  0
LINE
  5
1B7
  8
0
 10
191.41347207
 20
39.08301251
 30
0.0
 11
191.41347207
 21
38.83301251
 31
0.0
  0
LINE
  5
1B8
  8
0
 10
191.41347207
 20
21.68301251
 30
0.0
 11
191.41347207
 21
21.58301251
 31
0.0
  0
LINE
  5
1B9
  8
0
 10
183.31347207
 20
38.83301251
 30
0.0
 11
193.31347207
 21
38.83301251
 31
0.0
  0
LINE
  5
1BA
  8
0
 10
193.31347207
 20
21.68301251
 30
0.0
 11
193.31347207
 21
38.83301251
 31
0.0
  0
POLYLINE
  5
1BB
  8
0
 66
     1
 10
0.0
 20
0.0
 30
0.0
  0
VERTEX
  5
1BC
  8
0
 10
193.31347207
 20
21.68301251
 30
0.0
  0
VERTEX
  5
1BD
  8
0
 10
183.31347207
 20
21.68301251
 30
0.0
  0
VERTEX
  5
1BE
  8
0
 10
183.31347207
 20
38.83301251
 30
0.0
  0
SEQEND
  5
1BF
  8
0
  0
LINE
  5
1C0
  8
0
 10
183.31347207
 20
72.68301251
 30
0.0
 11
193.31347207
 21
72.68301251
 31
0.0
  0
LINE
  5
1C1
  8
0
 10
193.31347207
 20
55.53301251
 30
0.0
 11
193.31347207
 21
72.68301251
 31
0.0
  0
POLYLINE
  5
1C2
  8
0
 66
     1
 10
0.0
 20
0.0
 30
0.0
  0
VERTEX
  5
1C3
  8
0
 10
193.31347207
 20
55.53301251
 30
0.0
  0
VERTEX
  5
1C4
  8
0
 10
183.31347207
 20
55.53301251
 30
0.0
  0
VERTEX
  5
1C5
  8
0
 10
183.31347207
 20
72.68301251
 30
0.0
  0
SEQEND
  5
1C6
  8
0
  0
CIRCLE
  5
1C7
  8
0
 10
165.31347207
 20
77.18301251
 30
0.0
 40
3.0
  0
CIRCLE
  5
1C8
  8
0
 10
158.31347207
 20
47.18301251
 30
0.0
 40
3.0
  0
CIRCLE
  5
1C9
  8
0
 10
165.31347207
 20
17.18301251
 30
0.0
 40
3.0
  0
CIRCLE
  5
1CA
  8
0
 10
165.31347207
 20
77.18301251
 30
0.0
 40
4.0
  0
CIRCLE
  5
1CB
  8
0
 10
158.31347207
 20
47.18301251
 30
0.0
 40
4.0
  0
CIRCLE
  5
1CC
  8
0
 10
165.31347207
 20
17.18301251
 30
0.0
 40
4.0
  0
LINE
  5
1CD
  8
0
 10
181.48964705
 20
9.18301251
 30
0.0
 11
160.31347207
 21
9.18301251
 31
0.0
  0
ARC
  5
1CE
  8
0
 10
160.31347207
 20
19.18301251
 30
0.0
 40
10.0
 50
-180.0
 51
-90.0
  0
LINE
  5
1CF
  8
0
 10
150.31347207
 20
19.18301251
 30
0.0
 11
150.31347207
 21
75.18301251
 31
0.0
  0
ARC
  5
1D0
  8
0
 10
160.31347207
 20
75.18301251
 30
0.0
 40
10.0
 50
90.0
 51
180.0
  0
LINE
  5
1D1
  8
0
 10
160.31347207
 20
85.18301251
 30
0.0
 11
181.48964705
 21
85.18301251
 31
0.0
  0
LINE
  5
1D2
  8
0
 10
181.48964705
 20
9.18301251
 30
0.0
 11
181.48964705
 21
85.18301251
 31
0.0
  0
LINE
  5
1D3
  8
0
 10
181.81347207
 20
9.18301251
 30
0.0
 11
181.48964705
 21
9.18301251
 31
0.0
  0
LINE
  5
1D4
  8
0
 10
181.81347207
 20
21.68301251
 30
0.0
 11
181.81347207
 21
9.18301251
 31
0.0
  0
LINE
  5
1D5
  8
0
 10
182.12075226
 20
21.68301251
 30
0.0
 11
181.81347207
 21
21.68301251
 31
0.0
  0
LINE
  5
1D6
  8
0
 10
182.12075226
 20
21.68301251
 30
0.0
 11
182.12075226
 21
38.83301251
 31
0.0
  0
LINE
  5
1D7
  8
0
 10
181.81347207
 20
38.83301251
 30
0.0
 11
182.12075226
 21
38.83301251
 31
0.0
  0
LINE
  5
1D8
  8
0
 10
181.81347207
 20
55.53301251
 30
0.0
 11
181.81347207
 21
38.83301251
 31
0.0
  0
LINE
  5
1D9
  8
0
 10
182.12075226
 20
55.53301251
 30
0.0
 11
181.81347207
 21
55.53301251
 31
0.0
  0
LINE
  5
1DA
  8
0
 10
182.12075226
 20
55.53301251
 30
0.0
 11
182.12075226
 21
72.68301251
 31
0.0
  0
LINE
  5
1DB
  8
0
 10
181.81347207
 20
72.68301251
 30
0.0
 11
182.12075226
 21
72.68301251
 31
0.0
  0
LINE
  5
1DC
  8
0
 10
181.81347207
 20
85.18301251
 30
0.0
 11
181.81347207
 21
72.68301251
 31
0.0
  0
LINE
  5
1DD
  8
0
 10
181.48964705
 20
85.18301251
 30
0.0
 11
181.81347207
 21
85.18301251
 31
0.0
  0
LINE
  5
1DE
  8
0
 10
182.12075226
 20
72.68301251
 30
0.0
 11
183.31347207
 21
72.68301251
 31
0.0
  0
LINE
  5
1DF
  8
0
 10
183.31347207
 20
55.53301251
 30
0.0
 11
182.12075226
 21
55.53301251
 31
0.0
  0
LINE
  5
1E0
  8
0
 10
182.12075226
 20
38.83301251
 30
0.0
 11
183.31347207
 21
38.83301251
 31
0.0
  0
LINE
  5
1E1
  8
0
 10
183.31347207
 20
21.68301251
 30
0.0
 11
182.12075226
 21
21.68301251
 31
0.0
  0
LINE
  5
1E2
  8
0
  6
STRICHPUNKT2
 62
     1
 10
158.31347207
 20
47.18301251
 30
0.0
 11
162.81347207
 21
47.18301251
 31
0.0
  0
LINE
  5
1E3
  8
0
  6
STRICHPUNKT2
 62
     1
 10
158.31347207
 20
47.18301251
 30
0.0
 11
153.81347207
 21
47.18301251
 31
0.0
  0
LINE
  5
1E4
  8
0
  6
STRICHPUNKT2
 62
     1
 10
158.31347207
 20
47.18301251
 30
0.0
 11
158.31347207
 21
51.68301251
 31
0.0
  0
LINE
  5
1E5
  8
0
  6
STRICHPUNKT2
 62
     1
 10
158.31347207
 20
47.18301251
 30
0.0
 11
158.31347207
 21
42.68301251
 31
0.0
  0
LINE
  5
1E6
  8
0
  6
STRICHPUNKT2
 62
     1
 10
165.31347207
 20
77.18301251
 30
0.0
 11
169.81347207
 21
77.18301251
 31
0.0
  0
LINE
  5
1E7
  8
0
  6
STRICHPUNKT2
 62
     1
 10
165.31347207
 20
77.18301251
 30
0.0
 11
160.81347207
 21
77.18301251
 31
0.0
  0
LINE
  5
1E8
  8
0
  6
STRICHPUNKT2
 62
     1
 10
165.31347207
 20
77.18301251
 30
0.0
 11
165.31347207
 21
81.68301251
 31
0.0
  0
LINE
  5
1E9
  8
0
  6
STRICHPUNKT2
 62
     1
 10
165.31347207
 20
77.18301251
 30
0.0
 11
165.31347207
 21
72.68301251
 31
0.0
  0
LINE
  5
1EA
  8
0
  6
STRICHPUNKT2
 62
     1
 10
165.31347207
 20
17.18301251
 30
0.0
 11
169.81347207
 21
17.18301251
 31
0.0
  0
LINE
  5
1EB
  8
0
  6
STRICHPUNKT2
 62
     1
 10
165.31347207
 20
17.18301251
 30
0.0
 11
160.81347207
 21
17.18301251
 31
0.0
  0
LINE
  5
1EC
  8
0
  6
STRICHPUNKT2
 62
     1
 10
165.31347207
 20
17.18301251
 30
0.0
 11
165.31347207
 21
21.68301251
 31
0.0
  0
LINE
  5
1ED
  8
0
  6
STRICHPUNKT2
 62
     1
 10
165.31347207
 20
17.18301251
 30
0.0
 11
165.31347207
 21
12.68301251
 31
0.0
  0
LINE
  5
1EE
  8
0
 10
193.31347207
 20
21.58301251
 30
0.0
 11
183.31347207
 21
21.58301251
 31
0.0
  0
LINE
  5
1EF
  8
0
 10
183.31347207
 20
9.18301251
 30
0.0
 11
183.31347207
 21
21.58301251
 31
0.0
  0
LINE
  5
1F0
  8
0
 10
193.31347207
 20
9.18301251
 30
0.0
 11
183.31347207
 21
9.18301251
 31
0.0
  0
LINE
  5
1F1
  8
0
 10
193.31347207
 20
9.18301251
 30
0.0
 11
193.31347207
 21
21.58301251
 31
0.0
  0
LINE
  5
1F2
  8
0
 10
183.31347207
 20
85.18301251
 30
0.0
 11
193.31347207
 21
85.18301251
 31
0.0
  0
LINE
  5
1F3
  8
0
 10
193.31347207
 20
72.78301251
 30
0.0
 11
193.31347207
 21
85.18301251
 31
0.0
  0
LINE
  5
1F4
  8
0
 10
183.31347207
 20
72.78301251
 30
0.0
 11
193.31347207
 21
72.78301251
 31
0.0
  0
LINE
  5
1F5
  8
0
 10
183.31347207
 20
72.78301251
 30
0.0
 11
183.31347207
 21
85.18301251
 31
0.0
  0
LINE
  5
1F6
  8
0
 10
193.31347207
 20
55.28301251
 30
0.0
 11
183.31347207
 21
55.28301251
 31
0.0
  0
LINE
  5
1F7
  8
0
 10
183.31347207
 20
39.08301251
 30
0.0
 11
183.31347207
 21
55.28301251
 31
0.0
  0
POLYLINE
  5
1F8
  8
0
 66
     1
 10
0.0
 20
0.0
 30
0.0
  0
VERTEX
  5
1F9
  8
0
 10
183.31347207
 20
39.08301251
 30
0.0
  0
VERTEX
  5
1FA
  8
0
 10
193.31347207
 20
39.08301251
 30
0.0
  0
VERTEX
  5
1FB
  8
0
 10
193.31347207
 20
55.28301251
 30
0.0
  0
SEQEND
  5
1FC
  8
0
  0
CIRCLE
  5
1FD
  8
0
 10
211.31347207
 20
77.18301251
 30
0.0
 40
3.0
  0
CIRCLE
  5
1FE
  8
0
 10
218.31347207
 20
47.18301251
 30
0.0
 40
3.0
  0
CIRCLE
  5
1FF
  8
0
 10
211.31347207
 20
17.18301251
 30
0.0
 40
3.0
  0
CIRCLE
  5
200
  8
0
 10
211.31347207
 20
77.18301251
 30
0.0
 40
4.0
  0
CIRCLE
  5
201
  8
0
 10
218.31347207
 20
47.18301251
 30
0.0
 40
4.0
  0
CIRCLE
  5
202
  8
0
 10
211.31347207
 20
17.18301251
 30
0.0
 40
4.0
  0
ARC
  5
203
  8
0
 10
216.31347207
 20
75.18301251
 30
0.0
 40
10.0
 50
0.0
 51
90.0
  0
LINE
  5
204
  8
0
 10
226.31347207
 20
19.18301251
 30
0.0
 11
226.31347207
 21
75.18301251
 31
0.0
  0
ARC
  5
205
  8
0
 10
216.31347207
 20
19.18301251
 30
0.0
 40
10.0
 50
-90.0
 51
0.0
  0
LINE
  5
206
  8
0
 10
195.1372971
 20
9.18301251
 30
0.0
 11
216.31347207
 21
9.18301251
 31
0.0
  0
LINE
  5
207
  8
0
 10
195.1372971
 20
9.18301251
 30
0.0
 11
195.1372971
 21
85.18301251
 31
0.0
  0
POLYLINE
  5
208
  8
0
 66
     1
 10
0.0
 20
0.0
 30
0.0
  0
VERTEX
  5
209
  8
0
 10
216.31347207
 20
85.18301251
 30
0.0
  0
VERTEX
  5
20A
  8
0
 10
195.1372971
 20
85.18301251
 30
0.0
  0
VERTEX
  5
20B
  8
0
 10
194.50619189
 20
85.18301251
 30
0.0
  0
SEQEND
  5
20C
  8
0
  0
LINE
  5
20D
  8
0
 10
194.50619189
 20
72.78301251
 30
0.0
 11
194.50619189
 21
85.18301251
 31
0.0
  0
POLYLINE
  5
20E
  8
0
 66
     1
 10
0.0
 20
0.0
 30
0.0
  0
VERTEX
  5
20F
  8
0
 10
194.50619189
 20
72.78301251
 30
0.0
  0
VERTEX
  5
210
  8
0
 10
194.81347207
 20
72.78301251
 30
0.0
  0
VERTEX
  5
211
  8
0
 10
194.81347207
 20
55.28301251
 30
0.0
  0
VERTEX
  5
212
  8
0
 10
194.50619189
 20
55.28301251
 30
0.0
  0
SEQEND
  5
213
  8
0
  0
LINE
  5
214
  8
0
 10
194.50619189
 20
39.08301251
 30
0.0
 11
194.50619189
 21
55.28301251
 31
0.0
  0
POLYLINE
  5
215
  8
0
 66
     1
 10
0.0
 20
0.0
 30
0.0
  0
VERTEX
  5
216
  8
0
 10
194.50619189
 20
39.08301251
 30
0.0
  0
VERTEX
  5
217
  8
0
 10
194.81347207
 20
39.08301251
 30
0.0
  0
VERTEX
  5
218
  8
0
 10
194.81347207
 20
21.58301251
 30
0.0
  0
VERTEX
  5
219
  8
0
 10
194.50619189
 20
21.58301251
 30
0.0
  0
SEQEND
  5
21A
  8
0
  0
LINE
  5
21B
  8
0
 10
194.50619189
 20
9.18301251
 30
0.0
 11
194.50619189
 21
21.58301251
 31
0.0
  0
LINE
  5
21C
  8
0
 10
194.50619189
 20
9.18301251
 30
0.0
 11
195.1372971
 21
9.18301251
 31
0.0
  0
LINE
  5
21D
  8
0
 10
194.50619189
 20
9.18301251
 30
0.0
 11
193.31347207
 21
9.18301251
 31
0.0
  0
LINE
  5
21E
  8
0
 10
194.50619189
 20
21.58301251
 30
0.0
 11
193.31347207
 21
21.58301251
 31
0.0
  0
LINE
  5
21F
  8
0
 10
193.31347207
 20
39.08301251
 30
0.0
 11
194.50619189
 21
39.08301251
 31
0.0
  0
LINE
  5
220
  8
0
 10
194.50619189
 20
55.28301251
 30
0.0
 11
193.31347207
 21
55.28301251
 31
0.0
  0
LINE
  5
221
  8
0
 10
193.31347207
 20
72.78301251
 30
0.0
 11
194.50619189
 21
72.78301251
 31
0.0
  0
LINE
  5
222
  8
0
 10
193.31347207
 20
85.18301251
 30
0.0
 11
194.50619189
 21
85.18301251
 31
0.0
  0
LINE
  5
223
  8
0
  6
STRICHPUNKT2
 62
     1
 10
218.31347207
 20
47.18301251
 30
0.0
 11
222.81347207
 21
47.18301251
 31
0.0
  0
LINE
  5
224
  8
0
  6
STRICHPUNKT2
 62
     1
 10
218.31347207
 20
47.18301251
 30
0.0
 11
213.81347207
 21
47.18301251
 31
0.0
  0
LINE
  5
225
  8
0
  6
STRICHPUNKT2
 62
     1
 10
218.31347207
 20
47.18301251
 30
0.0
 11
218.31347207
 21
51.68301251
 31
0.0
  0
LINE
  5
226
  8
0
  6
STRICHPUNKT2
 62
     1
 10
218.31347207
 20
47.18301251
 30
0.0
 11
218.31347207
 21
42.68301251
 31
0.0
  0
LINE
  5
227
  8
0
  6
STRICHPUNKT2
 62
     1
 10
211.31347207
 20
77.18301251
 30
0.0
 11
215.81347207
 21
77.18301251
 31
0.0
  0
LINE
  5
228
  8
0
  6
STRICHPUNKT2
 62
     1
 10
211.31347207
 20
77.18301251
 30
0.0
 11
206.81347207
 21
77.18301251
 31
0.0
  0
LINE
  5
229
  8
0
  6
STRICHPUNKT2
 62
     1
 10
211.31347207
 20
77.18301251
 30
0.0
 11
211.31347207
 21
81.68301251
 31
0.0
  0
LINE
  5
22A
  8
0
  6
STRICHPUNKT2
 62
     1
 10
211.31347207
 20
77.18301251
 30
0.0
 11
211.31347207
 21
72.68301251
 31
0.0
  0
LINE
  5
22B
  8
0
  6
STRICHPUNKT2
 62
     1
 10
211.31347207
 20
17.18301251
 30
0.0
 11
215.81347207
 21
17.18301251
 31
0.0
  0
LINE
  5
22C
  8
0
  6
STRICHPUNKT2
 62
     1
 10
211.31347207
 20
17.18301251
 30
0.0
 11
206.81347207
 21
17.18301251
 31
0.0
  0
LINE
  5
22D
  8
0
  6
STRICHPUNKT2
 62
     1
 10
211.31347207
 20
17.18301251
 30
0.0
 11
211.31347207
 21
21.68301251
 31
0.0
  0
LINE
  5
22E
  8
0
  6
STRICHPUNKT2
 62
     1
 10
211.31347207
 20
17.18301251
 30
0.0
 11
211.31347207
 21
12.68301251
 31
0.0
  0
CIRCLE
  5
22F
  8
0
 10
188.31347207
 20
125.43958505
 30
0.0
 40
5.1
  0
CIRCLE
  5
230
  8
0
 10
188.31347207
 20
125.43958505
 30
0.0
 40
1.1
  0
POLYLINE
  5
231
  8
0
 66
     1
 10
0.0
 20
0.0
 30
0.0
  0
VERTEX
  5
232
  8
0
 10
181.81347207
 20
128.46941406
 30
0.0
 42
-0.043258487
  0
VERTEX
  5
233
  8
0
 10
181.46934092
 20
128.43958505
 30
0.0
  0
VERTEX
  5
234
  8
0
 10
160.31347207
 20
128.43958505
 30
0.0
  0
VERTEX
  5
235
  8
0
 10
160.31347207
 20
126.43958505
 30
0.0
  0
VERTEX
  5
236
  8
0
 10
181.48964705
 20
126.43958505
 30
0.0
 42
0.040679524
  0
VERTEX
  5
237
  8
0
 10
181.81347207
 20
126.46597482
 30
0.0
  0
SEQEND
  5
238
  8
0
  0
LINE
  5
239
  8
0
 10
181.81347207
 20
128.46941406
 30
0.0
 11
181.81347207
 21
126.46597482
 31
0.0
  0
LINE
  5
23A
  8
0
 10
160.31347207
 20
126.43958505
 30
0.0
 11
150.31347207
 21
126.43958505
 31
0.0
  0
LINE
  5
23B
  8
0
 10
150.31347207
 20
128.43958505
 30
0.0
 11
150.31347207
 21
126.43958505
 31
0.0
  0
LINE
  5
23C
  8
0
 10
150.31347207
 20
128.43958505
 30
0.0
 11
160.31347207
 21
128.43958505
 31
0.0
  0
LINE
  5
23D
  8
0
 10
185.69510385
 20
129.81613025
 30
0.0
 11
182.13781209
 21
128.55460593
 31
0.0
  0
LINE
  5
23E
  8
0
 10
181.81347207
 20
128.46941406
 30
0.0
 11
182.13781209
 21
128.55460593
 31
0.0
  0
POLYLINE
  5
23F
  8
0
 66
     1
 10
0.0
 20
0.0
 30
0.0
  0
VERTEX
  5
240
  8
0
 10
181.81347207
 20
126.46597482
 30
0.0
 42
0.039623348
  0
VERTEX
  5
241
  8
0
 10
182.12075226
 20
126.54176888
 30
0.0
  0
VERTEX
  5
242
  8
0
 10
183.45321545
 20
126.98486999
 30
0.0
  0
SEQEND
  5
243
  8
0
  0
LINE
  5
244
  8
0
  6
STRICHPUNKT2
 62
     1
 10
158.31347207
 20
128.43958505
 30
0.0
 11
158.31347207
 21
129.93958505
 31
0.0
  0
LINE
  5
245
  8
0
  6
STRICHPUNKT2
 62
     1
 10
158.31347207
 20
124.93958505
 30
0.0
 11
158.31347207
 21
126.43958505
 31
0.0
  0
LINE
  5
246
  8
0
  6
STRICHPUNKT2
 62
     1
 10
165.31347207
 20
128.43958505
 30
0.0
 11
165.31347207
 21
129.93958505
 31
0.0
  0
LINE
  5
247
  8
0
  6
STRICHPUNKT2
 62
     1
 10
165.31347207
 20
124.93958505
 30
0.0
 11
165.31347207
 21
126.43958505
 31
0.0
  0
POLYLINE
  5
248
  8
0
 66
     1
 10
0.0
 20
0.0
 30
0.0
  0
VERTEX
  5
249
  8
0
 10
226.31347207
 20
128.43958505
 30
0.0
  0
VERTEX
  5
24A
  8
0
 10
216.31347207
 20
128.43958505
 30
0.0
  0
VERTEX
  5
24B
  8
0
 10
216.31347207
 20
126.43958505
 30
0.0
  0
VERTEX
  5
24C
  8
0
 10
226.31347207
 20
126.43958505
 30
0.0
  0
SEQEND
  5
24D
  8
0
  0
LINE
  5
24E
  8
0
 10
226.31347207
 20
128.43958505
 30
0.0
 11
226.31347207
 21
126.43958505
 31
0.0
  0
POLYLINE
  5
24F
  8
0
 66
     1
 10
0.0
 20
0.0
 30
0.0
  0
VERTEX
  5
250
  8
0
 10
216.31347207
 20
126.43958505
 30
0.0
  0
VERTEX
  5
251
  8
0
 10
195.1372971
 20
126.43958505
 30
0.0
 42
-0.080432518
  0
VERTEX
  5
252
  8
0
 10
194.50619189
 20
126.54176888
 30
0.0
  0
SEQEND
  5
253
  8
0
  0
LINE
  5
254
  8
0
 10
193.1737287
 20
126.98486999
 30
0.0
 11
194.50619189
 21
126.54176888
 31
0.0
  0
POLYLINE
  5
255
  8
0
 66
     1
 10
0.0
 20
0.0
 30
0.0
  0
VERTEX
  5
256
  8
0
 10
190.9318403
 20
129.81613025
 30
0.0
  0
VERTEX
  5
257
  8
0
 10
194.48913205
 20
128.55460593
 30
0.0
 42
0.08540526
  0
VERTEX
  5
258
  8
0
 10
195.15760323
 20
128.43958505
 30
0.0
  0
VERTEX
  5
259
  8
0
 10
216.31347207
 20
128.43958505
 30
0.0
  0
SEQEND
  5
25A
  8
0
  0
LINE
  5
25B
  8
0
  6
STRICHPUNKT2
 62
     1
 10
218.31347207
 20
128.43958505
 30
0.0
 11
218.31347207
 21
129.93958505
 31
0.0
  0
LINE
  5
25C
  8
0
  6
STRICHPUNKT2
 62
     1
 10
218.31347207
 20
124.93958505
 30
0.0
 11
218.31347207
 21
126.43958505
 31
0.0
  0
LINE
  5
25D
  8
0
  6
STRICHPUNKT2
 62
     1
 10
211.31347207
 20
128.43958505
 30
0.0
 11
211.31347207
 21
129.93958505
 31
0.0
  0
LINE
  5
25E
  8
0
  6
STRICHPUNKT2
 62
     1
 10
211.31347207
 20
124.93958505
 30
0.0
 11
211.31347207
 21
126.43958505
 31
0.0
  0
POLYLINE
  5
25F
  8
0
 66
     1
 10
0.0
 20
0.0
 30
0.0
  0
VERTEX
  5
43F
  8
0
 10
37.39683345
 20
98.82968594
 30
0.0
  0
VERTEX
  5
440
  8
0
 10
37.37569725842464
 20
98.9089972539059
 30
0.0
  0
VERTEX
  5
441
  8
0
 10
37.31310093568821
 20
98.98526067849394
 30
0.0
  0
VERTEX
  5
442
  8
0
 10
37.21145002337121
 20
99.05554545312364
 30
0.0
  0
VERTEX
  5
443
  8
0
 10
37.07465090903099
 20
99.1171505733197
 30
0.0
  0
VERTEX
  5
444
  8
0
 10
36.90796070591851
 20
99.16770858885943
 30
0.0
  0
VERTEX
  5
445
  8
0
 10
36.71778522506417
 20
99.20527658355715
 30
0.0
  0
VERTEX
  5
446
  8
0
 10
36.51143280355212
 20
99.2284108404437
 30
0.0
  0
VERTEX
  5
447
  8
0
 10
36.29683344922439
 20
99.236222323
 30
0.0
  0
VERTEX
  5
448
  8
0
 10
36.08223409492646
 20
99.22841084033186
 30
0.0
  0
VERTEX
  5
449
  8
0
 10
35.87588167350268
 20
99.20527658333775
 30
0.0
  0
VERTEX
  5
44A
  8
0
 10
35.6857061927917
 20
99.16770858854092
 30
0.0
  0
VERTEX
  5
44B
  8
0
 10
35.51901598987214
 20
99.11715057291431
 30
0.0
  0
VERTEX
  5
44C
  8
0
 10
35.38221687576698
 20
99.05554545264695
 30
0.0
  0
VERTEX
  5
44D
  8
0
 10
35.28056596371816
 20
98.98526067796428
 30
0.0
  0
VERTEX
  5
44E
  8
0
 10
35.21796964127273
 20
98.9089972533436
 30
0.0
  0
VERTEX
  5
44F
  8
0
 10
35.19683345
 20
98.82968593942671
 30
0.0
  0
VERTEX
  5
450
  8
0
 10
35.21796964187799
 20
98.75037462553183
 30
0.0
  0
VERTEX
  5
451
  8
0
 10
35.28056596490542
 20
98.67411120097641
 30
0.0
  0
VERTEX
  5
452
  8
0
 10
35.38221687749061
 20
98.60382642639969
 30
0.0
  0
VERTEX
  5
453
  8
0
 10
35.5190159920659
 20
98.54222130627493
 30
0.0
  0
VERTEX
  5
454
  8
0
 10
35.6857061953713
 20
98.49166329082207
 30
0.0
  0
VERTEX
  5
455
  8
0
 10
35.87588167636898
 20
98.45409529622347
 30
0.0
  0
VERTEX
  5
456
  8
0
 10
36.0822340979693
 20
98.43096103944445
 30
0.0
  0
VERTEX
  5
457
  8
0
 10
36.29683345232684
 20
98.423149557
 30
0.0
  0
VERTEX
  5
458
  8
0
 10
36.51143280659496
 20
98.43096103977999
 30
0.0
  0
VERTEX
  5
459
  8
0
 10
36.71778522793046
 20
98.45409529688165
 30
0.0
  0
VERTEX
  5
45A
  8
0
 10
36.90796070849809
 20
98.4916632917776
 30
0.0
  0
VERTEX
  5
45B
  8
0
 10
37.07465091122474
 20
98.54222130749108
 30
0.0
  0
VERTEX
  5
45C
  8
0
 10
37.21145002509484
 20
98.60382642782973
 30
0.0
  0
VERTEX
  5
45D
  8
0
 10
37.31310093687547
 20
98.67411120256538
 30
0.0
  0
VERTEX
  5
45E
  8
0
 10
37.3756972590299
 20
98.75037462721869
 30
0.0
  0
VERTEX
  5
45F
  8
0
 10
37.39683345
 20
98.82968594114661
 30
0.0
  0
SEQEND
  5
75B
  8
0
  0
POLYLINE
  5
260
  8
0
 66
     1
 10
0.0
 20
0.0
 30
0.0
  0
VERTEX
  5
460
  8
0
 10
31.19683345
 20
94.55536824676624
 30
0.0
  0
VERTEX
  5
461
  8
0
 10
31.29482851659505
 20
94.18765215463893
 30
0.0
  0
VERTEX
  5
462
  8
0
 10
31.58504782806206
 20
93.83406718548667
 30
0.0
  0
VERTEX
  5
463
  8
0
 10
32.0563384189928
 20
93.50820141141223
 30
0.0
  0
VERTEX
  5
464
  8
0
 10
32.69058885623936
 20
93.22257767139416
 30
0.0
  0
VERTEX
  5
465
  8
0
 10
33.46342525113456
 20
92.98817232560673
 30
0.0
  0
VERTEX
  5
466
  8
0
 10
34.34514793436658
 20
92.81399344005303
 30
0.0
  0
VERTEX
  5
467
  8
0
 10
35.30187279761741
 20
92.70673461163949
 30
0.0
  0
VERTEX
  5
468
  8
0
 10
36.29683344084603
 20
92.67051773700001
 30
0.0
  0
VERTEX
  5
469
  8
0
 10
37.29179408442644
 20
92.70673461031947
 30
0.0
  0
VERTEX
  5
46A
  8
0
 10
38.24851894871908
 20
92.81399343746371
 30
0.0
  0
VERTEX
  5
46B
  8
0
 10
39.13024163364294
 20
92.98817232184761
 30
0.0
  0
VERTEX
  5
46C
  8
0
 10
39.90307803081497
 20
93.22257766660972
 30
0.0
  0
VERTEX
  5
46D
  8
0
 10
40.53732847083585
 20
93.50820140578632
 30
0.0
  0
VERTEX
  5
46E
  8
0
 10
41.00861906493179
 20
93.8340671792355
 30
0.0
  0
VERTEX
  5
46F
  8
0
 10
41.29883837983324
 20
94.18765214800271
 30
0.0
  0
VERTEX
  5
470
  8
0
 10
41.39683345
 20
94.55536824
 30
0.0
  0
SEQEND
  5
75C
  8
0
  0
LINE
  5
261
  8
0
 10
31.19683345
 20
95.11288794
 30
0.0
 11
31.19683345
 21
94.55536824
 31
0.0
  0
POLYLINE
  5
262
  8
0
 66
     1
 10
0.0
 20
0.0
 30
0.0
  0
VERTEX
  5
471
  8
0
 10
31.19683345
 20
95.11288794676622
 30
0.0
  0
VERTEX
  5
472
  8
0
 10
31.29482851659505
 20
94.74517185463891
 30
0.0
  0
VERTEX
  5
473
  8
0
 10
31.58504782806206
 20
94.39158688548666
 30
0.0
  0
VERTEX
  5
474
  8
0
 10
32.0563384189928
 20
94.06572111141222
 30
0.0
  0
VERTEX
  5
475
  8
0
 10
32.69058885623936
 20
93.78009737139415
 30
0.0
  0
VERTEX
  5
476
  8
0
 10
33.46342525113456
 20
93.54569202560671
 30
0.0
  0
VERTEX
  5
477
  8
0
 10
34.34514793436658
 20
93.37151314005301
 30
0.0
  0
VERTEX
  5
478
  8
0
 10
35.30187279761741
 20
93.26425431163948
 30
0.0
  0
VERTEX
  5
479
  8
0
 10
36.29683344084603
 20
93.228037437
 30
0.0
  0
VERTEX
  5
47A
  8
0
 10
37.29179408442644
 20
93.26425431031946
 30
0.0
  0
VERTEX
  5
47B
  8
0
 10
38.24851894871908
 20
93.3715131374637
 30
0.0
  0
VERTEX
  5
47C
  8
0
 10
39.13024163364294
 20
93.5456920218476
 30
0.0
  0
VERTEX
  5
47D
  8
0
 10
39.90307803081497
 20
93.78009736660971
 30
0.0
  0
VERTEX
  5
47E
  8
0
 10
40.53732847083585
 20
94.06572110578631
 30
0.0
  0
VERTEX
  5
47F
  8
0
 10
41.00861906493179
 20
94.39158687923549
 30
0.0
  0
VERTEX
  5
480
  8
0
 10
41.29883837983324
 20
94.7451718480027
 30
0.0
  0
VERTEX
  5
481
  8
0
 10
41.39683345
 20
95.11288794
 30
0.0
  0
SEQEND
  5
75D
  8
0
  0
LINE
  5
263
  8
0
 10
41.39683345
 20
95.11288794
 30
0.0
 11
41.39683345
 21
94.55536824
 31
0.0
  0
POLYLINE
  5
264
  8
0
 66
     1
 10
0.0
 20
0.0
 30
0.0
  0
VERTEX
  5
265
  8
0
 10
31.19683345
 20
95.11288794
 30
0.0
  0
VERTEX
  5
266
  8
0
 10
31.20032974
 20
95.28318923
 30
0.0
  0
VERTEX
  5
267
  8
0
 10
31.21081674
 20
95.45327907
 30
0.0
  0
VERTEX
  5
268
  8
0
 10
31.22828233
 20
95.62286309
 30
0.0
  0
VERTEX
  5
269
  8
0
 10
31.25270192
 20
95.79164619
 30
0.0
  0
VERTEX
  5
26A
  8
0
 10
31.25911194
 20
95.8292582
 30
0.0
  0
VERTEX
  5
26B
  8
0
 10
31.29195498
 20
95.99651001
 30
0.0
  0
VERTEX
  5
26C
  8
0
 10
31.33165837
 20
96.16241362
 30
0.0
  0
VERTEX
  5
26D
  8
0
 10
31.37816214
 20
96.32668087
 30
0.0
  0
VERTEX
  5
26E
  8
0
 10
31.43139345
 20
96.48902351
 30
0.0
  0
VERTEX
  5
26F
  8
0
 10
31.44334952
 20
96.52265134
 30
0.0
  0
VERTEX
  5
270
  8
0
 10
31.50453557
 20
96.68213633
 30
0.0
  0
VERTEX
  5
271
  8
0
 10
31.57228073
 20
96.83920679
 30
0.0
  0
VERTEX
  5
272
  8
0
 10
31.64647987
 20
96.99358725
 30
0.0
  0
VERTEX
  5
273
  8
0
 10
31.72701418
 20
97.14500227
 30
0.0
  0
VERTEX
  5
274
  8
0
 10
31.74360264
 20
97.17443569
 30
0.0
  0
VERTEX
  5
275
  8
0
 10
31.83145231
 20
97.321799
 30
0.0
  0
VERTEX
  5
276
  8
0
 10
31.92542992
 20
97.46580196
 30
0.0
  0
VERTEX
  5
277
  8
0
 10
32.02539029
 20
97.60618785
 30
0.0
  0
VERTEX
  5
278
  8
0
 10
32.13117261
 20
97.74269929
 30
0.0
  0
VERTEX
  5
279
  8
0
 10
32.15015642
 20
97.76603251
 30
0.0
  0
VERTEX
  5
27A
  8
0
 10
32.26242755
 20
97.89753952
 30
0.0
  0
VERTEX
  5
27B
  8
0
 10
32.38034194
 20
98.02491123
 30
0.0
  0
VERTEX
  5
27C
  8
0
 10
32.50372649
 20
98.14791797
 30
0.0
  0
VERTEX
  5
27D
  8
0
 10
32.63238882
 20
98.26632743
 30
0.0
  0
VERTEX
  5
27E
  8
0
 10
32.64953578
 20
98.28140938
 30
0.0
  0
VERTEX
  5
27F
  8
0
 10
32.78378772
 20
98.39425396
 30
0.0
  0
VERTEX
  5
280
  8
0
 10
32.92325966
 20
98.50238669
 30
0.0
  0
VERTEX
  5
281
  8
0
 10
33.06778926
 20
98.60562422
 30
0.0
  0
VERTEX
  5
282
  8
0
 10
33.22555301
 20
98.70902875
 30
0.0
  0
VERTEX
  5
283
  8
0
 10
33.37985172
 20
98.80161148
 30
0.0
  0
VERTEX
  5
284
  8
0
 10
33.53911935
 20
98.88906735
 30
0.0
  0
VERTEX
  5
285
  8
0
 10
33.70330936
 20
98.97129309
 30
0.0
  0
VERTEX
  5
286
  8
0
 10
33.86459508
 20
99.04480826
 30
0.0
  0
VERTEX
  5
287
  8
0
 10
34.03841423
 20
99.1165669
 30
0.0
  0
VERTEX
  5
288
  8
0
 10
34.21712005
 20
99.18282644
 30
0.0
  0
VERTEX
  5
289
  8
0
 10
34.40089281
 20
99.24355482
 30
0.0
  0
VERTEX
  5
28A
  8
0
 10
34.56606349
 20
99.29213487
 30
0.0
  0
VERTEX
  5
28B
  8
0
 10
34.76006196
 20
99.34239374
 30
0.0
  0
VERTEX
  5
28C
  8
0
 10
34.95866782
 20
99.38665698
 30
0.0
  0
VERTEX
  5
28D
  8
0
 10
35.16203975
 20
99.42485201
 30
0.0
  0
VERTEX
  5
28E
  8
0
 10
35.34577227
 20
99.4534728
 30
0.0
  0
VERTEX
  5
28F
  8
0
 10
35.55790501
 20
99.47988416
 30
0.0
  0
VERTEX
  5
290
  8
0
 10
35.75351549
 20
99.4981486
 30
0.0
  0
VERTEX
  5
291
  8
0
 10
35.97177504
 20
99.51183715
 30
0.0
  0
VERTEX
  5
292
  8
0
 10
36.15574464
 20
99.51799711
 30
0.0
  0
VERTEX
  5
293
  8
0
 10
36.37667813
 20
99.51896819
 30
0.0
  0
VERTEX
  5
294
  8
0
 10
36.54936766
 20
99.5148481
 30
0.0
  0
VERTEX
  5
295
  8
0
 10
36.76981164
 20
99.50333283
 30
0.0
  0
VERTEX
  5
296
  8
0
 10
36.98756909
 20
99.48493239
 30
0.0
  0
VERTEX
  5
297
  8
0
 10
37.20229671
 20
99.45974566
 30
0.0
  0
VERTEX
  5
298
  8
0
 10
37.32549813
 20
99.44204499
 30
0.0
  0
VERTEX
  5
299
  8
0
 10
37.53483392
 20
99.40634206
 30
0.0
  0
VERTEX
  5
29A
  8
0
 10
37.73878201
 20
99.36441331
 30
0.0
  0
VERTEX
  5
29B
  8
0
 10
37.93756165
 20
99.31635693
 30
0.0
  0
VERTEX
  5
29C
  8
0
 10
38.11913452
 20
99.26589234
 30
0.0
  0
VERTEX
  5
29D
  8
0
 10
38.30799852
 20
99.20632434
 30
0.0
  0
VERTEX
  5
29E
  8
0
 10
38.49140953
 20
99.1410803
 30
0.0
  0
VERTEX
  5
29F
  8
0
 10
38.52283185
 20
99.1291333
 30
0.0
  0
VERTEX
  5
2A0
  8
0
 10
38.69999158
 20
99.05733787
 30
0.0
  0
VERTEX
  5
2A1
  8
0
 10
38.87190978
 20
98.98005847
 30
0.0
  0
VERTEX
  5
2A2
  8
0
 10
38.91085258
 20
98.96145137
 30
0.0
  0
VERTEX
  5
2A3
  8
0
 10
39.07630091
 20
98.87758794
 30
0.0
  0
VERTEX
  5
2A4
  8
0
 10
39.23669792
 20
98.78838816
 30
0.0
  0
VERTEX
  5
2A5
  8
0
 10
39.26941325
 20
98.76917926
 30
0.0
  0
VERTEX
  5
2A6
  8
0
 10
39.42352738
 20
98.67375794
 30
0.0
  0
VERTEX
  5
2A7
  8
0
 10
39.57263451
 20
98.57316303
 30
0.0
  0
VERTEX
  5
2A8
  8
0
 10
39.5991068
 20
98.55439311
 30
0.0
  0
VERTEX
  5
2A9
  8
0
 10
39.74203478
 20
98.44795991
 30
0.0
  0
VERTEX
  5
2AA
  8
0
 10
39.87986161
 20
98.33656517
 30
0.0
  0
VERTEX
  5
2AB
  8
0
 10
39.90123449
 20
98.31845964
 30
0.0
  0
VERTEX
  5
2AC
  8
0
 10
40.03286111
 20
98.20162289
 30
0.0
  0
VERTEX
  5
2AD
  8
0
 10
40.15919773
 20
98.08009621
 30
0.0
  0
VERTEX
  5
2AE
  8
0
 10
40.17671427
 20
98.06245466
 30
0.0
  0
VERTEX
  5
2AF
  8
0
 10
40.29672407
 20
97.93590107
 30
0.0
  0
VERTEX
  5
2B0
  8
0
 10
40.41120222
 20
97.80498769
 30
0.0
  0
VERTEX
  5
2B1
  8
0
 10
40.42577981
 20
97.78752678
 30
0.0
  0
VERTEX
  5
2B2
  8
0
 10
40.53366276
 20
97.65212271
 30
0.0
  0
VERTEX
  5
2B3
  8
0
 10
40.63580389
 20
97.51268351
 30
0.0
  0
VERTEX
  5
2B4
  8
0
 10
40.73202602
 20
97.36946544
 30
0.0
  0
VERTEX
  5
2B5
  8
0
 10
40.8221675
 20
97.22272636
 30
0.0
  0
VERTEX
  5
2B6
  8
0
 10
40.84310937
 20
97.18661384
 30
0.0
  0
VERTEX
  5
2B7
  8
0
 10
40.92543715
 20
97.0359736
 30
0.0
  0
VERTEX
  5
2B8
  8
0
 10
41.00149022
 20
96.88221745
 30
0.0
  0
VERTEX
  5
2B9
  8
0
 10
41.07113598
 20
96.725619
 30
0.0
  0
VERTEX
  5
2BA
  8
0
 10
41.13425529
 20
96.56645408
 30
0.0
  0
VERTEX
  5
2BB
  8
0
 10
41.14781743
 20
96.5295695
 30
0.0
  0
VERTEX
  5
2BC
  8
0
 10
41.20272868
 20
96.36776067
 30
0.0
  0
VERTEX
  5
2BD
  8
0
 10
41.2509533
 20
96.2038809
 30
0.0
  0
VERTEX
  5
2BE
  8
0
 10
41.29240585
 20
96.03821668
 30
0.0
  0
VERTEX
  5
2BF
  8
0
 10
41.32701346
 20
95.8710565
 30
0.0
  0
VERTEX
  5
2C0
  8
0
 10
41.33380778
 20
95.83351114
 30
0.0
  0
VERTEX
  5
2C1
  8
0
 10
41.35994205
 20
95.66505824
 30
0.0
  0
VERTEX
  5
2C2
  8
0
 10
41.37914443
 20
95.49565666
 30
0.0
  0
VERTEX
  5
2C3
  8
0
 10
41.3913779
 20
95.32560015
 30
0.0
  0
VERTEX
  5
2C4
  8
0
 10
41.39661787
 20
95.15518385
 30
0.0
  0
VERTEX
  5
2C5
  8
0
 10
41.39683062
 20
95.11773415
 30
0.0
  0
VERTEX
  5
2C6
  8
0
 10
41.39683345
 20
95.11288794
 30
0.0
  0
SEQEND
  5
2C7
  8
0
  0
POLYLINE
  5
2C8
  8
0
 66
     1
 10
0.0
 20
0.0
 30
0.0
  0
VERTEX
  5
482
  8
0
 10
12.20003326
 20
82.26709191
 30
0.0
  0
VERTEX
  5
483
  8
0
 10
12.6110646178333
 20
81.96947467742476
 30
0.0
  0
VERTEX
  5
484
  8
0
 10
13.08408364866442
 20
81.76838961006581
 30
0.0
  0
VERTEX
  5
485
  8
0
 10
13.60091249645207
 20
81.67156429427432
 30
0.0
  0
VERTEX
  5
486
  8
0
 10
14.14168971846195
 20
81.68271967262741
 30
0.0
  0
VERTEX
  5
487
  8
0
 10
14.68563354937095
 20
81.80142705019199
 30
0.0
  0
VERTEX
  5
488
  8
0
 10
15.21184053285204
 20
82.02312456903049
 30
0.0
  0
VERTEX
  5
489
  8
0
 10
15.7000888296764
 20
82.33929251784275
 30
0.0
  0
VERTEX
  5
48A
  8
0
 10
16.13161533165261
 20
82.73778073969265
 30
0.0
  0
VERTEX
  5
48B
  8
0
 10
16.48983671735035
 20
83.2032755557241
 30
0.0
  0
VERTEX
  5
48C
  8
0
 10
16.76098673984148
 20
83.71788826125032
 30
0.0
  0
VERTEX
  5
48D
  8
0
 10
16.93464525584809
 20
84.26184257864108
 30
0.0
  0
VERTEX
  5
48E
  8
0
 10
17.00413866600407
 20
84.81423464857977
 30
0.0
  0
VERTEX
  5
48F
  8
0
 10
16.96679637753555
 20
85.35383635365206
 30
0.0
  0
VERTEX
  5
490
  8
0
 10
16.82405343364332
 20
85.85991110299136
 30
0.0
  0
VERTEX
  5
491
  8
0
 10
16.58139536559749
 20
86.31301072783488
 30
0.0
  0
VERTEX
  5
492
  8
0
 10
16.24814738684762
 20
86.69572286374074
 30
0.0
  0
SEQEND
  5
75E
  8
0
  0
POLYLINE
  5
2C9
  8
0
 66
     1
 10
0.0
 20
0.0
 30
0.0
  0
VERTEX
  5
493
  8
0
 10
16.24814738684762
 20
86.69572286374074
 30
0.0
  0
VERTEX
  5
494
  8
0
 10
15.83711602888417
 20
86.99334009878584
 30
0.0
  0
VERTEX
  5
495
  8
0
 10
15.36409699727139
 20
87.19442516814772
 30
0.0
  0
VERTEX
  5
496
  8
0
 10
14.84726814819597
 20
87.29125048534918
 30
0.0
  0
VERTEX
  5
497
  8
0
 10
14.30649092456772
 20
87.28009510773529
 30
0.0
  0
VERTEX
  5
498
  8
0
 10
13.76254709190384
 20
87.1613877302135
 30
0.0
  0
VERTEX
  5
499
  8
0
 10
13.23634010673143
 20
86.93969021074867
 30
0.0
  0
VERTEX
  5
49A
  8
0
 10
12.74809180847262
 20
86.62352226071906
 30
0.0
  0
VERTEX
  5
49B
  8
0
 10
12.31656530549305
 20
86.22503403718471
 30
0.0
  0
VERTEX
  5
49C
  8
0
 10
11.95834391936681
 20
85.75953921916359
 30
0.0
  0
VERTEX
  5
49D
  8
0
 10
11.68719389712586
 20
85.2449265115325
 30
0.0
  0
VERTEX
  5
49E
  8
0
 10
11.51353538210464
 20
84.70097219212802
 30
0.0
  0
VERTEX
  5
49F
  8
0
 10
11.44404197367373
 20
84.14858012047678
 30
0.0
  0
VERTEX
  5
4A0
  8
0
 10
11.48138426455764
 20
83.60897841419367
 30
0.0
  0
VERTEX
  5
4A1
  8
0
 10
11.62412721145368
 20
83.10290366432339
 30
0.0
  0
VERTEX
  5
4A2
  8
0
 10
11.86678528294146
 20
82.64980403977253
 30
0.0
  0
VERTEX
  5
4A3
  8
0
 10
12.20003326538001
 20
82.26709190508225
 30
0.0
  0
SEQEND
  5
75F
  8
0
  0
POLYLINE
  5
2CA
  8
0
 66
     1
 10
0.0
 20
0.0
 30
0.0
  0
VERTEX
  5
4A4
  8
0
 10
12.02240697351021
 20
82.44912214613575
 30
0.0
  0
VERTEX
  5
4A5
  8
0
 10
12.46656961007859
 20
82.1987134867111
 30
0.0
  0
VERTEX
  5
4A6
  8
0
 10
12.96385087934645
 20
82.04916230496804
 30
0.0
  0
VERTEX
  5
4A7
  8
0
 10
13.49514666723985
 20
82.00621392656525
 30
0.0
  0
VERTEX
  5
4A8
  8
0
 10
14.04004611984935
 20
82.0715183044992
 30
0.0
  0
VERTEX
  5
4A9
  8
0
 10
14.577615769649
 20
82.24256663266216
 30
0.0
  0
VERTEX
  5
4AA
  8
0
 10
15.08720373902517
 20
82.51278772694702
 30
0.0
  0
VERTEX
  5
4AB
  8
0
 10
15.54923312593207
 20
82.871800471214
 30
0.0
  0
VERTEX
  5
4AC
  8
0
 10
15.94595409208203
 20
83.30581262987263
 30
0.0
  0
VERTEX
  5
4AD
  8
0
 10
16.26212576060869
 20
83.7981507058481
 30
0.0
  0
VERTEX
  5
4AE
  8
0
 10
16.48560172665878
 20
84.32990048831515
 30
0.0
  0
VERTEX
  5
4AF
  8
0
 10
16.60779668728192
 20
84.88063368220041
 30
0.0
  0
VERTEX
  5
4B0
  8
0
 10
16.62401626404226
 20
85.42919270444078
 30
0.0
  0
VERTEX
  5
4B1
  8
0
 10
16.53363734751701
 20
85.95450349738546
 30
0.0
  0
VERTEX
  5
4B2
  8
0
 10
16.34013203536574
 20
86.43638513339278
 30
0.0
  0
VERTEX
  5
4B3
  8
0
 10
16.05093424433882
 20
86.8563251079439
 30
0.0
  0
SEQEND
  5
760
  8
0
  0
POLYLINE
  5
2CB
  8
0
 66
     1
 10
0.0
 20
0.0
 30
0.0
  0
VERTEX
  5
4B4
  8
0
 10
5.71040500538001
 20
53.42137870508225
 30
0.0
  0
VERTEX
  5
4B5
  8
0
 10
6.121436363824245
 20
53.12376147404522
 30
0.0
  0
VERTEX
  5
4B6
  8
0
 10
6.594455394925132
 20
52.92267640818154
 30
0.0
  0
VERTEX
  5
4B7
  8
0
 10
7.111284242663534
 20
52.82585109377116
 30
0.0
  0
VERTEX
  5
4B8
  8
0
 10
7.652061464342616
 20
52.83700647333145
 30
0.0
  0
VERTEX
  5
4B9
  8
0
 10
8.196005294689142
 20
52.95571385188366
 30
0.0
  0
VERTEX
  5
4BA
  8
0
 10
8.722212277435144
 20
53.17741137146046
 30
0.0
  0
VERTEX
  5
4BB
  8
0
 10
9.210460573416222
 20
53.49357932074856
 30
0.0
  0
VERTEX
  5
4BC
  8
0
 10
9.641987074506947
 20
53.89206754281528
 30
0.0
  0
VERTEX
  5
4BD
  8
0
 10
10.00020845934071
 20
54.35756235882365
 30
0.0
  0
VERTEX
  5
4BE
  8
0
 10
10.27135848104721
 20
54.87217506411974
 30
0.0
  0
VERTEX
  5
4BF
  8
0
 10
10.44501699639735
 20
55.4161293811176
 30
0.0
  0
VERTEX
  5
4C0
  8
0
 10
10.51451040606217
 20
55.96852145055312
 30
0.0
  0
VERTEX
  5
4C1
  8
0
 10
10.47716811729148
 20
56.50812315506929
 30
0.0
  0
VERTEX
  5
4C2
  8
0
 10
10.33442517329509
 20
57.01419790385803
 30
0.0
  0
VERTEX
  5
4C3
  8
0
 10
10.09176710533732
 20
57.46729752821248
 30
0.0
  0
VERTEX
  5
4C4
  8
0
 10
9.758519126847622
 20
57.85000966374074
 30
0.0
  0
SEQEND
  5
761
  8
0
  0
POLYLINE
  5
2CC
  8
0
 66
     1
 10
0.0
 20
0.0
 30
0.0
  0
VERTEX
  5
4C5
  8
0
 10
9.75851912684762
 20
57.85000966374075
 30
0.0
  0
VERTEX
  5
4C6
  8
0
 10
9.347487769283568
 20
58.14762689856054
 30
0.0
  0
VERTEX
  5
4C7
  8
0
 10
8.874468738165778
 20
58.34871196787854
 30
0.0
  0
VERTEX
  5
4C8
  8
0
 10
8.35763988962939
 20
58.44553728523307
 30
0.0
  0
VERTEX
  5
4C9
  8
0
 10
7.816862666527943
 20
58.43438190796998
 30
0.0
  0
VERTEX
  5
4CA
  8
0
 10
7.272918834321207
 20
58.31567453098245
 30
0.0
  0
VERTEX
  5
4CB
  8
0
 10
6.74671184948129
 20
58.09397701220665
 30
0.0
  0
VERTEX
  5
4CC
  8
0
 10
6.258463551381376
 20
57.77780906297912
 30
0.0
  0
VERTEX
  5
4CD
  8
0
 10
5.826937048347386
 20
57.37932084030736
 30
0.0
  0
VERTEX
  5
4CE
  8
0
 10
5.468715661925843
 20
56.91382602314873
 30
0.0
  0
VERTEX
  5
4CF
  8
0
 10
5.197565639135419
 20
56.3992133163149
 30
0.0
  0
VERTEX
  5
4D0
  8
0
 10
5.023907123313002
 20
55.85525899757639
 30
0.0
  0
VERTEX
  5
4D1
  8
0
 10
4.954413713848032
 20
55.30286692639688
 30
0.0
  0
VERTEX
  5
4D2
  8
0
 10
4.991756003499978
 20
54.76326522033509
 30
0.0
  0
VERTEX
  5
4D3
  8
0
 10
5.134498949016044
 20
54.25719047039009
 30
0.0
  0
VERTEX
  5
4D4
  8
0
 10
5.377157019038719
 20
53.80409084543658
 30
0.0
  0
VERTEX
  5
4D5
  8
0
 10
5.710404999999999
 20
53.42137871
 30
0.0
  0
SEQEND
  5
762
  8
0
  0
POLYLINE
  5
2CD
  8
0
 66
     1
 10
0.0
 20
0.0
 30
0.0
  0
VERTEX
  5
4D6
  8
0
 10
5.532778713510214
 20
53.60340894613575
 30
0.0
  0
VERTEX
  5
4D7
  8
0
 10
5.976941350078593
 20
53.35300028671109
 30
0.0
  0
VERTEX
  5
4D8
  8
0
 10
6.474222619346454
 20
53.20344910496804
 30
0.0
  0
VERTEX
  5
4D9
  8
0
 10
7.005518407239851
 20
53.16050072656526
 30
0.0
  0
VERTEX
  5
4DA
  8
0
 10
7.550417859849349
 20
53.22580510449919
 30
0.0
  0
VERTEX
  5
4DB
  8
0
 10
8.087987509648997
 20
53.39685343266216
 30
0.0
  0
VERTEX
  5
4DC
  8
0
 10
8.597575479025174
 20
53.66707452694702
 30
0.0
  0
VERTEX
  5
4DD
  8
0
 10
9.05960486593207
 20
54.02608727121401
 30
0.0
  0
VERTEX
  5
4DE
  8
0
 10
9.456325832082028
 20
54.46009942987263
 30
0.0
  0
VERTEX
  5
4DF
  8
0
 10
9.772497500608694
 20
54.9524375058481
 30
0.0
  0
VERTEX
  5
4E0
  8
0
 10
9.995973466658779
 20
55.48418728831514
 30
0.0
  0
VERTEX
  5
4E1
  8
0
 10
10.11816842728192
 20
56.03492048220042
 30
0.0
  0
VERTEX
  5
4E2
  8
0
 10
10.13438800404226
 20
56.58347950444077
 30
0.0
  0
VERTEX
  5
4E3
  8
0
 10
10.04400908751701
 20
57.10879029738548
 30
0.0
  0
VERTEX
  5
4E4
  8
0
 10
9.85050377536574
 20
57.59067193339278
 30
0.0
  0
VERTEX
  5
4E5
  8
0
 10
9.561305984338821
 20
58.0106119079439
 30
0.0
  0
SEQEND
  5
763
  8
0
  0
POLYLINE
  5
2CE
  8
0
 66
     1
 10
0.0
 20
0.0
 30
0.0
  0
VERTEX
  5
4E6
  8
0
 10
12.20003326
 20
26.51512196
 30
0.0
  0
VERTEX
  5
4E7
  8
0
 10
12.6110646178333
 20
26.21750472742477
 30
0.0
  0
VERTEX
  5
4E8
  8
0
 10
13.08408364866442
 20
26.0164196600658
 30
0.0
  0
VERTEX
  5
4E9
  8
0
 10
13.60091249645207
 20
25.91959434427431
 30
0.0
  0
VERTEX
  5
4EA
  8
0
 10
14.14168971846195
 20
25.93074972262742
 30
0.0
  0
VERTEX
  5
4EB
  8
0
 10
14.68563354937095
 20
26.04945710019199
 30
0.0
  0
VERTEX
  5
4EC
  8
0
 10
15.21184053285204
 20
26.27115461903049
 30
0.0
  0
VERTEX
  5
4ED
  8
0
 10
15.7000888296764
 20
26.58732256784276
 30
0.0
  0
VERTEX
  5
4EE
  8
0
 10
16.13161533165261
 20
26.98581078969265
 30
0.0
  0
VERTEX
  5
4EF
  8
0
 10
16.48983671735035
 20
27.45130560572411
 30
0.0
  0
VERTEX
  5
4F0
  8
0
 10
16.76098673984148
 20
27.96591831125032
 30
0.0
  0
VERTEX
  5
4F1
  8
0
 10
16.93464525584809
 20
28.50987262864107
 30
0.0
  0
VERTEX
  5
4F2
  8
0
 10
17.00413866600407
 20
29.06226469857977
 30
0.0
  0
VERTEX
  5
4F3
  8
0
 10
16.96679637753555
 20
29.60186640365206
 30
0.0
  0
VERTEX
  5
4F4
  8
0
 10
16.82405343364332
 20
30.10794115299137
 30
0.0
  0
VERTEX
  5
4F5
  8
0
 10
16.58139536559749
 20
30.56104077783489
 30
0.0
  0
VERTEX
  5
4F6
  8
0
 10
16.24814738684762
 20
30.94375291374074
 30
0.0
  0
SEQEND
  5
764
  8
0
  0
POLYLINE
  5
2CF
  8
0
 66
     1
 10
0.0
 20
0.0
 30
0.0
  0
VERTEX
  5
4F7
  8
0
 10
16.24814738684762
 20
30.94375291374074
 30
0.0
  0
VERTEX
  5
4F8
  8
0
 10
15.83711602928357
 20
31.24137014856054
 30
0.0
  0
VERTEX
  5
4F9
  8
0
 10
15.36409699816578
 20
31.44245521787854
 30
0.0
  0
VERTEX
  5
4FA
  8
0
 10
14.84726814962939
 20
31.53928053523307
 30
0.0
  0
VERTEX
  5
4FB
  8
0
 10
14.30649092652794
 20
31.52812515796998
 30
0.0
  0
VERTEX
  5
4FC
  8
0
 10
13.76254709432121
 20
31.40941778098245
 30
0.0
  0
VERTEX
  5
4FD
  8
0
 10
13.23634010948129
 20
31.18772026220665
 30
0.0
  0
VERTEX
  5
4FE
  8
0
 10
12.74809181138138
 20
30.87155231297913
 30
0.0
  0
VERTEX
  5
4FF
  8
0
 10
12.31656530834739
 20
30.47306409030736
 30
0.0
  0
VERTEX
  5
500
  8
0
 10
11.95834392192584
 20
30.00756927314873
 30
0.0
  0
VERTEX
  5
501
  8
0
 10
11.68719389913542
 20
29.49295656631489
 30
0.0
  0
VERTEX
  5
502
  8
0
 10
11.513535383313
 20
28.9490022475764
 30
0.0
  0
VERTEX
  5
503
  8
0
 10
11.44404197384803
 20
28.39661017639688
 30
0.0
  0
VERTEX
  5
504
  8
0
 10
11.48138426349998
 20
27.85700847033509
 30
0.0
  0
VERTEX
  5
505
  8
0
 10
11.62412720901605
 20
27.35093372039009
 30
0.0
  0
VERTEX
  5
506
  8
0
 10
11.86678527903872
 20
26.89783409543659
 30
0.0
  0
VERTEX
  5
507
  8
0
 10
12.20003326
 20
26.51512196
 30
0.0
  0
SEQEND
  5
765
  8
0
  0
POLYLINE
  5
2D0
  8
0
 66
     1
 10
0.0
 20
0.0
 30
0.0
  0
VERTEX
  5
508
  8
0
 10
12.02240697351021
 20
26.69715218613575
 30
0.0
  0
VERTEX
  5
509
  8
0
 10
12.46656961007859
 20
26.4467435267111
 30
0.0
  0
VERTEX
  5
50A
  8
0
 10
12.96385087934645
 20
26.29719234496804
 30
0.0
  0
VERTEX
  5
50B
  8
0
 10
13.49514666723985
 20
26.25424396656526
 30
0.0
  0
VERTEX
  5
50C
  8
0
 10
14.04004611984935
 20
26.31954834449919
 30
0.0
  0
VERTEX
  5
50D
  8
0
 10
14.577615769649
 20
26.49059667266215
 30
0.0
  0
VERTEX
  5
50E
  8
0
 10
15.08720373902517
 20
26.76081776694701
 30
0.0
  0
VERTEX
  5
50F
  8
0
 10
15.54923312593207
 20
27.119830511214
 30
0.0
  0
VERTEX
  5
510
  8
0
 10
15.94595409208203
 20
27.55384266987264
 30
0.0
  0
VERTEX
  5
511
  8
0
 10
16.26212576060869
 20
28.0461807458481
 30
0.0
  0
VERTEX
  5
512
  8
0
 10
16.48560172665878
 20
28.57793052831514
 30
0.0
  0
VERTEX
  5
513
  8
0
 10
16.60779668728192
 20
29.12866372220042
 30
0.0
  0
VERTEX
  5
514
  8
0
 10
16.62401626404226
 20
29.67722274444077
 30
0.0
  0
VERTEX
  5
515
  8
0
 10
16.53363734751701
 20
30.20253353738547
 30
0.0
  0
VERTEX
  5
516
  8
0
 10
16.34013203536574
 20
30.68441517339278
 30
0.0
  0
VERTEX
  5
517
  8
0
 10
16.05093424433882
 20
31.10435514794391
 30
0.0
  0
SEQEND
  5
766
  8
0
  0
POLYLINE
  5
2D1
  8
0
 66
     1
 10
0.0
 20
0.0
 30
0.0
  0
VERTEX
  5
518
  8
0
 10
11.900187
 20
81.18635429
 30
0.0
  0
VERTEX
  5
519
  8
0
 10
12.44822880957975
 20
80.78953131362871
 30
0.0
  0
VERTEX
  5
51A
  8
0
 10
13.07892084986254
 20
80.52141789088802
 30
0.0
  0
VERTEX
  5
51B
  8
0
 10
13.76802597941478
 20
80.3923174702633
 30
0.0
  0
VERTEX
  5
51C
  8
0
 10
14.48906227453869
 20
80.40719130852325
 30
0.0
  0
VERTEX
  5
51D
  8
0
 10
15.21432071474966
 20
80.56546781240439
 30
0.0
  0
VERTEX
  5
51E
  8
0
 10
15.91593002489508
 20
80.8610645046196
 30
0.0
  0
VERTEX
  5
51F
  8
0
 10
16.56692775262896
 20
81.28262177004942
 30
0.0
  0
VERTEX
  5
520
  8
0
 10
17.14229642033583
 20
81.81393939938093
 30
0.0
  0
VERTEX
  5
521
  8
0
 10
17.6199249327664
 20
82.43459915406697
 30
0.0
  0
VERTEX
  5
522
  8
0
 10
17.98145829402868
 20
83.12074942778368
 30
0.0
  0
VERTEX
  5
523
  8
0
 10
18.21300297978718
 20
83.84602185028598
 30
0.0
  0
VERTEX
  5
524
  8
0
 10
18.305660857612
 20
84.58254460908967
 30
0.0
  0
VERTEX
  5
525
  8
0
 10
18.25587113721828
 20
85.30201354759525
 30
0.0
  0
VERTEX
  5
526
  8
0
 10
18.06554720964006
 20
85.9767798779541
 30
0.0
  0
VERTEX
  5
527
  8
0
 10
17.74200311668583
 20
86.58091270848062
 30
0.0
  0
VERTEX
  5
528
  8
0
 10
17.29767247641333
 20
87.09119555327851
 30
0.0
  0
VERTEX
  5
529
  8
0
 10
16.74963066616002
 20
87.48801852877452
 30
0.0
  0
VERTEX
  5
52A
  8
0
 10
16.1189386253674
 20
87.75613195054761
 30
0.0
  0
VERTEX
  5
52B
  8
0
 10
15.42983349548864
 20
87.88523237014955
 30
0.0
  0
VERTEX
  5
52C
  8
0
 10
14.70879720023406
 20
87.87035853085095
 30
0.0
  0
VERTEX
  5
52D
  8
0
 10
13.9835387600933
 20
87.71208202595521
 30
0.0
  0
VERTEX
  5
52E
  8
0
 10
13.28192945021628
 20
87.41648533278844
 30
0.0
  0
VERTEX
  5
52F
  8
0
 10
12.63093172293866
 20
86.99492806650667
 30
0.0
  0
VERTEX
  5
530
  8
0
 10
12.05556305585839
 20
86.46361043645558
 30
0.0
  0
VERTEX
  5
531
  8
0
 10
11.57793454420068
 20
85.84295068120991
 30
0.0
  0
VERTEX
  5
532
  8
0
 10
11.2164011838278
 20
85.15680040711511
 30
0.0
  0
VERTEX
  5
533
  8
0
 10
10.98485649904107
 20
84.43152798443076
 30
0.0
  0
VERTEX
  5
534
  8
0
 10
10.89219862223306
 20
83.69500522564807
 30
0.0
  0
VERTEX
  5
535
  8
0
 10
10.94198834364955
 20
82.97553628736567
 30
0.0
  0
VERTEX
  5
536
  8
0
 10
11.13231227221718
 20
82.30076995742367
 30
0.0
  0
VERTEX
  5
537
  8
0
 10
11.45585636608945
 20
81.69663712749163
 30
0.0
  0
VERTEX
  5
538
  8
0
 10
11.90018700717335
 20
81.186354283443
 30
0.0
  0
SEQEND
  5
767
  8
0
  0
POLYLINE
  5
2D2
  8
0
 66
     1
 10
0.0
 20
0.0
 30
0.0
  0
VERTEX
  5
539
  8
0
 10
5.410558739999999
 20
52.34064109
 30
0.0
  0
VERTEX
  5
53A
  8
0
 10
5.958600549579753
 20
51.94381811362872
 30
0.0
  0
VERTEX
  5
53B
  8
0
 10
6.589292589862543
 20
51.67570469088802
 30
0.0
  0
VERTEX
  5
53C
  8
0
 10
7.27839771941478
 20
51.54660427026329
 30
0.0
  0
VERTEX
  5
53D
  8
0
 10
7.999434014538686
 20
51.56147810852325
 30
0.0
  0
VERTEX
  5
53E
  8
0
 10
8.724692454749663
 20
51.71975461240439
 30
0.0
  0
VERTEX
  5
53F
  8
0
 10
9.426301764895083
 20
52.01535130461959
 30
0.0
  0
VERTEX
  5
540
  8
0
 10
10.07729949262896
 20
52.43690857004941
 30
0.0
  0
VERTEX
  5
541
  8
0
 10
10.65266816033583
 20
52.96822619938091
 30
0.0
  0
VERTEX
  5
542
  8
0
 10
11.1302966727664
 20
53.58888595406698
 30
0.0
  0
VERTEX
  5
543
  8
0
 10
11.49183003402868
 20
54.27503622778367
 30
0.0
  0
VERTEX
  5
544
  8
0
 10
11.72337471978718
 20
55.00030865028598
 30
0.0
  0
VERTEX
  5
545
  8
0
 10
11.816032597612
 20
55.73683140908965
 30
0.0
  0
VERTEX
  5
546
  8
0
 10
11.76624287721828
 20
56.45630034759525
 30
0.0
  0
VERTEX
  5
547
  8
0
 10
11.57591894964006
 20
57.1310666779541
 30
0.0
  0
VERTEX
  5
548
  8
0
 10
11.25237485668583
 20
57.73519950848062
 30
0.0
  0
VERTEX
  5
549
  8
0
 10
10.80804421641333
 20
58.24548235327849
 30
0.0
  0
VERTEX
  5
54A
  8
0
 10
10.26000240616002
 20
58.64230532877452
 30
0.0
  0
VERTEX
  5
54B
  8
0
 10
9.629310365367395
 20
58.9104187505476
 30
0.0
  0
VERTEX
  5
54C
  8
0
 10
8.940205235488632
 20
59.03951917014955
 30
0.0
  0
VERTEX
  5
54D
  8
0
 10
8.219168940234063
 20
59.02464533085094
 30
0.0
  0
VERTEX
  5
54E
  8
0
 10
7.493910500093298
 20
58.86636882595521
 30
0.0
  0
VERTEX
  5
54F
  8
0
 10
6.792301190216275
 20
58.57077213278844
 30
0.0
  0
VERTEX
  5
550
  8
0
 10
6.14130346293866
 20
58.14921486650667
 30
0.0
  0
VERTEX
  5
551
  8
0
 10
5.565934795858389
 20
57.61789723645556
 30
0.0
  0
VERTEX
  5
552
  8
0
 10
5.088306284200677
 20
56.99723748120989
 30
0.0
  0
VERTEX
  5
553
  8
0
 10
4.726772923827798
 20
56.31108720711511
 30
0.0
  0
VERTEX
  5
554
  8
0
 10
4.495228239041072
 20
55.58581478443075
 30
0.0
  0
VERTEX
  5
555
  8
0
 10
4.402570362233062
 20
54.84929202564805
 30
0.0
  0
VERTEX
  5
556
  8
0
 10
4.452360083649548
 20
54.12982308736566
 30
0.0
  0
VERTEX
  5
557
  8
0
 10
4.642684012217181
 20
53.45505675742366
 30
0.0
  0
VERTEX
  5
558
  8
0
 10
4.966228106089448
 20
52.85092392749162
 30
0.0
  0
VERTEX
  5
559
  8
0
 10
5.410558747173345
 20
52.340641083443
 30
0.0
  0
SEQEND
  5
768
  8
0
  0
POLYLINE
  5
2D3
  8
0
 66
     1
 10
0.0
 20
0.0
 30
0.0
  0
VERTEX
  5
55A
  8
0
 10
11.900187
 20
25.43438434
 30
0.0
  0
VERTEX
  5
55B
  8
0
 10
12.44822880957975
 20
25.03756136362872
 30
0.0
  0
VERTEX
  5
55C
  8
0
 10
13.07892084986254
 20
24.76944794088802
 30
0.0
  0
VERTEX
  5
55D
  8
0
 10
13.76802597941478
 20
24.6403475202633
 30
0.0
  0
VERTEX
  5
55E
  8
0
 10
14.48906227453869
 20
24.65522135852325
 30
0.0
  0
VERTEX
  5
55F
  8
0
 10
15.21432071474966
 20
24.81349786240439
 30
0.0
  0
VERTEX
  5
560
  8
0
 10
15.91593002489508
 20
25.1090945546196
 30
0.0
  0
VERTEX
  5
561
  8
0
 10
16.56692775262896
 20
25.53065182004942
 30
0.0
  0
VERTEX
  5
562
  8
0
 10
17.14229642033583
 20
26.06196944938092
 30
0.0
  0
VERTEX
  5
563
  8
0
 10
17.6199249327664
 20
26.68262920406698
 30
0.0
  0
VERTEX
  5
564
  8
0
 10
17.98145829402868
 20
27.36877947778368
 30
0.0
  0
VERTEX
  5
565
  8
0
 10
18.21300297978718
 20
28.09405190028598
 30
0.0
  0
VERTEX
  5
566
  8
0
 10
18.305660857612
 20
28.83057465908965
 30
0.0
  0
VERTEX
  5
567
  8
0
 10
18.25587113721828
 20
29.55004359759525
 30
0.0
  0
VERTEX
  5
568
  8
0
 10
18.06554720964006
 20
30.2248099279541
 30
0.0
  0
VERTEX
  5
569
  8
0
 10
17.74200311668583
 20
30.82894275848062
 30
0.0
  0
VERTEX
  5
56A
  8
0
 10
17.29767247641333
 20
31.3392256032785
 30
0.0
  0
VERTEX
  5
56B
  8
0
 10
16.74963066616002
 20
31.73604857877451
 30
0.0
  0
VERTEX
  5
56C
  8
0
 10
16.1189386253674
 20
32.00416200054761
 30
0.0
  0
VERTEX
  5
56D
  8
0
 10
15.42983349548864
 20
32.13326242014954
 30
0.0
  0
VERTEX
  5
56E
  8
0
 10
14.70879720023406
 20
32.11838858085094
 30
0.0
  0
VERTEX
  5
56F
  8
0
 10
13.9835387600933
 20
31.96011207595521
 30
0.0
  0
VERTEX
  5
570
  8
0
 10
13.28192945021628
 20
31.66451538278844
 30
0.0
  0
VERTEX
  5
571
  8
0
 10
12.63093172293866
 20
31.24295811650667
 30
0.0
  0
VERTEX
  5
572
  8
0
 10
12.05556305585839
 20
30.71164048645556
 30
0.0
  0
VERTEX
  5
573
  8
0
 10
11.57793454420068
 20
30.0909807312099
 30
0.0
  0
VERTEX
  5
574
  8
0
 10
11.2164011838278
 20
29.40483045711511
 30
0.0
  0
VERTEX
  5
575
  8
0
 10
10.98485649904107
 20
28.67955803443076
 30
0.0
  0
VERTEX
  5
576
  8
0
 10
10.89219862223306
 20
27.94303527564806
 30
0.0
  0
VERTEX
  5
577
  8
0
 10
10.94198834364955
 20
27.22356633736566
 30
0.0
  0
VERTEX
  5
578
  8
0
 10
11.13231227221718
 20
26.54880000742366
 30
0.0
  0
VERTEX
  5
579
  8
0
 10
11.45585636608945
 20
25.94466717749162
 30
0.0
  0
VERTEX
  5
57A
  8
0
 10
11.90018700717335
 20
25.434384333443
 30
0.0
  0
SEQEND
  5
769
  8
0
  0
LINE
  5
2D4
  8
0
 10
0.69258347
 20
28.16721492
 30
0.0
 11
0.69258347
 21
80.20238688
 31
0.0
  0
LINE
  5
2D5
  8
0
 10
-0.05709538
 20
80.88765181
 30
0.0
 11
0.69258347
 21
80.20238688
 31
0.0
  0
LINE
  5
2D6
  8
0
 10
-0.05709538
 20
28.85247986
 30
0.0
 11
-0.05709538
 21
80.88765181
 31
0.0
  0
POLYLINE
  5
2D7
  8
0
 66
     1
 10
0.0
 20
0.0
 30
0.0
  0
VERTEX
  5
2D8
  8
0
 10
-0.05709538
 20
28.85247986
 30
0.0
  0
VERTEX
  5
2D9
  8
0
 10
0.69258347
 20
28.16721492
 30
0.0
  0
SEQEND
  5
2DA
  8
0
  0
POLYLINE
  5
2DB
  8
0
 66
     1
 10
0.0
 20
0.0
 30
0.0
  0
VERTEX
  5
57B
  8
0
 10
0.6925834757304274
 20
28.16721494967721
 30
0.0
  0
VERTEX
  5
57C
  8
0
 10
0.8575725112823109
 20
26.44665053006289
 30
0.0
  0
VERTEX
  5
57D
  8
0
 10
1.346667202826458
 20
24.83663374613501
 30
0.0
  0
VERTEX
  5
57E
  8
0
 10
2.142459253717911
 20
23.39446975835131
 30
0.0
  0
VERTEX
  5
57F
  8
0
 10
3.216624119999998
 20
22.17148936
 30
0.0
  0
SEQEND
  5
76A
  8
0
  0
POLYLINE
  5
2DC
  8
0
 66
     1
 10
0.0
 20
0.0
 30
0.0
  0
VERTEX
  5
580
  8
0
 10
3.21662412
 20
22.17148936
 30
0.0
  0
VERTEX
  5
581
  8
0
 10
4.642823182506392
 20
21.14810134985437
 30
0.0
  0
VERTEX
  5
582
  8
0
 10
6.289157143118239
 20
20.47243546833032
 30
0.0
  0
VERTEX
  5
583
  8
0
 10
8.087511198655083
 20
20.17244646193546
 30
0.0
  0
VERTEX
  5
584
  8
0
 10
9.963480923604047
 20
20.26054596319134
 30
0.0
  0
SEQEND
  5
76B
  8
0
  0
LINE
  5
2DD
  8
0
 10
29.59569579
 20
23.1941366
 30
0.0
 11
9.96348098
 21
20.26054596
 31
0.0
  0
LINE
  5
2DE
  8
0
 10
29.59569579
 20
23.1941366
 30
0.0
 11
29.59569579
 21
93.81329854
 31
0.0
  0
LINE
  5
2DF
  8
0
 10
9.96348098
 20
90.8797079
 30
0.0
 11
29.59569579
 21
93.81329854
 31
0.0
  0
POLYLINE
  5
2E0
  8
0
 66
     1
 10
0.0
 20
0.0
 30
0.0
  0
VERTEX
  5
585
  8
0
 10
9.963480976967583
 20
90.87970788792842
 30
0.0
  0
VERTEX
  5
586
  8
0
 10
8.15481860526242
 20
90.43090110480874
 30
0.0
  0
VERTEX
  5
587
  8
0
 10
6.415662113709484
 20
89.64225556161033
 30
0.0
  0
VERTEX
  5
588
  8
0
 10
4.812846310372588
 20
88.54407846401938
 30
0.0
  0
VERTEX
  5
589
  8
0
 10
3.407966507173324
 20
87.1785721416676
 30
0.0
  0
VERTEX
  5
58A
  8
0
 10
2.255011446617393
 20
85.59821223628563
 30
0.0
  0
VERTEX
  5
58B
  8
0
 10
1.398288544715214
 20
83.86373109223756
 30
0.0
  0
VERTEX
  5
58C
  8
0
 10
0.8707211818472276
 20
82.04178384660608
 30
0.0
  0
VERTEX
  5
58D
  8
0
 10
0.6925834757304274
 20
80.2023869096772
 30
0.0
  0
SEQEND
  5
76C
  8
0
  0
LINE
  5
2E1
  8
0
 10
9.21380214
 20
91.56497284
 30
0.0
 11
9.96348098
 21
90.8797079
 31
0.0
  0
LINE
  5
2E2
  8
0
 10
28.82719134
 20
94.49575042
 30
0.0
 11
9.21380214
 21
91.56497284
 31
0.0
  0
LINE
  5
2E3
  8
0
 10
28.82719132976697
 20
94.49575041414175
 30
0.0
 11
29.13505071377735
 21
94.5536441849787
 31
0.0
  0
LINE
  5
2E4
  8
0
 10
29.13505071
 20
94.55364419
 30
0.0
 11
29.88601872
 21
93.86720085
 31
0.0
  0
LINE
  5
2E5
  8
0
 10
29.59569577976697
 20
93.81329854414176
 30
0.0
 11
29.88601871481918
 21
93.86720085770821
 31
0.0
  0
POLYLINE
  5
2E6
  8
0
 66
     1
 10
0.0
 20
0.0
 30
0.0
  0
VERTEX
  5
2E7
  8
0
 10
29.88601872
 20
93.86720085
 30
0.0
  0
VERTEX
  5
2E8
  8
0
 10
29.88601872
 20
82.25220711
 30
0.0
  0
SEQEND
  5
2E9
  8
0
  0
LINE
  5
2EA
  8
0
 10
29.88601871481918
 20
82.25220711770821
 30
0.0
 11
30.14248443034953
 21
82.32074495050989
 31
0.0
  0
LINE
  5
2EB
  8
0
 10
30.14248443
 20
66.38497353
 30
0.0
 11
30.14248443
 21
82.32074494
 31
0.0
  0
LINE
  5
2EC
  8
0
 10
29.88601871481918
 20
66.31643570770821
 30
0.0
 11
30.14248443034953
 21
66.38497354050989
 31
0.0
  0
POLYLINE
  5
2ED
  8
0
 66
     1
 10
0.0
 20
0.0
 30
0.0
  0
VERTEX
  5
2EE
  8
0
 10
29.88601872
 20
66.3164357
 30
0.0
  0
VERTEX
  5
2EF
  8
0
 10
29.88601872
 20
50.79880407
 30
0.0
  0
SEQEND
  5
2F0
  8
0
  0
LINE
  5
2F1
  8
0
 10
29.88601871481918
 20
50.79880406770821
 30
0.0
 11
30.14248443034953
 21
50.86734190050989
 31
0.0
  0
LINE
  5
2F2
  8
0
 10
30.14248443
 20
34.93157048
 30
0.0
 11
30.14248443
 21
50.8673419
 31
0.0
  0
LINE
  5
2F3
  8
0
 10
29.88601871481918
 20
34.86303265770821
 30
0.0
 11
30.14248443034953
 21
34.93157049050989
 31
0.0
  0
POLYLINE
  5
2F4
  8
0
 66
     1
 10
0.0
 20
0.0
 30
0.0
  0
VERTEX
  5
2F5
  8
0
 10
29.88601872
 20
34.86303265
 30
0.0
  0
VERTEX
  5
2F6
  8
0
 10
29.88601872
 20
23.24803891
 30
0.0
  0
SEQEND
  5
2F7
  8
0
  0
LINE
  5
2F8
  8
0
 10
29.59569577976697
 20
23.19413660414176
 30
0.0
 11
29.88601871481918
 21
23.24803891770821
 31
0.0
  0
LINE
  5
2F9
  8
0
 10
31.31354709
 20
35.30002341
 30
0.0
 11
30.14248443
 21
34.93157048
 31
0.0
  0
LINE
  5
2FA
  8
0
 10
30.14248443
 20
50.8673419
 30
0.0
 11
31.37470192
 21
51.25503605
 31
0.0
  0
POLYLINE
  5
2FB
  8
0
 66
     1
 10
0.0
 20
0.0
 30
0.0
  0
VERTEX
  5
2FC
  8
0
 10
31.40323313
 20
51.20070386
 30
0.0
  0
VERTEX
  5
2FD
  8
0
 10
31.31354709
 20
51.19662559
 30
0.0
  0
SEQEND
  5
2FE
  8
0
  0
POLYLINE
  5
2FF
  8
0
 66
     1
 10
0.0
 20
0.0
 30
0.0
  0
VERTEX
  5
58E
  8
0
 10
31.31354708796471
 20
51.19662558379052
 30
0.0
  0
VERTEX
  5
58F
  8
0
 10
31.48203566399478
 20
50.84931492247438
 30
0.0
  0
VERTEX
  5
590
  8
0
 10
31.82607457650798
 20
50.5201717169893
 30
0.0
  0
VERTEX
  5
591
  8
0
 10
32.33311996602376
 20
50.2211967206467
 30
0.0
  0
VERTEX
  5
592
  8
0
 10
32.98468466180351
 20
49.96329073625087
 30
0.0
  0
VERTEX
  5
593
  8
0
 10
33.7570122348821
 20
49.75585716646878
 30
0.0
  0
VERTEX
  5
594
  8
0
 10
34.6219431713287
 20
49.60645916028229
 30
0.0
  0
VERTEX
  5
595
  8
0
 10
35.54794158455443
 20
49.5205438561636
 30
0.0
  0
VERTEX
  5
596
  8
0
 10
36.50124503213708
 20
49.50124377622835
 30
0.0
  0
VERTEX
  5
597
  8
0
 10
37.44709551417057
 20
49.54926261265167
 30
0.0
  0
VERTEX
  5
598
  8
0
 10
38.35100677022123
 20
49.66284957064085
 30
0.0
  0
VERTEX
  5
599
  8
0
 10
39.18002166850425
 20
49.83786320343503
 30
0.0
  0
VERTEX
  5
59A
  8
0
 10
39.90391384213748
 20
50.0679224118704
 30
0.0
  0
VERTEX
  5
59B
  8
0
 10
40.49628976011361
 20
50.34463910297882
 30
0.0
  0
VERTEX
  5
59C
  8
0
 10
40.93555105084009
 20
50.65792402475143
 30
0.0
  0
VERTEX
  5
59D
  8
0
 10
41.20568199136896
 20
50.99635462615358
 30
0.0
  0
VERTEX
  5
59E
  8
0
 10
41.29683345
 20
51.34759153
 30
0.0
  0
SEQEND
  5
76D
  8
0
  0
LINE
  5
300
  8
0
 10
41.29683345
 20
51.34759153
 30
0.0
 11
41.28694668821734
 21
51.46374146585467
 31
0.0
  0
LINE
  5
301
  8
0
 10
31.29683345
 20
52.17922195
 30
0.0
 11
29.88601872
 21
51.7172635
 31
0.0
  0
LINE
  5
302
  8
0
 10
41.29683345
 20
35.41182011
 30
0.0
 11
41.29683345
 21
51.34759153
 31
0.0
  0
POLYLINE
  5
303
  8
0
 66
     1
 10
0.0
 20
0.0
 30
0.0
  0
VERTEX
  5
59F
  8
0
 10
31.31354708796471
 20
35.26085416379052
 30
0.0
  0
VERTEX
  5
5A0
  8
0
 10
31.48203566423244
 20
34.9135435021607
 30
0.0
  0
VERTEX
  5
5A1
  8
0
 10
31.82607457729728
 20
34.58440029640678
 30
0.0
  0
VERTEX
  5
5A2
  8
0
 10
32.33311996763551
 20
34.28542529987201
 30
0.0
  0
VERTEX
  5
5A3
  8
0
 10
32.98468466444456
 20
34.02751931538775
 30
0.0
  0
VERTEX
  5
5A4
  8
0
 10
33.7570122386781
 20
33.82008574564146
 30
0.0
  0
VERTEX
  5
5A5
  8
0
 10
34.62194317631145
 20
33.6706877396276
 30
0.0
  0
VERTEX
  5
5A6
  8
0
 10
35.54794159065449
 20
33.58477243582207
 30
0.0
  0
VERTEX
  5
5A7
  8
0
 10
36.50124503918222
 20
33.56547235633488
 30
0.0
  0
VERTEX
  5
5A8
  8
0
 10
37.44709552189023
 20
33.6134911933261
 30
0.0
  0
VERTEX
  5
5A9
  8
0
 10
38.35100677825686
 20
33.72707815197909
 30
0.0
  0
VERTEX
  5
5AA
  8
0
 10
39.18002167642521
 20
33.90209178550119
 30
0.0
  0
VERTEX
  5
5AB
  8
0
 10
39.90391384946176
 20
34.13215099469032
 30
0.0
  0
VERTEX
  5
5AC
  8
0
 10
40.49628976633246
 20
34.40886768653542
 30
0.0
  0
VERTEX
  5
5AD
  8
0
 10
40.93555105544535
 20
34.72215260898226
 30
0.0
  0
VERTEX
  5
5AE
  8
0
 10
41.20568199388188
 20
35.06058321095059
 30
0.0
  0
VERTEX
  5
5AF
  8
0
 10
41.29683345
 20
35.41182011521182
 30
0.0
  0
SEQEND
  5
76E
  8
0
  0
LINE
  5
304
  8
0
 10
31.31354709
 20
35.26085417
 30
0.0
 11
31.31354709
 21
51.19662559
 31
0.0
  0
LINE
  5
305
  8
0
 10
31.31354709
 20
66.75342646
 30
0.0
 11
30.14248443
 21
66.38497353
 31
0.0
  0
LINE
  5
306
  8
0
 10
30.14248443
 20
82.32074494
 30
0.0
 11
31.32640304
 21
82.69324276
 31
0.0
  0
POLYLINE
  5
307
  8
0
 66
     1
 10
0.0
 20
0.0
 30
0.0
  0
VERTEX
  5
308
  8
0
 10
31.34013742
 20
82.65123777
 30
0.0
  0
VERTEX
  5
309
  8
0
 10
31.31354709
 20
82.65002863
 30
0.0
  0
SEQEND
  5
30A
  8
0
  0
POLYLINE
  5
30B
  8
0
 66
     1
 10
0.0
 20
0.0
 30
0.0
  0
VERTEX
  5
5B0
  8
0
 10
31.31354708796471
 20
82.65002862379052
 30
0.0
  0
VERTEX
  5
5B1
  8
0
 10
31.48203566423244
 20
82.3027179621607
 30
0.0
  0
VERTEX
  5
5B2
  8
0
 10
31.82607457729728
 20
81.97357475640679
 30
0.0
  0
VERTEX
  5
5B3
  8
0
 10
32.33311996763551
 20
81.67459975987201
 30
0.0
  0
VERTEX
  5
5B4
  8
0
 10
32.98468466444456
 20
81.41669377538776
 30
0.0
  0
VERTEX
  5
5B5
  8
0
 10
33.7570122386781
 20
81.20926020564146
 30
0.0
  0
VERTEX
  5
5B6
  8
0
 10
34.62194317631145
 20
81.0598621996276
 30
0.0
  0
VERTEX
  5
5B7
  8
0
 10
35.54794159065449
 20
80.97394689582207
 30
0.0
  0
VERTEX
  5
5B8
  8
0
 10
36.50124503918222
 20
80.95464681633489
 30
0.0
  0
VERTEX
  5
5B9
  8
0
 10
37.44709552189023
 20
81.00266565332609
 30
0.0
  0
VERTEX
  5
5BA
  8
0
 10
38.35100677825686
 20
81.11625261197909
 30
0.0
  0
VERTEX
  5
5BB
  8
0
 10
39.18002167642521
 20
81.29126624550119
 30
0.0
  0
VERTEX
  5
5BC
  8
0
 10
39.90391384946176
 20
81.52132545469031
 30
0.0
  0
VERTEX
  5
5BD
  8
0
 10
40.49628976633246
 20
81.79804214653542
 30
0.0
  0
VERTEX
  5
5BE
  8
0
 10
40.93555105544535
 20
82.11132706898226
 30
0.0
  0
VERTEX
  5
5BF
  8
0
 10
41.20568199388188
 20
82.44975767095059
 30
0.0
  0
VERTEX
  5
5C0
  8
0
 10
41.29683345
 20
82.80099457521182
 30
0.0
  0
SEQEND
  5
76F
  8
0
  0
LINE
  5
30C
  8
0
 10
41.29683345
 20
82.80099457521182
 30
0.0
 11
41.29525288211983
 21
82.84745454646459
 31
0.0
  0
LINE
  5
30D
  8
0
 10
31.29683345
 20
83.632625
 30
0.0
 11
29.88601872
 21
83.17066655
 31
0.0
  0
LINE
  5
30E
  8
0
 10
41.29683345
 20
66.86522316
 30
0.0
 11
41.29683345
 21
82.80099457
 31
0.0
  0
POLYLINE
  5
30F
  8
0
 66
     1
 10
0.0
 20
0.0
 30
0.0
  0
VERTEX
  5
5C1
  8
0
 10
31.31354708796471
 20
66.71425721379052
 30
0.0
  0
VERTEX
  5
5C2
  8
0
 10
31.48203566399478
 20
66.36694655247437
 30
0.0
  0
VERTEX
  5
5C3
  8
0
 10
31.82607457650798
 20
66.0378033469893
 30
0.0
  0
VERTEX
  5
5C4
  8
0
 10
32.33311996602376
 20
65.73882835064668
 30
0.0
  0
VERTEX
  5
5C5
  8
0
 10
32.98468466180351
 20
65.48092236625087
 30
0.0
  0
VERTEX
  5
5C6
  8
0
 10
33.7570122348821
 20
65.27348879646878
 30
0.0
  0
VERTEX
  5
5C7
  8
0
 10
34.6219431713287
 20
65.1240907902823
 30
0.0
  0
VERTEX
  5
5C8
  8
0
 10
35.54794158455443
 20
65.0381754861636
 30
0.0
  0
VERTEX
  5
5C9
  8
0
 10
36.50124503213708
 20
65.01887540622835
 30
0.0
  0
VERTEX
  5
5CA
  8
0
 10
37.44709551417057
 20
65.06689424265166
 30
0.0
  0
VERTEX
  5
5CB
  8
0
 10
38.35100677022123
 20
65.18048120064084
 30
0.0
  0
VERTEX
  5
5CC
  8
0
 10
39.18002166850425
 20
65.35549483343503
 30
0.0
  0
VERTEX
  5
5CD
  8
0
 10
39.90391384213748
 20
65.5855540418704
 30
0.0
  0
VERTEX
  5
5CE
  8
0
 10
40.49628976011361
 20
65.86227073297881
 30
0.0
  0
VERTEX
  5
5CF
  8
0
 10
40.93555105084009
 20
66.17555565475143
 30
0.0
  0
VERTEX
  5
5D0
  8
0
 10
41.20568199136896
 20
66.51398625615359
 30
0.0
  0
VERTEX
  5
5D1
  8
0
 10
41.29683345
 20
66.86522316
 30
0.0
  0
SEQEND
  5
770
  8
0
  0
LINE
  5
310
  8
0
 10
31.31354709
 20
66.71425722
 30
0.0
 11
31.31354709
 21
82.65002863
 31
0.0
  0
POLYLINE
  5
311
  8
0
 66
     1
 10
0.0
 20
0.0
 30
0.0
  0
VERTEX
  5
5D2
  8
0
 10
9.213802136967583
 20
91.56497281792842
 30
0.0
  0
VERTEX
  5
5D3
  8
0
 10
7.405139765262421
 20
91.11616603480874
 30
0.0
  0
VERTEX
  5
5D4
  8
0
 10
5.665983273709484
 20
90.32752049161033
 30
0.0
  0
VERTEX
  5
5D5
  8
0
 10
4.063167470372588
 20
89.22934339401938
 30
0.0
  0
VERTEX
  5
5D6
  8
0
 10
2.658287667173324
 20
87.8638370716676
 30
0.0
  0
VERTEX
  5
5D7
  8
0
 10
1.505332606617393
 20
86.28347716628564
 30
0.0
  0
VERTEX
  5
5D8
  8
0
 10
0.6486097047152146
 20
84.54899602223756
 30
0.0
  0
VERTEX
  5
5D9
  8
0
 10
0.121042341847228
 20
82.72704877660608
 30
0.0
  0
VERTEX
  5
5DA
  8
0
 10
-0.0570953642695722
 20
80.8876518396772
 30
0.0
  0
SEQEND
  5
771
  8
0
  0
LINE
  5
312
  8
0
 10
2.46694528
 20
22.8567543
 30
0.0
 11
3.21662413
 21
22.17148936
 31
0.0
  0
POLYLINE
  5
313
  8
0
 66
     1
 10
0.0
 20
0.0
 30
0.0
  0
VERTEX
  5
5DB
  8
0
 10
-0.0570953642695722
 20
28.85247988967722
 30
0.0
  0
VERTEX
  5
5DC
  8
0
 10
0.1078936712823113
 20
27.13191547006289
 30
0.0
  0
VERTEX
  5
5DD
  8
0
 10
0.5969883628264583
 20
25.52189868613501
 30
0.0
  0
VERTEX
  5
5DE
  8
0
 10
1.392780413717911
 20
24.07973469835131
 30
0.0
  0
VERTEX
  5
5DF
  8
0
 10
2.466945279999998
 20
22.8567543
 30
0.0
  0
SEQEND
  5
772
  8
0
  0
LINE
  5
314
  8
0
  6
STRICHPUNKT2
 62
     1
 10
8.67156061
 20
54.77911302
 30
0.0
 11
6.7973635
 21
56.49227536
 31
0.0
  0
LINE
  5
315
  8
0
  6
STRICHPUNKT2
 62
     1
 10
8.10930148
 20
55.29306172
 30
0.0
 11
12.28120536
 21
55.91645844
 31
0.0
  0
LINE
  5
316
  8
0
  6
STRICHPUNKT2
 62
     1
 10
8.10930148
 20
55.29306172
 30
0.0
 11
3.9373976
 21
54.66966501
 31
0.0
  0
LINE
  5
317
  8
0
  6
STRICHPUNKT2
 62
     1
 10
8.10930148
 20
55.29306172
 30
0.0
 11
8.10930148
 21
59.47445947
 31
0.0
  0
LINE
  5
318
  8
0
  6
STRICHPUNKT2
 62
     1
 10
8.10930148
 20
55.29306172
 30
0.0
 11
8.10930148
 21
51.11166398
 31
0.0
  0
LINE
  5
319
  8
0
  6
STRICHPUNKT2
 62
     1
 10
7.35962264
 20
55.97832666
 30
0.0
 11
10.14089189
 21
56.39392447
 31
0.0
  0
LINE
  5
31A
  8
0
  6
STRICHPUNKT2
 62
     1
 10
7.35962264
 20
55.97832666
 30
0.0
 11
4.98177925
 21
55.62301173
 31
0.0
  0
LINE
  5
31B
  8
0
  6
STRICHPUNKT2
 62
     1
 10
7.35962264
 20
55.97832666
 30
0.0
 11
7.35962264
 21
58.34184884
 31
0.0
  0
LINE
  5
31C
  8
0
  6
STRICHPUNKT2
 62
     1
 10
7.35962264
 20
55.97832666
 30
0.0
 11
7.35962264
 21
53.19072816
 31
0.0
  0
LINE
  5
31D
  8
0
  6
STRICHPUNKT2
 62
     1
 10
15.16118888
 20
83.62482622
 30
0.0
 11
13.28699177
 21
85.33798856
 31
0.0
  0
LINE
  5
31E
  8
0
  6
STRICHPUNKT2
 62
     1
 10
14.59892974
 20
84.13877492
 30
0.0
 11
18.77083363
 21
84.76217163
 31
0.0
  0
LINE
  5
31F
  8
0
  6
STRICHPUNKT2
 62
     1
 10
14.59892974
 20
84.13877492
 30
0.0
 11
10.42702586
 21
83.51537821
 31
0.0
  0
LINE
  5
320
  8
0
  6
STRICHPUNKT2
 62
     1
 10
14.59892974
 20
84.13877492
 30
0.0
 11
14.59892974
 21
88.32017267
 31
0.0
  0
LINE
  5
321
  8
0
  6
STRICHPUNKT2
 62
     1
 10
14.59892974
 20
84.13877492
 30
0.0
 11
14.59892974
 21
79.95737717
 31
0.0
  0
LINE
  5
322
  8
0
  6
STRICHPUNKT2
 62
     1
 10
13.8492509
 20
84.82403986
 30
0.0
 11
16.63052015
 21
85.23963767
 31
0.0
  0
LINE
  5
323
  8
0
  6
STRICHPUNKT2
 62
     1
 10
13.8492509
 20
84.82403986
 30
0.0
 11
11.47140751
 21
84.46872492
 31
0.0
  0
LINE
  5
324
  8
0
  6
STRICHPUNKT2
 62
     1
 10
13.8492509
 20
84.82403986
 30
0.0
 11
13.8492509
 21
87.18756203
 31
0.0
  0
LINE
  5
325
  8
0
  6
STRICHPUNKT2
 62
     1
 10
13.8492509
 20
84.82403986
 30
0.0
 11
13.8492509
 21
82.03644136
 31
0.0
  0
LINE
  5
326
  8
0
  6
STRICHPUNKT2
 62
     1
 10
15.16118888
 20
27.87285626
 30
0.0
 11
13.28699177
 21
29.58601861
 31
0.0
  0
LINE
  5
327
  8
0
  6
STRICHPUNKT2
 62
     1
 10
14.59892974
 20
28.38680497
 30
0.0
 11
18.77083363
 21
29.01020168
 31
0.0
  0
LINE
  5
328
  8
0
  6
STRICHPUNKT2
 62
     1
 10
14.59892974
 20
28.38680497
 30
0.0
 11
10.42702586
 21
27.76340825
 31
0.0
  0
LINE
  5
329
  8
0
  6
STRICHPUNKT2
 62
     1
 10
14.59892974
 20
28.38680497
 30
0.0
 11
14.59892974
 21
32.56820271
 31
0.0
  0
LINE
  5
32A
  8
0
  6
STRICHPUNKT2
 62
     1
 10
14.59892974
 20
28.38680497
 30
0.0
 11
14.59892974
 21
24.20540722
 31
0.0
  0
LINE
  5
32B
  8
0
  6
STRICHPUNKT2
 62
     1
 10
13.8492509
 20
29.0720699
 30
0.0
 11
16.63052015
 21
29.48766771
 31
0.0
  0
LINE
  5
32C
  8
0
  6
STRICHPUNKT2
 62
     1
 10
13.8492509
 20
29.0720699
 30
0.0
 11
11.47140751
 21
28.71675497
 31
0.0
  0
LINE
  5
32D
  8
0
  6
STRICHPUNKT2
 62
     1
 10
13.8492509
 20
29.0720699
 30
0.0
 11
13.8492509
 21
31.43559208
 31
0.0
  0
LINE
  5
32E
  8
0
  6
STRICHPUNKT2
 62
     1
 10
13.8492509
 20
29.0720699
 30
0.0
 11
13.8492509
 21
26.28447141
 31
0.0
  0
POLYLINE
  5
32F
  8
0
 66
     1
 10
0.0
 20
0.0
 30
0.0
  0
VERTEX
  5
5E0
  8
0
 10
54.84616184538001
 20
88.63959164508225
 30
0.0
  0
VERTEX
  5
5E1
  8
0
 10
55.25719320382424
 20
88.34197441404521
 30
0.0
  0
VERTEX
  5
5E2
  8
0
 10
55.73021223492513
 20
88.14088934818155
 30
0.0
  0
VERTEX
  5
5E3
  8
0
 10
56.24704108266353
 20
88.04406403377115
 30
0.0
  0
VERTEX
  5
5E4
  8
0
 10
56.78781830434261
 20
88.05521941333144
 30
0.0
  0
VERTEX
  5
5E5
  8
0
 10
57.33176213468914
 20
88.17392679188366
 30
0.0
  0
VERTEX
  5
5E6
  8
0
 10
57.85796911743514
 20
88.39562431146045
 30
0.0
  0
VERTEX
  5
5E7
  8
0
 10
58.34621741341622
 20
88.71179226074857
 30
0.0
  0
VERTEX
  5
5E8
  8
0
 10
58.77774391450694
 20
89.11028048281528
 30
0.0
  0
VERTEX
  5
5E9
  8
0
 10
59.13596529934071
 20
89.57577529882364
 30
0.0
  0
VERTEX
  5
5EA
  8
0
 10
59.40711532104721
 20
90.09038800411973
 30
0.0
  0
VERTEX
  5
5EB
  8
0
 10
59.58077383639734
 20
90.63434232111759
 30
0.0
  0
VERTEX
  5
5EC
  8
0
 10
59.65026724606216
 20
91.18673439055311
 30
0.0
  0
VERTEX
  5
5ED
  8
0
 10
59.61292495729148
 20
91.72633609506927
 30
0.0
  0
VERTEX
  5
5EE
  8
0
 10
59.47018201329509
 20
92.23241084385802
 30
0.0
  0
VERTEX
  5
5EF
  8
0
 10
59.22752394533732
 20
92.68551046821247
 30
0.0
  0
VERTEX
  5
5F0
  8
0
 10
58.89427596684762
 20
93.06822260374074
 30
0.0
  0
SEQEND
  5
773
  8
0
  0
POLYLINE
  5
330
  8
0
 66
     1
 10
0.0
 20
0.0
 30
0.0
  0
VERTEX
  5
5F1
  8
0
 10
58.89427596684762
 20
93.06822260374074
 30
0.0
  0
VERTEX
  5
5F2
  8
0
 10
58.48324460928357
 20
93.36583983856053
 30
0.0
  0
VERTEX
  5
5F3
  8
0
 10
58.01022557816577
 20
93.56692490787853
 30
0.0
  0
VERTEX
  5
5F4
  8
0
 10
57.49339672962939
 20
93.66375022523306
 30
0.0
  0
VERTEX
  5
5F5
  8
0
 10
56.95261950652794
 20
93.65259484796997
 30
0.0
  0
VERTEX
  5
5F6
  8
0
 10
56.4086756743212
 20
93.53388747098245
 30
0.0
  0
VERTEX
  5
5F7
  8
0
 10
55.88246868948129
 20
93.31218995220664
 30
0.0
  0
VERTEX
  5
5F8
  8
0
 10
55.39422039138137
 20
92.99602200297913
 30
0.0
  0
VERTEX
  5
5F9
  8
0
 10
54.96269388834739
 20
92.59753378030734
 30
0.0
  0
VERTEX
  5
5FA
  8
0
 10
54.60447250192584
 20
92.13203896314872
 30
0.0
  0
VERTEX
  5
5FB
  8
0
 10
54.33332247913542
 20
91.61742625631489
 30
0.0
  0
VERTEX
  5
5FC
  8
0
 10
54.159663963313
 20
91.07347193757639
 30
0.0
  0
VERTEX
  5
5FD
  8
0
 10
54.09017055384803
 20
90.52107986639687
 30
0.0
  0
VERTEX
  5
5FE
  8
0
 10
54.12751284349997
 20
89.98147816033509
 30
0.0
  0
VERTEX
  5
5FF
  8
0
 10
54.27025578901604
 20
89.47540341039009
 30
0.0
  0
VERTEX
  5
600
  8
0
 10
54.51291385903872
 20
89.02230378543658
 30
0.0
  0
VERTEX
  5
601
  8
0
 10
54.84616184
 20
88.63959165
 30
0.0
  0
SEQEND
  5
774
  8
0
  0
POLYLINE
  5
331
  8
0
 66
     1
 10
0.0
 20
0.0
 30
0.0
  0
VERTEX
  5
602
  8
0
 10
54.66853555351021
 20
88.82162188613574
 30
0.0
  0
VERTEX
  5
603
  8
0
 10
55.11269819007859
 20
88.5712132267111
 30
0.0
  0
VERTEX
  5
604
  8
0
 10
55.60997945934646
 20
88.42166204496803
 30
0.0
  0
VERTEX
  5
605
  8
0
 10
56.14127524723985
 20
88.37871366656525
 30
0.0
  0
VERTEX
  5
606
  8
0
 10
56.68617469984935
 20
88.44401804449919
 30
0.0
  0
VERTEX
  5
607
  8
0
 10
57.223744349649
 20
88.61506637266216
 30
0.0
  0
VERTEX
  5
608
  8
0
 10
57.73333231902517
 20
88.88528746694702
 30
0.0
  0
VERTEX
  5
609
  8
0
 10
58.19536170593206
 20
89.244300211214
 30
0.0
  0
VERTEX
  5
60A
  8
0
 10
58.59208267208202
 20
89.67831236987263
 30
0.0
  0
VERTEX
  5
60B
  8
0
 10
58.90825434060869
 20
90.1706504458481
 30
0.0
  0
VERTEX
  5
60C
  8
0
 10
59.13173030665877
 20
90.70240022831514
 30
0.0
  0
VERTEX
  5
60D
  8
0
 10
59.25392526728191
 20
91.2531334222004
 30
0.0
  0
VERTEX
  5
60E
  8
0
 10
59.27014484404226
 20
91.80169244444077
 30
0.0
  0
VERTEX
  5
60F
  8
0
 10
59.179765927517
 20
92.32700323738545
 30
0.0
  0
VERTEX
  5
610
  8
0
 10
58.98626061536574
 20
92.80888487339277
 30
0.0
  0
VERTEX
  5
611
  8
0
 10
58.69706282433881
 20
93.2288248479439
 30
0.0
  0
SEQEND
  5
775
  8
0
  0
POLYLINE
  5
332
  8
0
 66
     1
 10
0.0
 20
0.0
 30
0.0
  0
VERTEX
  5
612
  8
0
 10
61.3357901
 20
61.73333488999999
 30
0.0
  0
VERTEX
  5
613
  8
0
 10
61.7468214578333
 20
61.43571765742476
 30
0.0
  0
VERTEX
  5
614
  8
0
 10
62.21984048866442
 20
61.2346325900658
 30
0.0
  0
VERTEX
  5
615
  8
0
 10
62.73666933645207
 20
61.13780727427431
 30
0.0
  0
VERTEX
  5
616
  8
0
 10
63.27744655846195
 20
61.14896265262742
 30
0.0
  0
VERTEX
  5
617
  8
0
 10
63.82139038937095
 20
61.26767003019199
 30
0.0
  0
VERTEX
  5
618
  8
0
 10
64.34759737285204
 20
61.48936754903049
 30
0.0
  0
VERTEX
  5
619
  8
0
 10
64.8358456696764
 20
61.80553549784275
 30
0.0
  0
VERTEX
  5
61A
  8
0
 10
65.26737217165262
 20
62.20402371969264
 30
0.0
  0
VERTEX
  5
61B
  8
0
 10
65.62559355735036
 20
62.6695185357241
 30
0.0
  0
VERTEX
  5
61C
  8
0
 10
65.89674357984148
 20
63.18413124125031
 30
0.0
  0
VERTEX
  5
61D
  8
0
 10
66.0704020958481
 20
63.72808555864107
 30
0.0
  0
VERTEX
  5
61E
  8
0
 10
66.13989550600407
 20
64.28047762857976
 30
0.0
  0
VERTEX
  5
61F
  8
0
 10
66.10255321753556
 20
64.82007933365206
 30
0.0
  0
VERTEX
  5
620
  8
0
 10
65.95981027364333
 20
65.32615408299137
 30
0.0
  0
VERTEX
  5
621
  8
0
 10
65.7171522055975
 20
65.77925370783488
 30
0.0
  0
VERTEX
  5
622
  8
0
 10
65.38390422684762
 20
66.16196584374075
 30
0.0
  0
SEQEND
  5
776
  8
0
  0
POLYLINE
  5
333
  8
0
 66
     1
 10
0.0
 20
0.0
 30
0.0
  0
VERTEX
  5
623
  8
0
 10
65.38390422684762
 20
66.16196584374075
 30
0.0
  0
VERTEX
  5
624
  8
0
 10
64.97287286888418
 20
66.45958307878584
 30
0.0
  0
VERTEX
  5
625
  8
0
 10
64.49985383727139
 20
66.6606681481477
 30
0.0
  0
VERTEX
  5
626
  8
0
 10
63.98302498819598
 20
66.75749346534917
 30
0.0
  0
VERTEX
  5
627
  8
0
 10
63.44224776456772
 20
66.7463380877353
 30
0.0
  0
VERTEX
  5
628
  8
0
 10
62.89830393190385
 20
66.6276307102135
 30
0.0
  0
VERTEX
  5
629
  8
0
 10
62.37209694673142
 20
66.40593319074866
 30
0.0
  0
VERTEX
  5
62A
  8
0
 10
61.88384864847262
 20
66.08976524071905
 30
0.0
  0
VERTEX
  5
62B
  8
0
 10
61.45232214549305
 20
65.69127701718472
 30
0.0
  0
VERTEX
  5
62C
  8
0
 10
61.09410075936681
 20
65.22578219916359
 30
0.0
  0
VERTEX
  5
62D
  8
0
 10
60.82295073712586
 20
64.7111694915325
 30
0.0
  0
VERTEX
  5
62E
  8
0
 10
60.64929222210464
 20
64.16721517212801
 30
0.0
  0
VERTEX
  5
62F
  8
0
 10
60.57979881367373
 20
63.61482310047678
 30
0.0
  0
VERTEX
  5
630
  8
0
 10
60.61714110455764
 20
63.07522139419368
 30
0.0
  0
VERTEX
  5
631
  8
0
 10
60.75988405145368
 20
62.56914664432338
 30
0.0
  0
VERTEX
  5
632
  8
0
 10
61.00254212294146
 20
62.11604701977253
 30
0.0
  0
VERTEX
  5
633
  8
0
 10
61.33579010538001
 20
61.73333488508224
 30
0.0
  0
SEQEND
  5
777
  8
0
  0
POLYLINE
  5
334
  8
0
 66
     1
 10
0.0
 20
0.0
 30
0.0
  0
VERTEX
  5
634
  8
0
 10
61.15816381351021
 20
61.91536512613575
 30
0.0
  0
VERTEX
  5
635
  8
0
 10
61.60232645007859
 20
61.6649564667111
 30
0.0
  0
VERTEX
  5
636
  8
0
 10
62.09960771934646
 20
61.51540528496804
 30
0.0
  0
VERTEX
  5
637
  8
0
 10
62.63090350723985
 20
61.47245690656526
 30
0.0
  0
VERTEX
  5
638
  8
0
 10
63.17580295984935
 20
61.5377612844992
 30
0.0
  0
VERTEX
  5
639
  8
0
 10
63.713372609649
 20
61.70880961266216
 30
0.0
  0
VERTEX
  5
63A
  8
0
 10
64.22296057902517
 20
61.97903070694702
 30
0.0
  0
VERTEX
  5
63B
  8
0
 10
64.68498996593206
 20
62.33804345121401
 30
0.0
  0
VERTEX
  5
63C
  8
0
 10
65.08171093208203
 20
62.77205560987264
 30
0.0
  0
VERTEX
  5
63D
  8
0
 10
65.3978826006087
 20
63.26439368584811
 30
0.0
  0
VERTEX
  5
63E
  8
0
 10
65.62135856665877
 20
63.79614346831514
 30
0.0
  0
VERTEX
  5
63F
  8
0
 10
65.74355352728192
 20
64.34687666220042
 30
0.0
  0
VERTEX
  5
640
  8
0
 10
65.75977310404225
 20
64.89543568444078
 30
0.0
  0
VERTEX
  5
641
  8
0
 10
65.66939418751701
 20
65.42074647738546
 30
0.0
  0
VERTEX
  5
642
  8
0
 10
65.47588887536574
 20
65.90262811339278
 30
0.0
  0
VERTEX
  5
643
  8
0
 10
65.18669108433882
 20
66.3225680879439
 30
0.0
  0
SEQEND
  5
778
  8
0
  0
POLYLINE
  5
335
  8
0
 66
     1
 10
0.0
 20
0.0
 30
0.0
  0
VERTEX
  5
644
  8
0
 10
54.84616184
 20
32.88762169
 30
0.0
  0
VERTEX
  5
645
  8
0
 10
55.2571931978333
 20
32.59000445742476
 30
0.0
  0
VERTEX
  5
646
  8
0
 10
55.73021222866442
 20
32.3889193900658
 30
0.0
  0
VERTEX
  5
647
  8
0
 10
56.24704107645207
 20
32.29209407427431
 30
0.0
  0
VERTEX
  5
648
  8
0
 10
56.78781829846195
 20
32.30324945262741
 30
0.0
  0
VERTEX
  5
649
  8
0
 10
57.33176212937095
 20
32.42195683019199
 30
0.0
  0
VERTEX
  5
64A
  8
0
 10
57.85796911285204
 20
32.64365434903049
 30
0.0
  0
VERTEX
  5
64B
  8
0
 10
58.3462174096764
 20
32.95982229784276
 30
0.0
  0
VERTEX
  5
64C
  8
0
 10
58.77774391165261
 20
33.35831051969264
 30
0.0
  0
VERTEX
  5
64D
  8
0
 10
59.13596529735035
 20
33.82380533572411
 30
0.0
  0
VERTEX
  5
64E
  8
0
 10
59.40711531984148
 20
34.33841804125031
 30
0.0
  0
VERTEX
  5
64F
  8
0
 10
59.58077383584809
 20
34.88237235864108
 30
0.0
  0
VERTEX
  5
650
  8
0
 10
59.65026724600407
 20
35.43476442857977
 30
0.0
  0
VERTEX
  5
651
  8
0
 10
59.61292495753555
 20
35.97436613365205
 30
0.0
  0
VERTEX
  5
652
  8
0
 10
59.47018201364332
 20
36.48044088299137
 30
0.0
  0
VERTEX
  5
653
  8
0
 10
59.2275239455975
 20
36.93354050783489
 30
0.0
  0
VERTEX
  5
654
  8
0
 10
58.89427596684762
 20
37.31625264374074
 30
0.0
  0
SEQEND
  5
779
  8
0
  0
POLYLINE
  5
336
  8
0
 66
     1
 10
0.0
 20
0.0
 30
0.0
  0
VERTEX
  5
655
  8
0
 10
58.89427596684762
 20
37.31625264374074
 30
0.0
  0
VERTEX
  5
656
  8
0
 10
58.48324460928357
 20
37.61386987856054
 30
0.0
  0
VERTEX
  5
657
  8
0
 10
58.01022557816577
 20
37.81495494787854
 30
0.0
  0
VERTEX
  5
658
  8
0
 10
57.49339672962939
 20
37.91178026523307
 30
0.0
  0
VERTEX
  5
659
  8
0
 10
56.95261950652794
 20
37.90062488796998
 30
0.0
  0
VERTEX
  5
65A
  8
0
 10
56.4086756743212
 20
37.78191751098245
 30
0.0
  0
VERTEX
  5
65B
  8
0
 10
55.88246868948129
 20
37.56021999220664
 30
0.0
  0
VERTEX
  5
65C
  8
0
 10
55.39422039138137
 20
37.24405204297912
 30
0.0
  0
VERTEX
  5
65D
  8
0
 10
54.96269388834739
 20
36.84556382030736
 30
0.0
  0
VERTEX
  5
65E
  8
0
 10
54.60447250192584
 20
36.38006900314873
 30
0.0
  0
VERTEX
  5
65F
  8
0
 10
54.33332247913542
 20
35.8654562963149
 30
0.0
  0
VERTEX
  5
660
  8
0
 10
54.159663963313
 20
35.32150197757639
 30
0.0
  0
VERTEX
  5
661
  8
0
 10
54.09017055384803
 20
34.76910990639688
 30
0.0
  0
VERTEX
  5
662
  8
0
 10
54.12751284349997
 20
34.22950820033508
 30
0.0
  0
VERTEX
  5
663
  8
0
 10
54.27025578901604
 20
33.72343345039008
 30
0.0
  0
VERTEX
  5
664
  8
0
 10
54.51291385903872
 20
33.27033382543658
 30
0.0
  0
VERTEX
  5
665
  8
0
 10
54.84616184
 20
32.88762169
 30
0.0
  0
SEQEND
  5
77A
  8
0
  0
POLYLINE
  5
337
  8
0
 66
     1
 10
0.0
 20
0.0
 30
0.0
  0
VERTEX
  5
666
  8
0
 10
54.66853555351021
 20
33.06965192613575
 30
0.0
  0
VERTEX
  5
667
  8
0
 10
55.11269819007859
 20
32.81924326671109
 30
0.0
  0
VERTEX
  5
668
  8
0
 10
55.60997945934646
 20
32.66969208496803
 30
0.0
  0
VERTEX
  5
669
  8
0
 10
56.14127524723985
 20
32.62674370656526
 30
0.0
  0
VERTEX
  5
66A
  8
0
 10
56.68617469984935
 20
32.69204808449919
 30
0.0
  0
VERTEX
  5
66B
  8
0
 10
57.223744349649
 20
32.86309641266215
 30
0.0
  0
VERTEX
  5
66C
  8
0
 10
57.73333231902517
 20
33.13331750694702
 30
0.0
  0
VERTEX
  5
66D
  8
0
 10
58.19536170593206
 20
33.49233025121401
 30
0.0
  0
VERTEX
  5
66E
  8
0
 10
58.59208267208202
 20
33.92634240987263
 30
0.0
  0
VERTEX
  5
66F
  8
0
 10
58.90825434060869
 20
34.4186804858481
 30
0.0
  0
VERTEX
  5
670
  8
0
 10
59.13173030665877
 20
34.95043026831514
 30
0.0
  0
VERTEX
  5
671
  8
0
 10
59.25392526728191
 20
35.50116346220042
 30
0.0
  0
VERTEX
  5
672
  8
0
 10
59.27014484404226
 20
36.04972248444077
 30
0.0
  0
VERTEX
  5
673
  8
0
 10
59.179765927517
 20
36.57503327738547
 30
0.0
  0
VERTEX
  5
674
  8
0
 10
58.98626061536574
 20
37.05691491339277
 30
0.0
  0
VERTEX
  5
675
  8
0
 10
58.69706282433881
 20
37.4768548879439
 30
0.0
  0
SEQEND
  5
77B
  8
0
  0
POLYLINE
  5
338
  8
0
 66
     1
 10
0.0
 20
0.0
 30
0.0
  0
VERTEX
  5
676
  8
0
 10
54.54631558
 20
87.55885402999999
 30
0.0
  0
VERTEX
  5
677
  8
0
 10
55.09435738957976
 20
87.16203105362871
 30
0.0
  0
VERTEX
  5
678
  8
0
 10
55.72504942986254
 20
86.89391763088801
 30
0.0
  0
VERTEX
  5
679
  8
0
 10
56.41415455941478
 20
86.76481721026329
 30
0.0
  0
VERTEX
  5
67A
  8
0
 10
57.13519085453868
 20
86.77969104852325
 30
0.0
  0
VERTEX
  5
67B
  8
0
 10
57.86044929474966
 20
86.93796755240439
 30
0.0
  0
VERTEX
  5
67C
  8
0
 10
58.56205860489508
 20
87.2335642446196
 30
0.0
  0
VERTEX
  5
67D
  8
0
 10
59.21305633262896
 20
87.65512151004941
 30
0.0
  0
VERTEX
  5
67E
  8
0
 10
59.78842500033583
 20
88.18643913938092
 30
0.0
  0
VERTEX
  5
67F
  8
0
 10
60.2660535127664
 20
88.80709889406697
 30
0.0
  0
VERTEX
  5
680
  8
0
 10
60.62758687402868
 20
89.49324916778367
 30
0.0
  0
VERTEX
  5
681
  8
0
 10
60.85913155978718
 20
90.21852159028597
 30
0.0
  0
VERTEX
  5
682
  8
0
 10
60.951789437612
 20
90.95504434908966
 30
0.0
  0
VERTEX
  5
683
  8
0
 10
60.90199971721827
 20
91.67451328759525
 30
0.0
  0
VERTEX
  5
684
  8
0
 10
60.71167578964005
 20
92.3492796179541
 30
0.0
  0
VERTEX
  5
685
  8
0
 10
60.38813169668583
 20
92.95341244848062
 30
0.0
  0
VERTEX
  5
686
  8
0
 10
59.94380105641333
 20
93.4636952932785
 30
0.0
  0
VERTEX
  5
687
  8
0
 10
59.39575924616002
 20
93.86051826877451
 30
0.0
  0
VERTEX
  5
688
  8
0
 10
58.76506720536739
 20
94.1286316905476
 30
0.0
  0
VERTEX
  5
689
  8
0
 10
58.07596207548863
 20
94.25773211014955
 30
0.0
  0
VERTEX
  5
68A
  8
0
 10
57.35492578023406
 20
94.24285827085095
 30
0.0
  0
VERTEX
  5
68B
  8
0
 10
56.62966734009329
 20
94.0845817659552
 30
0.0
  0
VERTEX
  5
68C
  8
0
 10
55.92805803021627
 20
93.78898507278844
 30
0.0
  0
VERTEX
  5
68D
  8
0
 10
55.27706030293866
 20
93.36742780650667
 30
0.0
  0
VERTEX
  5
68E
  8
0
 10
54.70169163585839
 20
92.83611017645558
 30
0.0
  0
VERTEX
  5
68F
  8
0
 10
54.22406312420068
 20
92.21545042120991
 30
0.0
  0
VERTEX
  5
690
  8
0
 10
53.8625297638278
 20
91.52930014711511
 30
0.0
  0
VERTEX
  5
691
  8
0
 10
53.63098507904107
 20
90.80402772443075
 30
0.0
  0
VERTEX
  5
692
  8
0
 10
53.53832720223306
 20
90.06750496564807
 30
0.0
  0
VERTEX
  5
693
  8
0
 10
53.58811692364954
 20
89.34803602736567
 30
0.0
  0
VERTEX
  5
694
  8
0
 10
53.77844085221718
 20
88.67326969742366
 30
0.0
  0
VERTEX
  5
695
  8
0
 10
54.10198494608944
 20
88.06913686749162
 30
0.0
  0
VERTEX
  5
696
  8
0
 10
54.54631558717335
 20
87.55885402344299
 30
0.0
  0
SEQEND
  5
77C
  8
0
  0
POLYLINE
  5
339
  8
0
 66
     1
 10
0.0
 20
0.0
 30
0.0
  0
VERTEX
  5
697
  8
0
 10
61.03594384
 20
60.65259727
 30
0.0
  0
VERTEX
  5
698
  8
0
 10
61.58398564957976
 20
60.25577429362873
 30
0.0
  0
VERTEX
  5
699
  8
0
 10
62.21467768986254
 20
59.98766087088802
 30
0.0
  0
VERTEX
  5
69A
  8
0
 10
62.90378281941479
 20
59.8585604502633
 30
0.0
  0
VERTEX
  5
69B
  8
0
 10
63.62481911453869
 20
59.87343428852326
 30
0.0
  0
VERTEX
  5
69C
  8
0
 10
64.35007755474966
 20
60.0317107924044
 30
0.0
  0
VERTEX
  5
69D
  8
0
 10
65.05168686489509
 20
60.3273074846196
 30
0.0
  0
VERTEX
  5
69E
  8
0
 10
65.70268459262897
 20
60.74886475004941
 30
0.0
  0
VERTEX
  5
69F
  8
0
 10
66.27805326033582
 20
61.28018237938092
 30
0.0
  0
VERTEX
  5
6A0
  8
0
 10
66.7556817727664
 20
61.90084213406698
 30
0.0
  0
VERTEX
  5
6A1
  8
0
 10
67.11721513402868
 20
62.58699240778368
 30
0.0
  0
VERTEX
  5
6A2
  8
0
 10
67.34875981978719
 20
63.31226483028598
 30
0.0
  0
VERTEX
  5
6A3
  8
0
 10
67.441417697612
 20
64.04878758908966
 30
0.0
  0
VERTEX
  5
6A4
  8
0
 10
67.39162797721829
 20
64.76825652759524
 30
0.0
  0
VERTEX
  5
6A5
  8
0
 10
67.20130404964007
 20
65.4430228579541
 30
0.0
  0
VERTEX
  5
6A6
  8
0
 10
66.87775995668582
 20
66.04715568848061
 30
0.0
  0
VERTEX
  5
6A7
  8
0
 10
66.43342931641332
 20
66.5574385332785
 30
0.0
  0
VERTEX
  5
6A8
  8
0
 10
65.88538750616003
 20
66.95426150877451
 30
0.0
  0
VERTEX
  5
6A9
  8
0
 10
65.25469546536739
 20
67.2223749305476
 30
0.0
  0
VERTEX
  5
6AA
  8
0
 10
64.56559033548864
 20
67.35147535014954
 30
0.0
  0
VERTEX
  5
6AB
  8
0
 10
63.84455404023406
 20
67.33660151085094
 30
0.0
  0
VERTEX
  5
6AC
  8
0
 10
63.1192956000933
 20
67.1783250059552
 30
0.0
  0
VERTEX
  5
6AD
  8
0
 10
62.41768629021628
 20
66.88272831278843
 30
0.0
  0
VERTEX
  5
6AE
  8
0
 10
61.76668856293865
 20
66.46117104650668
 30
0.0
  0
VERTEX
  5
6AF
  8
0
 10
61.19131989585839
 20
65.92985341645556
 30
0.0
  0
VERTEX
  5
6B0
  8
0
 10
60.71369138420068
 20
65.3091936612099
 30
0.0
  0
VERTEX
  5
6B1
  8
0
 10
60.3521580238278
 20
64.62304338711512
 30
0.0
  0
VERTEX
  5
6B2
  8
0
 10
60.12061333904107
 20
63.89777096443075
 30
0.0
  0
VERTEX
  5
6B3
  8
0
 10
60.02795546223307
 20
63.16124820564806
 30
0.0
  0
VERTEX
  5
6B4
  8
0
 10
60.07774518364955
 20
62.44177926736566
 30
0.0
  0
VERTEX
  5
6B5
  8
0
 10
60.26806911221718
 20
61.76701293742366
 30
0.0
  0
VERTEX
  5
6B6
  8
0
 10
60.59161320608945
 20
61.16288010749162
 30
0.0
  0
VERTEX
  5
6B7
  8
0
 10
61.03594384717335
 20
60.65259726344301
 30
0.0
  0
SEQEND
  5
77D
  8
0
  0
POLYLINE
  5
33A
  8
0
 66
     1
 10
0.0
 20
0.0
 30
0.0
  0
VERTEX
  5
6B8
  8
0
 10
54.54631558
 20
31.80688407
 30
0.0
  0
VERTEX
  5
6B9
  8
0
 10
55.09435738957976
 20
31.41006109362872
 30
0.0
  0
VERTEX
  5
6BA
  8
0
 10
55.72504942986254
 20
31.14194767088802
 30
0.0
  0
VERTEX
  5
6BB
  8
0
 10
56.41415455941478
 20
31.0128472502633
 30
0.0
  0
VERTEX
  5
6BC
  8
0
 10
57.13519085453868
 20
31.02772108852325
 30
0.0
  0
VERTEX
  5
6BD
  8
0
 10
57.86044929474966
 20
31.18599759240439
 30
0.0
  0
VERTEX
  5
6BE
  8
0
 10
58.56205860489508
 20
31.4815942846196
 30
0.0
  0
VERTEX
  5
6BF
  8
0
 10
59.21305633262896
 20
31.90315155004942
 30
0.0
  0
VERTEX
  5
6C0
  8
0
 10
59.78842500033583
 20
32.43446917938092
 30
0.0
  0
VERTEX
  5
6C1
  8
0
 10
60.2660535127664
 20
33.05512893406699
 30
0.0
  0
VERTEX
  5
6C2
  8
0
 10
60.62758687402868
 20
33.74127920778368
 30
0.0
  0
VERTEX
  5
6C3
  8
0
 10
60.85913155978718
 20
34.46655163028598
 30
0.0
  0
VERTEX
  5
6C4
  8
0
 10
60.951789437612
 20
35.20307438908965
 30
0.0
  0
VERTEX
  5
6C5
  8
0
 10
60.90199971721827
 20
35.92254332759525
 30
0.0
  0
VERTEX
  5
6C6
  8
0
 10
60.71167578964005
 20
36.5973096579541
 30
0.0
  0
VERTEX
  5
6C7
  8
0
 10
60.38813169668583
 20
37.20144248848062
 30
0.0
  0
VERTEX
  5
6C8
  8
0
 10
59.94380105641333
 20
37.71172533327849
 30
0.0
  0
VERTEX
  5
6C9
  8
0
 10
59.39575924616002
 20
38.10854830877452
 30
0.0
  0
VERTEX
  5
6CA
  8
0
 10
58.76506720536739
 20
38.3766617305476
 30
0.0
  0
VERTEX
  5
6CB
  8
0
 10
58.07596207548863
 20
38.50576215014955
 30
0.0
  0
VERTEX
  5
6CC
  8
0
 10
57.35492578023406
 20
38.49088831085094
 30
0.0
  0
VERTEX
  5
6CD
  8
0
 10
56.62966734009329
 20
38.33261180595521
 30
0.0
  0
VERTEX
  5
6CE
  8
0
 10
55.92805803021627
 20
38.03701511278845
 30
0.0
  0
VERTEX
  5
6CF
  8
0
 10
55.27706030293866
 20
37.61545784650667
 30
0.0
  0
VERTEX
  5
6D0
  8
0
 10
54.70169163585839
 20
37.08414021645557
 30
0.0
  0
VERTEX
  5
6D1
  8
0
 10
54.22406312420068
 20
36.4634804612099
 30
0.0
  0
VERTEX
  5
6D2
  8
0
 10
53.8625297638278
 20
35.77733018711511
 30
0.0
  0
VERTEX
  5
6D3
  8
0
 10
53.63098507904107
 20
35.05205776443075
 30
0.0
  0
VERTEX
  5
6D4
  8
0
 10
53.53832720223306
 20
34.31553500564806
 30
0.0
  0
VERTEX
  5
6D5
  8
0
 10
53.58811692364954
 20
33.59606606736566
 30
0.0
  0
VERTEX
  5
6D6
  8
0
 10
53.77844085221718
 20
32.92129973742366
 30
0.0
  0
VERTEX
  5
6D7
  8
0
 10
54.10198494608944
 20
32.31716690749163
 30
0.0
  0
VERTEX
  5
6D8
  8
0
 10
54.54631558717335
 20
31.806884063443
 30
0.0
  0
SEQEND
  5
77E
  8
0
  0
POLYLINE
  5
33B
  8
0
 66
     1
 10
0.0
 20
0.0
 30
0.0
  0
VERTEX
  5
6D9
  8
0
 10
71.15140458426959
 20
90.73086470367913
 30
0.0
  0
VERTEX
  5
6DA
  8
0
 10
70.98641554559231
 20
92.45142910585145
 30
0.0
  0
VERTEX
  5
6DB
  8
0
 10
70.49732085717355
 20
94.061445873865
 30
0.0
  0
VERTEX
  5
6DC
  8
0
 10
69.70152881521722
 20
95.50360984891397
 30
0.0
  0
VERTEX
  5
6DD
  8
0
 10
68.6273639628254
 20
96.7265902391358
 30
0.0
  0
SEQEND
  5
77F
  8
0
  0
LINE
  5
33C
  8
0
 10
71.1514046
 20
38.69569275
 30
0.0
 11
71.1514046
 21
90.7308647
 31
0.0
  0
POLYLINE
  5
33D
  8
0
 66
     1
 10
0.0
 20
0.0
 30
0.0
  0
VERTEX
  5
6DE
  8
0
 10
61.88050702360405
 20
28.01837173319134
 30
0.0
  0
VERTEX
  5
6DF
  8
0
 10
63.68916940781706
 20
28.46717850882572
 30
0.0
  0
VERTEX
  5
6E0
  8
0
 10
65.42832591279884
 20
29.25582404948082
 30
0.0
  0
VERTEX
  5
6E1
  8
0
 10
67.0311417291213
 20
30.3540011491835
 30
0.0
  0
VERTEX
  5
6E2
  8
0
 10
68.43602154358204
 20
31.71950747768533
 30
0.0
  0
VERTEX
  5
6E3
  8
0
 10
69.58897661255745
 20
33.29986739235329
 30
0.0
  0
VERTEX
  5
6E4
  8
0
 10
70.44569951915118
 20
35.03434854769571
 30
0.0
  0
VERTEX
  5
6E5
  8
0
 10
70.97326688238466
 20
36.85629580534987
 30
0.0
  0
VERTEX
  5
6E6
  8
0
 10
71.15140458426959
 20
38.69569275367913
 30
0.0
  0
SEQEND
  5
780
  8
0
  0
LINE
  5
33E
  8
0
 10
42.24829228
 20
25.08478108
 30
0.0
 11
61.88050708
 21
28.01837173
 31
0.0
  0
LINE
  5
33F
  8
0
 10
42.24829228
 20
25.08478108
 30
0.0
 11
42.24829228
 21
95.70394303
 31
0.0
  0
LINE
  5
340
  8
0
 10
61.88050708
 20
98.63753367
 30
0.0
 11
42.24829228
 21
95.70394303
 31
0.0
  0
POLYLINE
  5
341
  8
0
 66
     1
 10
0.0
 20
0.0
 30
0.0
  0
VERTEX
  5
6E7
  8
0
 10
68.6273639628254
 20
96.7265902391358
 30
0.0
  0
VERTEX
  5
6E8
  8
0
 10
67.20116488576743
 20
97.74997826557036
 30
0.0
  0
VERTEX
  5
6E9
  8
0
 10
65.55483090487851
 20
98.4256441550694
 30
0.0
  0
VERTEX
  5
6EA
  8
0
 10
63.75647682584371
 20
98.72563316011181
 30
0.0
  0
VERTEX
  5
6EB
  8
0
 10
61.88050707696758
 20
98.63753364792842
 30
0.0
  0
SEQEND
  5
781
  8
0
  0
LINE
  5
342
  8
0
 10
67.87768509
 20
97.4118552
 30
0.0
 11
68.62736394
 21
96.72659026
 31
0.0
  0
POLYLINE
  5
343
  8
0
 66
     1
 10
0.0
 20
0.0
 30
0.0
  0
VERTEX
  5
6EC
  8
0
 10
67.8776851128254
 20
97.41185517913581
 30
0.0
  0
VERTEX
  5
6ED
  8
0
 10
66.45148603576743
 20
98.43524320557037
 30
0.0
  0
VERTEX
  5
6EE
  8
0
 10
64.80515205487852
 20
99.11090909506942
 30
0.0
  0
VERTEX
  5
6EF
  8
0
 10
63.00679797584371
 20
99.41089810011182
 30
0.0
  0
VERTEX
  5
6F0
  8
0
 10
61.13082822696759
 20
99.32279858792843
 30
0.0
  0
SEQEND
  5
782
  8
0
  0
LINE
  5
344
  8
0
 10
61.13082823
 20
99.3227986
 30
0.0
 11
61.88050708
 21
98.63753367
 31
0.0
  0
LINE
  5
345
  8
0
 10
41.51743904
 20
96.39202102
 30
0.0
 11
61.13082823
 21
99.3227986
 31
0.0
  0
LINE
  5
346
  8
0
 10
41.20639474200618
 20
96.35612471820075
 30
0.0
 11
41.51743903976697
 21
96.39202102414175
 31
0.0
  0
POLYLINE
  5
347
  8
0
 66
     1
 10
0.0
 20
0.0
 30
0.0
  0
VERTEX
  5
6F1
  8
0
 10
31.43099550694322
 20
93.99079289131849
 30
0.0
  0
VERTEX
  5
6F2
  8
0
 10
31.73836564124379
 20
93.65674309949473
 30
0.0
  0
VERTEX
  5
6F3
  8
0
 10
32.21192871060232
 20
93.35037392213538
 30
0.0
  0
VERTEX
  5
6F4
  8
0
 10
32.83441951984059
 20
93.08285498792549
 30
0.0
  0
VERTEX
  5
6F5
  8
0
 10
33.58314325592623
 20
92.86393952069491
 30
0.0
  0
VERTEX
  5
6F6
  8
0
 10
34.43080289703786
 20
92.70160875570843
 30
0.0
  0
VERTEX
  5
6F7
  8
0
 10
35.34649440927708
 20
92.60178095923777
 30
0.0
  0
VERTEX
  5
6F8
  8
0
 10
36.29683344807655
 20
92.56809566
 30
0.0
  0
VERTEX
  5
6F9
  8
0
 10
37.24717248694614
 20
92.60178095896754
 30
0.0
  0
VERTEX
  5
6FA
  8
0
 10
38.16286399939318
 20
92.70160875517783
 30
0.0
  0
VERTEX
  5
6FB
  8
0
 10
39.01052364084274
 20
92.86393951992328
 30
0.0
  0
VERTEX
  5
6FC
  8
0
 10
39.75924737738411
 20
93.08285498694096
 30
0.0
  0
VERTEX
  5
6FD
  8
0
 10
40.38173818717931
 20
93.35037392097385
 30
0.0
  0
VERTEX
  5
6FE
  8
0
 10
40.85530125717563
 20
93.65674309819855
 30
0.0
  0
VERTEX
  5
6FF
  8
0
 10
41.16267139217162
 20
93.99079288993491
 30
0.0
  0
SEQEND
  5
783
  8
0
  0
LINE
  5
348
  8
0
 10
41.36253348
 20
95.64539105
 30
0.0
 11
41.62489858
 21
95.65152588
 31
0.0
  0
POLYLINE
  5
349
  8
0
 66
     1
 10
0.0
 20
0.0
 30
0.0
  0
VERTEX
  5
700
  8
0
 10
41.62489858214866
 20
95.65152587566814
 30
0.0
  0
VERTEX
  5
701
  8
0
 10
41.94229927892611
 20
95.6684689085588
 30
0.0
  0
VERTEX
  5
702
  8
0
 10
42.24829226976697
 20
95.70394302414175
 30
0.0
  0
SEQEND
  5
784
  8
0
  0
LINE
  5
34A
  8
0
 10
41.62489858
 20
84.12945209
 30
0.0
 11
41.62489858
 21
95.65152588
 31
0.0
  0
POLYLINE
  5
34B
  8
0
 66
     1
 10
0.0
 20
0.0
 30
0.0
  0
VERTEX
  5
34C
  8
0
 10
41.29683345
 20
84.12178101
 30
0.0
  0
VERTEX
  5
34D
  8
0
 10
41.62489858
 20
84.12945209
 30
0.0
  0
SEQEND
  5
34E
  8
0
  0
LINE
  5
34F
  8
0
 10
41.62489858214866
 20
84.12945208566815
 30
0.0
 11
41.93818548541557
 21
84.14605090201096
 31
0.0
  0
POLYLINE
  5
350
  8
0
 66
     1
 10
0.0
 20
0.0
 30
0.0
  0
VERTEX
  5
351
  8
0
 10
41.93818549
 20
84.1460509
 30
0.0
  0
VERTEX
  5
352
  8
0
 10
41.93818549
 20
67.88505967
 30
0.0
  0
SEQEND
  5
353
  8
0
  0
LINE
  5
354
  8
0
 10
41.62489858214866
 20
67.86846085566815
 30
0.0
 11
41.93818548541557
 21
67.88505967201095
 31
0.0
  0
LINE
  5
355
  8
0
 10
41.62489858
 20
52.81542896
 30
0.0
 11
41.62489858
 21
67.86846085
 31
0.0
  0
LINE
  5
356
  8
0
 10
41.62489858214866
 20
52.81542896566815
 30
0.0
 11
41.93818548541557
 21
52.83202778201095
 31
0.0
  0
POLYLINE
  5
357
  8
0
 66
     1
 10
0.0
 20
0.0
 30
0.0
  0
VERTEX
  5
358
  8
0
 10
41.93818549
 20
52.83202778
 30
0.0
  0
VERTEX
  5
359
  8
0
 10
41.93818549
 20
36.57103654
 30
0.0
  0
SEQEND
  5
35A
  8
0
  0
LINE
  5
35B
  8
0
 10
41.62489858214866
 20
36.55443772566815
 30
0.0
 11
41.93818548541557
 21
36.57103654201096
 31
0.0
  0
LINE
  5
35C
  8
0
 10
41.62489858
 20
25.03236394
 30
0.0
 11
41.62489858
 21
36.55443773
 31
0.0
  0
POLYLINE
  5
35D
  8
0
 66
     1
 10
0.0
 20
0.0
 30
0.0
  0
VERTEX
  5
703
  8
0
 10
41.62489858214866
 20
25.03236393566814
 30
0.0
  0
VERTEX
  5
704
  8
0
 10
41.94229927892611
 20
25.0493069685588
 30
0.0
  0
VERTEX
  5
705
  8
0
 10
42.24829226976697
 20
25.08478108414176
 30
0.0
  0
SEQEND
  5
785
  8
0
  0
LINE
  5
35E
  8
0
 10
41.62489858
 20
25.03236394
 30
0.0
 11
41.29683345
 21
25.02469285
 31
0.0
  0
LINE
  5
35F
  8
0
 10
41.29683345
 20
35.31890016
 30
0.0
 11
41.29525288211983
 21
35.36536013646459
 31
0.0
  0
POLYLINE
  5
360
  8
0
 66
     1
 10
0.0
 20
0.0
 30
0.0
  0
VERTEX
  5
706
  8
0
 10
31.29725526680718
 20
35.29489749222965
 30
0.0
  0
VERTEX
  5
707
  8
0
 10
31.4051491530916
 20
34.93635072157289
 30
0.0
  0
VERTEX
  5
708
  8
0
 10
31.69948135893766
 20
34.59238417934474
 30
0.0
  0
VERTEX
  5
709
  8
0
 10
32.16903390736237
 20
34.2761075717785
 30
0.0
  0
VERTEX
  5
70A
  8
0
 10
32.79591059273169
 20
33.99957524982001
 30
0.0
  0
VERTEX
  5
70B
  8
0
 10
33.55621906453838
 20
33.77332677781588
 30
0.0
  0
VERTEX
  5
70C
  8
0
 10
34.42098144415649
 20
33.605985235745
 30
0.0
  0
VERTEX
  5
70D
  8
0
 10
35.35723876794687
 20
33.50392856502856
 30
0.0
  0
VERTEX
  5
70E
  8
0
 10
36.32930716272189
 20
33.47104648401988
 30
0.0
  0
VERTEX
  5
70F
  8
0
 10
37.30013787655466
 20
33.50859223793164
 30
0.0
  0
VERTEX
  5
710
  8
0
 10
38.23272932964571
 20
33.61513483350238
 30
0.0
  0
VERTEX
  5
711
  8
0
 10
39.09153736730345
 20
33.78661357889792
 30
0.0
  0
VERTEX
  5
712
  8
0
 10
39.84382996561779
 20
34.01649285015079
 30
0.0
  0
VERTEX
  5
713
  8
0
 10
40.46093475749893
 20
34.29601118547542
 30
0.0
  0
VERTEX
  5
714
  8
0
 10
40.91933183172438
 20
34.61451521364803
 30
0.0
  0
VERTEX
  5
715
  8
0
 10
41.20155015479661
 20
34.95986568933265
 30
0.0
  0
VERTEX
  5
716
  8
0
 10
41.29683345
 20
35.31890016
 30
0.0
  0
SEQEND
  5
786
  8
0
  0
LINE
  5
361
  8
0
 10
41.29683345
 20
37.15728233
 30
0.0
 11
41.93818549
 21
36.57103654
 31
0.0
  0
LINE
  5
362
  8
0
 10
31.29683345
 20
23.79682637
 30
0.0
 11
31.29683345
 21
35.29476478
 31
0.0
  0
POLYLINE
  5
363
  8
0
 66
     1
 10
0.0
 20
0.0
 30
0.0
  0
VERTEX
  5
717
  8
0
 10
31.29683345
 20
23.79682637663355
 30
0.0
  0
VERTEX
  5
718
  8
0
 10
31.39290704470103
 20
23.43632040395973
 30
0.0
  0
VERTEX
  5
719
  8
0
 10
31.67743578143339
 20
23.08966847341831
 30
0.0
  0
VERTEX
  5
71A
  8
0
 10
32.1394853803851
 20
22.77019222432572
 30
0.0
  0
VERTEX
  5
71B
  8
0
 10
32.76129953454839
 20
22.49016894979819
 30
0.0
  0
VERTEX
  5
71C
  8
0
 10
33.51898227464173
 20
22.26035978726149
 30
0.0
  0
VERTEX
  5
71D
  8
0
 10
34.38341627781038
 20
22.08959617397355
 30
0.0
  0
VERTEX
  5
71E
  8
0
 10
35.32138183001706
 20
21.98444045984264
 30
0.0
  0
VERTEX
  5
71F
  8
0
 10
36.29683344102552
 20
21.94893372
 30
0.0
  0
VERTEX
  5
720
  8
0
 10
37.27228505237886
 20
21.98444045854849
 30
0.0
  0
VERTEX
  5
721
  8
0
 10
38.21025060560694
 20
22.089596171435
 30
0.0
  0
VERTEX
  5
722
  8
0
 10
39.07468461043425
 20
22.26035978357609
 30
0.0
  0
VERTEX
  5
723
  8
0
 10
39.83236735275978
 20
22.49016894510756
 30
0.0
  0
VERTEX
  5
724
  8
0
 10
40.45418150964299
 20
22.77019221881012
 30
0.0
  0
VERTEX
  5
725
  8
0
 10
40.91623111169784
 20
23.08966846728971
 30
0.0
  0
VERTEX
  5
726
  8
0
 10
41.2007598517973
 20
23.43632039745363
 30
0.0
  0
VERTEX
  5
727
  8
0
 10
41.29683345
 20
23.79682637
 30
0.0
  0
SEQEND
  5
787
  8
0
  0
LINE
  5
364
  8
0
 10
41.29683345
 20
23.79682637
 30
0.0
 11
41.29683345
 21
35.31890016
 31
0.0
  0
LINE
  5
365
  8
0
 10
41.62489858
 20
36.55443773
 30
0.0
 11
41.29683345
 21
36.54676664
 31
0.0
  0
LINE
  5
366
  8
0
 10
41.29683345
 20
52.80775788
 30
0.0
 11
41.62489858
 21
52.81542896
 31
0.0
  0
LINE
  5
367
  8
0
 10
41.29683345
 20
66.63292329
 30
0.0
 11
41.28694668821734
 21
66.74907322585466
 31
0.0
  0
POLYLINE
  5
368
  8
0
 66
     1
 10
0.0
 20
0.0
 30
0.0
  0
VERTEX
  5
728
  8
0
 10
31.29683345
 20
66.63292329663355
 30
0.0
  0
VERTEX
  5
729
  8
0
 10
31.39290704470103
 20
66.27241732395971
 30
0.0
  0
VERTEX
  5
72A
  8
0
 10
31.67743578143339
 20
65.9257653934183
 30
0.0
  0
VERTEX
  5
72B
  8
0
 10
32.1394853803851
 20
65.6062891443257
 30
0.0
  0
VERTEX
  5
72C
  8
0
 10
32.76129953454839
 20
65.32626586979819
 30
0.0
  0
VERTEX
  5
72D
  8
0
 10
33.51898227464173
 20
65.09645670726148
 30
0.0
  0
VERTEX
  5
72E
  8
0
 10
34.38341627781038
 20
64.92569309397355
 30
0.0
  0
VERTEX
  5
72F
  8
0
 10
35.32138183001706
 20
64.82053737984263
 30
0.0
  0
VERTEX
  5
730
  8
0
 10
36.29683344102552
 20
64.78503063999999
 30
0.0
  0
VERTEX
  5
731
  8
0
 10
37.27228505237886
 20
64.8205373785485
 30
0.0
  0
VERTEX
  5
732
  8
0
 10
38.21025060560694
 20
64.925693091435
 30
0.0
  0
VERTEX
  5
733
  8
0
 10
39.07468461043425
 20
65.09645670357608
 30
0.0
  0
VERTEX
  5
734
  8
0
 10
39.83236735275978
 20
65.32626586510756
 30
0.0
  0
VERTEX
  5
735
  8
0
 10
40.45418150964299
 20
65.60628913881011
 30
0.0
  0
VERTEX
  5
736
  8
0
 10
40.91623111169784
 20
65.9257653872897
 30
0.0
  0
VERTEX
  5
737
  8
0
 10
41.2007598517973
 20
66.27241731745363
 30
0.0
  0
VERTEX
  5
738
  8
0
 10
41.29683345
 20
66.63292329
 30
0.0
  0
SEQEND
  5
788
  8
0
  0
LINE
  5
369
  8
0
 10
31.30712153793903
 20
66.75140479158982
 30
0.0
 11
31.29683345
 21
66.63292329663355
 31
0.0
  0
LINE
  5
36A
  8
0
 10
41.29683345
 20
68.47130545
 30
0.0
 11
41.93818549
 21
67.88505967
 31
0.0
  0
LINE
  5
36B
  8
0
 10
31.29683345
 20
51.5798914
 30
0.0
 11
31.29683345
 21
66.63292329
 31
0.0
  0
POLYLINE
  5
36C
  8
0
 66
     1
 10
0.0
 20
0.0
 30
0.0
  0
VERTEX
  5
739
  8
0
 10
31.29683345
 20
51.57989140663355
 30
0.0
  0
VERTEX
  5
73A
  8
0
 10
31.39290704470103
 20
51.21938543395972
 30
0.0
  0
VERTEX
  5
73B
  8
0
 10
31.67743578143339
 20
50.87273350341831
 30
0.0
  0
VERTEX
  5
73C
  8
0
 10
32.1394853803851
 20
50.55325725432571
 30
0.0
  0
VERTEX
  5
73D
  8
0
 10
32.76129953454839
 20
50.27323397979819
 30
0.0
  0
VERTEX
  5
73E
  8
0
 10
33.51898227464173
 20
50.0434248172615
 30
0.0
  0
VERTEX
  5
73F
  8
0
 10
34.38341627781038
 20
49.87266120397355
 30
0.0
  0
VERTEX
  5
740
  8
0
 10
35.32138183001706
 20
49.76750548984263
 30
0.0
  0
VERTEX
  5
741
  8
0
 10
36.29683344102552
 20
49.73199875
 30
0.0
  0
VERTEX
  5
742
  8
0
 10
37.27228505237886
 20
49.76750548854849
 30
0.0
  0
VERTEX
  5
743
  8
0
 10
38.21025060560694
 20
49.872661201435
 30
0.0
  0
VERTEX
  5
744
  8
0
 10
39.07468461043425
 20
50.04342481357609
 30
0.0
  0
VERTEX
  5
745
  8
0
 10
39.83236735275978
 20
50.27323397510757
 30
0.0
  0
VERTEX
  5
746
  8
0
 10
40.45418150964299
 20
50.55325724881011
 30
0.0
  0
VERTEX
  5
747
  8
0
 10
40.91623111169784
 20
50.8727334972897
 30
0.0
  0
VERTEX
  5
748
  8
0
 10
41.2007598517973
 20
51.21938542745363
 30
0.0
  0
VERTEX
  5
749
  8
0
 10
41.29683345
 20
51.5798914
 30
0.0
  0
SEQEND
  5
789
  8
0
  0
LINE
  5
36D
  8
0
 10
41.29683345
 20
51.5798914
 30
0.0
 11
41.29683345
 21
66.63292329
 31
0.0
  0
LINE
  5
36E
  8
0
 10
41.62489858
 20
67.86846085
 30
0.0
 11
41.29683345
 21
67.86078977
 31
0.0
  0
LINE
  5
36F
  8
0
 10
41.29683345
 20
82.89391452
 30
0.0
 11
41.29683345
 21
94.18394641
 31
0.0
  0
POLYLINE
  5
370
  8
0
 66
     1
 10
0.0
 20
0.0
 30
0.0
  0
VERTEX
  5
74A
  8
0
 10
31.29683345
 20
82.89391452663355
 30
0.0
  0
VERTEX
  5
74B
  8
0
 10
31.39290704470103
 20
82.53340855395972
 30
0.0
  0
VERTEX
  5
74C
  8
0
 10
31.67743578143339
 20
82.1867566234183
 30
0.0
  0
VERTEX
  5
74D
  8
0
 10
32.1394853803851
 20
81.8672803743257
 30
0.0
  0
VERTEX
  5
74E
  8
0
 10
32.76129953454839
 20
81.5872570997982
 30
0.0
  0
VERTEX
  5
74F
  8
0
 10
33.51898227464173
 20
81.35744793726148
 30
0.0
  0
VERTEX
  5
750
  8
0
 10
34.38341627781038
 20
81.18668432397355
 30
0.0
  0
VERTEX
  5
751
  8
0
 10
35.32138183001706
 20
81.08152860984264
 30
0.0
  0
VERTEX
  5
752
  8
0
 10
36.29683344102552
 20
81.04602186999999
 30
0.0
  0
VERTEX
  5
753
  8
0
 10
37.27228505237886
 20
81.0815286085485
 30
0.0
  0
VERTEX
  5
754
  8
0
 10
38.21025060560694
 20
81.186684321435
 30
0.0
  0
VERTEX
  5
755
  8
0
 10
39.07468461043425
 20
81.35744793357608
 30
0.0
  0
VERTEX
  5
756
  8
0
 10
39.83236735275978
 20
81.58725709510756
 30
0.0
  0
VERTEX
  5
757
  8
0
 10
40.45418150964299
 20
81.86728036881011
 30
0.0
  0
VERTEX
  5
758
  8
0
 10
40.91623111169784
 20
82.1867566172897
 30
0.0
  0
VERTEX
  5
759
  8
0
 10
41.2007598517973
 20
82.53340854745363
 30
0.0
  0
VERTEX
  5
75A
  8
0
 10
41.29683345
 20
82.89391452
 30
0.0
  0
SEQEND
  5
78A
  8
0
  0
LINE
  5
371
  8
0
 10
31.29683345
 20
82.89391452
 30
0.0
 11
31.29683345
 21
94.18394641
 31
0.0
  0
LINE
  5
372
  8
0
  6
STRICHPUNKT2
 62
     1
 10
64.29694572
 20
63.0910692
 30
0.0
 11
62.42274861
 21
64.80423154
 31
0.0
  0
LINE
  5
373
  8
0
  6
STRICHPUNKT2
 62
     1
 10
63.73468658
 20
63.6050179
 30
0.0
 11
67.90659046
 21
64.22841462
 31
0.0
  0
LINE
  5
374
  8
0
  6
STRICHPUNKT2
 62
     1
 10
63.73468658
 20
63.6050179
 30
0.0
 11
59.5627827
 21
62.98162119
 31
0.0
  0
LINE
  5
375
  8
0
  6
STRICHPUNKT2
 62
     1
 10
63.73468658
 20
63.6050179
 30
0.0
 11
63.73468658
 21
67.78641565
 31
0.0
  0
LINE
  5
376
  8
0
  6
STRICHPUNKT2
 62
     1
 10
63.73468658
 20
63.6050179
 30
0.0
 11
63.73468658
 21
59.42362016
 31
0.0
  0
LINE
  5
377
  8
0
  6
STRICHPUNKT2
 62
     1
 10
62.98500774
 20
64.29028284
 30
0.0
 11
65.76627699
 21
64.70588065
 31
0.0
  0
LINE
  5
378
  8
0
  6
STRICHPUNKT2
 62
     1
 10
62.98500774
 20
64.29028284
 30
0.0
 11
60.60716435
 21
63.93496791
 31
0.0
  0
LINE
  5
379
  8
0
  6
STRICHPUNKT2
 62
     1
 10
62.98500774
 20
64.29028284
 30
0.0
 11
62.98500774
 21
66.65380502
 31
0.0
  0
LINE
  5
37A
  8
0
  6
STRICHPUNKT2
 62
     1
 10
62.98500774
 20
64.29028284
 30
0.0
 11
62.98500774
 21
61.50268434
 31
0.0
  0
LINE
  5
37B
  8
0
  6
STRICHPUNKT2
 62
     1
 10
57.80731745
 20
89.99732596
 30
0.0
 11
55.93312034
 21
91.7104883
 31
0.0
  0
LINE
  5
37C
  8
0
  6
STRICHPUNKT2
 62
     1
 10
57.24505832
 20
90.51127466
 30
0.0
 11
61.4169622
 21
91.13467137
 31
0.0
  0
LINE
  5
37D
  8
0
  6
STRICHPUNKT2
 62
     1
 10
57.24505832
 20
90.51127466
 30
0.0
 11
53.07315444
 21
89.88787794
 31
0.0
  0
LINE
  5
37E
  8
0
  6
STRICHPUNKT2
 62
     1
 10
57.24505832
 20
90.51127466
 30
0.0
 11
57.24505832
 21
94.6926724
 31
0.0
  0
LINE
  5
37F
  8
0
  6
STRICHPUNKT2
 62
     1
 10
57.24505832
 20
90.51127466
 30
0.0
 11
57.24505832
 21
86.32987691
 31
0.0
  0
LINE
  5
380
  8
0
  6
STRICHPUNKT2
 62
     1
 10
56.49537948
 20
91.1965396
 30
0.0
 11
59.27664873
 21
91.6121374
 31
0.0
  0
LINE
  5
381
  8
0
  6
STRICHPUNKT2
 62
     1
 10
56.49537948
 20
91.1965396
 30
0.0
 11
54.11753609
 21
90.84122466
 31
0.0
  0
LINE
  5
382
  8
0
  6
STRICHPUNKT2
 62
     1
 10
56.49537948
 20
91.1965396
 30
0.0
 11
56.49537948
 21
93.56006177
 31
0.0
  0
LINE
  5
383
  8
0
  6
STRICHPUNKT2
 62
     1
 10
56.49537948
 20
91.1965396
 30
0.0
 11
56.49537948
 21
88.4089411
 31
0.0
  0
LINE
  5
384
  8
0
  6
STRICHPUNKT2
 62
     1
 10
57.80731745
 20
34.245356
 30
0.0
 11
55.93312034
 21
35.95851834
 31
0.0
  0
LINE
  5
385
  8
0
  6
STRICHPUNKT2
 62
     1
 10
57.24505832
 20
34.7593047
 30
0.0
 11
61.4169622
 21
35.38270142
 31
0.0
  0
LINE
  5
386
  8
0
  6
STRICHPUNKT2
 62
     1
 10
57.24505832
 20
34.7593047
 30
0.0
 11
53.07315444
 21
34.13590799
 31
0.0
  0
LINE
  5
387
  8
0
  6
STRICHPUNKT2
 62
     1
 10
57.24505832
 20
34.7593047
 30
0.0
 11
57.24505832
 21
38.94070245
 31
0.0
  0
LINE
  5
388
  8
0
  6
STRICHPUNKT2
 62
     1
 10
57.24505832
 20
34.7593047
 30
0.0
 11
57.24505832
 21
30.57790696
 31
0.0
  0
LINE
  5
389
  8
0
  6
STRICHPUNKT2
 62
     1
 10
56.49537948
 20
35.44456964
 30
0.0
 11
59.27664873
 21
35.86016745
 31
0.0
  0
LINE
  5
38A
  8
0
  6
STRICHPUNKT2
 62
     1
 10
56.49537948
 20
35.44456964
 30
0.0
 11
54.11753609
 21
35.08925471
 31
0.0
  0
LINE
  5
38B
  8
0
  6
STRICHPUNKT2
 62
     1
 10
56.49537948
 20
35.44456964
 30
0.0
 11
56.49537948
 21
37.80809182
 31
0.0
  0
LINE
  5
38C
  8
0
  6
STRICHPUNKT2
 62
     1
 10
56.49537948
 20
35.44456964
 30
0.0
 11
56.49537948
 21
32.65697114
 31
0.0
  0
TEXT
  5
38D
  8
TXT_DIM49
 10
153.35355435
 20
97.01896819
 30
0.0
 40
2.5
  1
8
  7
ARIAL
  0
LINE
  5
38E
  8
0
 62
     4
 10
151.31347207
 20
96.51896819
 30
0.0
 11
149.31347207
 21
94.51896819
 31
0.0
  0
LINE
  5
38F
  8
0
 62
     4
 10
157.56347207
 20
94.76896819
 30
0.0
 11
159.06347207
 21
96.26896819
 31
0.0
  0
LINE
  5
390
  8
0
 62
     4
 10
150.31347207
 20
95.51896819
 30
0.0
 11
158.31347207
 21
95.51896819
 31
0.0
  0
LINE
  5
391
  8
0
 62
     4
 10
150.31347207
 20
93.51896819
 30
0.0
 11
150.31347207
 21
97.51896819
 31
0.0
  0
LINE
  5
392
  8
0
 62
     4
 10
158.31347207
 20
93.51896819
 30
0.0
 11
158.31347207
 21
97.51896819
 31
0.0
  0
TEXT
  5
393
  8
TXT_DIM49
 10
160.85355435
 20
97.01896819
 30
0.0
 40
2.5
  1
7
  7
ARIAL
  0
LINE
  5
394
  8
0
 62
     4
 10
159.31347207
 20
96.51896819
 30
0.0
 11
157.31347207
 21
94.51896819
 31
0.0
  0
LINE
  5
395
  8
0
 62
     4
 10
164.56347207
 20
94.76896819
 30
0.0
 11
166.06347207
 21
96.26896819
 31
0.0
  0
LINE
  5
396
  8
0
 62
     4
 10
158.31347207
 20
95.51896819
 30
0.0
 11
165.31347207
 21
95.51896819
 31
0.0
  0
LINE
  5
397
  8
0
 62
     4
 10
158.31347207
 20
93.51896819
 30
0.0
 11
158.31347207
 21
97.51896819
 31
0.0
  0
LINE
  5
398
  8
0
 62
     4
 10
165.31347207
 20
93.51896819
 30
0.0
 11
165.31347207
 21
97.51896819
 31
0.0
  0
TEXT
  5
399
  8
TXT_DIM49
 10
186.39363663
 20
97.01896819
 30
0.0
 40
2.5
  1
46
  7
ARIAL
  0
LINE
  5
39A
  8
0
 62
     4
 10
166.31347207
 20
96.51896819
 30
0.0
 11
164.31347207
 21
94.51896819
 31
0.0
  0
LINE
  5
39B
  8
0
 62
     4
 10
210.56347207
 20
94.76896819
 30
0.0
 11
212.06347207
 21
96.26896819
 31
0.0
  0
LINE
  5
39C
  8
0
 62
     4
 10
165.31347207
 20
95.51896819
 30
0.0
 11
211.31347207
 21
95.51896819
 31
0.0
  0
LINE
  5
39D
  8
0
 62
     4
 10
165.31347207
 20
93.51896819
 30
0.0
 11
165.31347207
 21
97.51896819
 31
0.0
  0
LINE
  5
39E
  8
0
 62
     4
 10
211.31347207
 20
93.51896819
 30
0.0
 11
211.31347207
 21
97.51896819
 31
0.0
  0
TEXT
  5
39F
  8
TXT_DIM49
 10
213.85355435
 20
97.01896819
 30
0.0
 40
2.5
  1
7
  7
ARIAL
  0
LINE
  5
3A0
  8
0
 62
     4
 10
212.31347207
 20
96.51896819
 30
0.0
 11
210.31347207
 21
94.51896819
 31
0.0
  0
LINE
  5
3A1
  8
0
 62
     4
 10
217.56347207
 20
94.76896819
 30
0.0
 11
219.06347207
 21
96.26896819
 31
0.0
  0
LINE
  5
3A2
  8
0
 62
     4
 10
211.31347207
 20
95.51896819
 30
0.0
 11
218.31347207
 21
95.51896819
 31
0.0
  0
LINE
  5
3A3
  8
0
 62
     4
 10
211.31347207
 20
93.51896819
 30
0.0
 11
211.31347207
 21
97.51896819
 31
0.0
  0
LINE
  5
3A4
  8
0
 62
     4
 10
218.31347207
 20
93.51896819
 30
0.0
 11
218.31347207
 21
97.51896819
 31
0.0
  0
TEXT
  5
3A5
  8
TXT_DIM49
 10
221.35355435
 20
97.01896819
 30
0.0
 40
2.5
  1
8
  7
ARIAL
  0
LINE
  5
3A6
  8
0
 62
     4
 10
219.31347207
 20
96.51896819
 30
0.0
 11
217.31347207
 21
94.51896819
 31
0.0
  0
LINE
  5
3A7
  8
0
 62
     4
 10
225.56347207
 20
94.76896819
 30
0.0
 11
227.06347207
 21
96.26896819
 31
0.0
  0
LINE
  5
3A8
  8
0
 62
     4
 10
218.31347207
 20
95.51896819
 30
0.0
 11
226.31347207
 21
95.51896819
 31
0.0
  0
LINE
  5
3A9
  8
0
 62
     4
 10
218.31347207
 20
93.51896819
 30
0.0
 11
218.31347207
 21
97.51896819
 31
0.0
  0
LINE
  5
3AA
  8
0
 62
     4
 10
226.31347207
 20
93.51896819
 30
0.0
 11
226.31347207
 21
97.51896819
 31
0.0
  0
TEXT
  5
3AB
  8
TXT_DIM49
 10
139.40155956
 20
80.22309478
 30
0.0
 40
2.5
  1
8
 50
90.00020741
  7
ARIAL
  0
LINE
  5
3AC
  8
0
 62
     4
 10
141.90155956
 20
84.18301251
 30
0.0
 11
139.90155956
 21
86.18301251
 31
0.0
  0
LINE
  5
3AD
  8
0
 62
     4
 10
140.15155956
 20
77.93301251
 30
0.0
 11
141.65155956
 21
76.43301251
 31
0.0
  0
LINE
  5
3AE
  8
0
 62
     4
 10
140.90155956
 20
85.18301251
 30
0.0
 11
140.90155956
 21
77.18301251
 31
0.0
  0
LINE
  5
3AF
  8
0
 62
     4
 10
142.90155956
 20
85.18301251
 30
0.0
 11
138.90155956
 21
85.18301251
 31
0.0
  0
LINE
  5
3B0
  8
0
 62
     4
 10
142.90155956
 20
77.18301251
 30
0.0
 11
138.90155956
 21
77.18301251
 31
0.0
  0
TEXT
  5
3B1
  8
TXT_DIM49
 10
139.40155956
 20
60.26317706
 30
0.0
 40
2.5
  1
30
 50
90.00020741
  7
ARIAL
  0
LINE
  5
3B2
  8
0
 62
     4
 10
141.90155956
 20
76.18301251
 30
0.0
 11
139.90155956
 21
78.18301251
 31
0.0
  0
LINE
  5
3B3
  8
0
 62
     4
 10
140.15155956
 20
47.93301251
 30
0.0
 11
141.65155956
 21
46.43301251
 31
0.0
  0
LINE
  5
3B4
  8
0
 62
     4
 10
140.90155956
 20
77.18301251
 30
0.0
 11
140.90155956
 21
47.18301251
 31
0.0
  0
LINE
  5
3B5
  8
0
 62
     4
 10
142.90155956
 20
77.18301251
 30
0.0
 11
138.90155956
 21
77.18301251
 31
0.0
  0
LINE
  5
3B6
  8
0
 62
     4
 10
142.90155956
 20
47.18301251
 30
0.0
 11
138.90155956
 21
47.18301251
 31
0.0
  0
TEXT
  5
3B7
  8
TXT_DIM49
 10
139.40155956
 20
30.26317706
 30
0.0
 40
2.5
  1
30
 50
90.00020741
  7
ARIAL
  0
LINE
  5
3B8
  8
0
 62
     4
 10
141.90155956
 20
46.18301251
 30
0.0
 11
139.90155956
 21
48.18301251
 31
0.0
  0
LINE
  5
3B9
  8
0
 62
     4
 10
140.15155956
 20
17.93301251
 30
0.0
 11
141.65155956
 21
16.43301251
 31
0.0
  0
LINE
  5
3BA
  8
0
 62
     4
 10
140.90155956
 20
47.18301251
 30
0.0
 11
140.90155956
 21
17.18301251
 31
0.0
  0
LINE
  5
3BB
  8
0
 62
     4
 10
142.90155956
 20
47.18301251
 30
0.0
 11
138.90155956
 21
47.18301251
 31
0.0
  0
LINE
  5
3BC
  8
0
 62
     4
 10
142.90155956
 20
17.18301251
 30
0.0
 11
138.90155956
 21
17.18301251
 31
0.0
  0
TEXT
  5
3BD
  8
TXT_DIM49
 10
139.40155956
 20
12.22309478
 30
0.0
 40
2.5
  1
8
 50
90.00020741
  7
ARIAL
  0
LINE
  5
3BE
  8
0
 62
     4
 10
141.90155956
 20
16.18301251
 30
0.0
 11
139.90155956
 21
18.18301251
 31
0.0
  0
LINE
  5
3BF
  8
0
 62
     4
 10
140.15155956
 20
9.93301251
 30
0.0
 11
141.65155956
 21
8.43301251
 31
0.0
  0
LINE
  5
3C0
  8
0
 62
     4
 10
140.90155956
 20
17.18301251
 30
0.0
 11
140.90155956
 21
9.18301251
 31
0.0
  0
LINE
  5
3C1
  8
0
 62
     4
 10
142.90155956
 20
17.18301251
 30
0.0
 11
138.90155956
 21
17.18301251
 31
0.0
  0
LINE
  5
3C2
  8
0
 62
     4
 10
142.90155956
 20
9.18301251
 30
0.0
 11
138.90155956
 21
9.18301251
 31
0.0
  0
TEXT
  5
3C3
  8
TXT_DIM49
 10
239.40155956
 20
45.26317706
 30
0.0
 40
2.5
  1
76
 50
90.00020741
  7
ARIAL
  0
LINE
  5
3C4
  8
0
 62
     4
 10
241.90155956
 20
84.18301251
 30
0.0
 11
239.90155956
 21
86.18301251
 31
0.0
  0
LINE
  5
3C5
  8
0
 62
     4
 10
240.15155956
 20
9.93301251
 30
0.0
 11
241.65155956
 21
8.43301251
 31
0.0
  0
LINE
  5
3C6
  8
0
 62
     4
 10
240.90155956
 20
85.18301251
 30
0.0
 11
240.90155956
 21
9.18301251
 31
0.0
  0
LINE
  5
3C7
  8
0
 62
     4
 10
238.90155956
 20
85.18301251
 30
0.0
 11
242.90155956
 21
85.18301251
 31
0.0
  0
LINE
  5
3C8
  8
0
 62
     4
 10
238.90155956
 20
9.18301251
 30
0.0
 11
242.90155956
 21
9.18301251
 31
0.0
  0
LINE
  5
3C9
  8
0
 62
     4
 10
158.31347207
 20
47.18301251
 30
0.0
 11
160.65117148
 21
38.92793237
 31
0.0
  0
TEXT
  5
3CA
  8
TXT_DIM49
 10
160.65117148
 20
37.67793237
 30
0.0
 40
2.5
  1
Ø6
  7
ARIAL
  0
LINE
  5
3CB
  8
0
 62
     5
 10
218.31347207
 20
47.18301251
 30
0.0
 11
213.35264757
 21
55.70504698
 31
0.0
  0
TEXT
  5
3CC
  8
TXT_DIM49
 10
208.74773927
 20
54.45504698
 30
0.0
 40
2.5
  1
Ø6
  7
ARIAL
  0
TEXT
  5
3CD
  8
TXT_DIM49
 10
186.39363663
 20
139.38221567
 30
0.0
 40
2.5
  1
76
  7
ARIAL
  0
LINE
  5
3CE
  8
0
 62
     4
 10
151.31347207
 20
138.88221567
 30
0.0
 11
149.31347207
 21
136.88221567
 31
0.0
  0
LINE
  5
3CF
  8
0
 62
     4
 10
225.56347207
 20
137.13221567
 30
0.0
 11
227.06347207
 21
138.63221567
 31
0.0
  0
LINE
  5
3D0
  8
0
 62
     4
 10
150.31347207
 20
137.88221567
 30
0.0
 11
226.31347207
 21
137.88221567
 31
0.0
  0
LINE
  5
3D1
  8
0
 62
     4
 10
150.31347207
 20
135.88221567
 30
0.0
 11
150.31347207
 21
139.88221567
 31
0.0
  0
LINE
  5
3D2
  8
0
 62
     4
 10
226.31347207
 20
135.88221567
 30
0.0
 11
226.31347207
 21
139.88221567
 31
0.0
  0
TEXT
  5
3D3
  8
TXT_DIM49
 10
143.80907077
 20
126.47966733
 30
0.0
 40
2.5
  1
2
 50
90.00020741
  7
ARIAL
  0
LINE
  5
3D4
  8
0
 62
     4
 10
146.30907077
 20
127.43958505
 30
0.0
 11
144.30907077
 21
129.43958505
 31
0.0
  0
LINE
  5
3D5
  8
0
 62
     4
 10
144.55907077
 20
127.18958505
 30
0.0
 11
146.05907077
 21
125.68958505
 31
0.0
  0
LINE
  5
3D6
  8
0
 62
     4
 10
145.30907077
 20
128.43958505
 30
0.0
 11
145.30907077
 21
126.43958505
 31
0.0
  0
LINE
  5
3D7
  8
0
 62
     4
 10
147.30907077
 20
128.43958505
 30
0.0
 11
143.30907077
 21
128.43958505
 31
0.0
  0
LINE
  5
3D8
  8
0
 62
     4
 10
147.30907077
 20
126.43958505
 30
0.0
 11
143.30907077
 21
126.43958505
 31
0.0
  0
POINT
  5
3D9
  8
0
 10
146.65214112
 20
92.39954974
 30
0.0
  0
POINT
  5
3DA
  8
0
 62
     3
 10
285.32150843
 20
-77.9377682
 30
0.0
  0
POINT
  5
3DB
  8
0
 62
     3
 10
351.18592213
 20
-60.0187733
 30
0.0
  0
POINT
  5
3DC
  8
0
 62
     3
 10
285.32150843
 20
-60.0187733
 30
0.0
  0
POINT
  5
3DD
  8
0
 62
     3
 10
351.18592213
 20
-77.9377682
 30
0.0
  0
POINT
  5
3DE
  8
0
 62
     3
 10
333.49456719
 20
-83.62045026
 30
0.0
  0
POINT
  5
3DF
  8
0
 62
     3
 10
351.18659916
 20
-78.80717685
 30
0.0
  0
POINT
  5
3E0
  8
0
 62
     3
 10
333.49456719
 20
-78.80717685
 30
0.0
  0
POINT
  5
3E1
  8
0
 62
     3
 10
351.18659916
 20
-83.62045026
 30
0.0
  0
ENDSEC
  0
EOF
