  0
SECTION
  2
HEADER
  9
$ACADVER
  1
AC1006
  9
$DWGCODEPAGE
  3
ansi_1252
  9
$INSBASE
 10
0.0
 20
0.0
 30
0.0
  9
$EXTMIN
 10
691.58304643
 20
-1062.58863649
  9
$EXTMAX
 10
1454.19832123
 20
-711.22556449
  9
$LIMMIN
 10
691.58304643
 20
-1062.58863649
  9
$LIMMAX
 10
1454.19832123
 20
-711.22556449
  9
$ORTHOMODE
 70
     0
  9
$REGENMODE
 70
     1
  9
$FILLMODE
 70
     1
  9
$QTEXTMODE
 70
     0
  9
$MIRRTEXT
 70
     1
  9
$DRAGMODE
 70
     2
  9
$LTSCALE
 40
1.0
  9
$OSMODE
 70
    37
  9
$ATTMODE
 70
     1
  9
$TEXTSIZE
 40
1.0
  9
$TRACEWID
 40
0.05
  9
$TEXTSTYLE
  7
STANDARD
  9
$CLAYER
  8
0
  9
$CELTYPE
  6
BYBLOCK
  9
$CECOLOR
 62
   256
  9
$DIMSCALE
 40
1.0
  9
$DIMASZ
 40
0.18
  9
$DIMEXO
 40
0.0625
  9
$DIMDLI
 40
0.38
  9
$DIMRND
 40
0.0
  9
$DIMDLE
 40
0.0
  9
$DIMEXE
 40
0.18
  9
$DIMTP
 40
0.0
  9
$DIMTM
 40
0.0
  9
$DIMTXT
 40
0.18
  9
$DIMCEN
 40
0.09
  9
$DIMTSZ
 40
0.0
  9
$DIMTOL
 70
     0
  9
$DIMLIM
 70
     0
  9
$DIMTIH
 70
     1
  9
$DIMTOH
 70
     1
  9
$DIMSE1
 70
     0
  9
$DIMSE2
 70
     0
  9
$DIMTAD
 70
     0
  9
$DIMZIN
 70
     0
  9
$DIMBLK
  1

  9
$DIMASO
 70
     1
  9
$DIMSHO
 70
     1
  9
$DIMPOST
  1

  9
$DIMAPOST
  1

  9
$DIMALT
 70
     0
  9
$DIMALTD
 70
     2
  9
$DIMALTF
 40
25.4
  9
$DIMLFAC
 40
1.0
  9
$DIMTOFL
 70
     0
  9
$DIMTVP
 40
0.0
  9
$DIMTIX
 70
     0
  9
$DIMSOXD
 70
     0
  9
$DIMSAH
 70
     0
  9
$DIMBLK1
  1

  9
$DIMBLK2
  1

  9
$LUNITS
 70
     2
  9
$LUPREC
 70
     4
  9
$SKETCHINC
 40
0.1
  9
$FILLETRAD
 40
0.5
  9
$AUNITS
 70
     0
  9
$AUPREC
 70
     0
  9
$MENU
  1
.
  9
$ELEVATION
 40
0.0
  9
$THICKNESS
 40
0.0
  9
$LIMCHECK
 70
     0
  9
$CHAMFERA
 40
0.0
  9
$CHAMFERB
 40
0.0
  9
$SKPOLY
 70
     0
  9
$TDCREATE
 40
2447893.125
  9
$TDUPDATE
 40
2460791.48610287
  9
$TDINDWG
 40
0.0
  9
$TDUSRTIMER
 40
0.0
  9
$USRTIMER
 70
     1
  9
$ANGBASE
 50
0.0
  9
$ANGDIR
 70
     0
  9
$PDMODE
 70
     0
  9
$PDSIZE
 40
0.0
  9
$PLINEWID
 40
0.0
  9
$COORDS
 70
     1
  9
$SPLFRAME
 70
     0
  9
$SPLINETYPE
 70
     6
  9
$SPLINESEGS
 70
     8
  9
$ATTDIA
 70
     0
  9
$ATTREQ
 70
     1
  9
$HANDLING
 70
     1
  9
$HANDSEED
  5
2F5
  9
$SURFTAB1
 70
     6
  9
$SURFTAB2
 70
     6
  9
$SURFTYPE
 70
     6
  9
$SURFU
 70
     6
  9
$SURFV
 70
     6
  9
$UCSNAME
  2

  9
$UCSORG
 10
0.0
 20
0.0
 30
0.0
  9
$UCSXDIR
 10
1.0
 20
0.0
 30
0.0
  9
$UCSYDIR
 10
0.0
 20
1.0
 30
0.0
  9
$USERI1
 70
     0
  9
$USERI2
 70
     0
  9
$USERI3
 70
     0
  9
$USERI4
 70
     0
  9
$USERI5
 70
     0
  9
$USERR1
 40
0.0
  9
$USERR2
 40
0.0
  9
$USERR3
 40
0.0
  9
$USERR4
 40
0.0
  9
$USERR5
 40
0.0
  9
$WORLDVIEW
 70
     1
  0
ENDSEC
  0
SECTION
  2
TABLES
  0
TABLE
  2
VPORT
 70
     1
  0
VPORT
  2
*ACTIVE
 70
     0
 10
0.0
 20
0.0
 11
1.0
 21
1.0
 12
1072.89068383
 22
-886.90710049
 13
0.0
 23
0.0
 14
1.0
 24
1.0
 15
0.0
 25
0.0
 16
0.0
 26
0.0
 36
1.0
 17
0.0
 27
0.0
 37
0.0
 40
351.363072
 41
2.170447994
 42
50.0
 43
0.0
 44
0.0
 50
0.0
 51
0.0
 71
     0
 72
   100
 73
     1
 74
     1
 75
     0
 76
     0
 77
     0
 78
     0
  0
ENDTAB
  0
TABLE
  2
LTYPE
 70
    19
  0
LTYPE
  2
CONTINUOUS
 70
     0
  3
Solid line
 72
    65
 73
     0
 40
0.0
  0
LTYPE
  2
DOT
 70
     0
  3
..............
 72
    65
 73
     2
 40
2.0
 49
0.5
 49
-1.5
  0
LTYPE
  2
HIDDEN
 70
     0
  3
-- -- -- -- --
 72
    65
 73
     2
 40
7.0
 49
4.0
 49
-3.0
  0
LTYPE
  2
DASHDOT
 70
     0
  3
--.--.--.--.--
 72
    65
 73
     4
 40
8.5
 49
4.0
 49
-2.0
 49
0.5
 49
-2.0
  0
LTYPE
  2
STRICHPUNKT2
 70
     0
  3
--.--.--.--.--
 72
    65
 73
     4
 40
18.5
 49
10.0
 49
-4.0
 49
0.5
 49
-4.0
  0
LTYPE
  2
STRICHPUNKT3
 70
     0
  3
--.--.--.--.--
 72
    65
 73
     4
 40
35.5
 49
25.0
 49
-5.0
 49
0.5
 49
-5.0
  0
LTYPE
  2
PHANTOM
 70
     0
  3
--..--..--..--
 72
    65
 73
     6
 40
23.0
 49
10.0
 49
-4.0
 49
0.5
 49
-4.0
 49
0.5
 49
-4.0
  0
LTYPE
  2
PHANTOM2
 70
     0
  3
--..--..--..--
 72
    65
 73
     6
 40
33.0
 49
20.0
 49
-4.0
 49
0.5
 49
-4.0
 49
0.5
 49
-4.0
  0
LTYPE
  2
PHANTOM3
 70
     0
  3
--..--..--..--
 72
    65
 73
     6
 40
50.0
 49
37.0
 49
-4.0
 49
0.5
 49
-4.0
 49
0.5
 49
-4.0
  0
LTYPE
  2
STR3PKT
 70
     0
  3
--...--...--...
 72
    65
 73
     8
 40
31.5
 49
20.0
 49
-2.5
 49
0.5
 49
-2.5
 49
0.5
 49
-2.5
 49
0.5
 49
-2.5
  0
LTYPE
  2
2STRPKT
 70
     0
  3
--.--.--.--.--
 72
    65
 73
     6
 40
28.0
 49
10.0
 49
-2.5
 49
10.0
 49
-2.5
 49
0.5
 49
-2.5
  0
LTYPE
  2
GESTRICHELT2
 70
     0
  3
-- -- -- -- --
 72
    65
 73
     2
 40
25.0
 49
10.0
 49
-15.0
  0
LTYPE
  2
2STR2PKT
 70
     0
  3
--..--..--..--
 72
    65
 73
     8
 40
31.0
 49
10.0
 49
-2.5
 49
10.0
 49
-2.5
 49
0.5
 49
-2.5
 49
0.5
 49
-2.5
  0
LTYPE
  2
STR3PKT2
 70
     0
  3
--...--...--...
 72
    65
 73
     8
 40
21.0
 49
10.0
 49
-2.5
 49
0.5
 49
-2.5
 49
0.5
 49
-2.5
 49
0.5
 49
-2.0
  0
LTYPE
  2
2STR3PKT
 70
     0
  3
--...--...--...
 72
    65
 73
    10
 40
34.0
 49
10.0
 49
-2.5
 49
10.0
 49
-2.5
 49
0.5
 49
-2.5
 49
0.5
 49
-2.5
 49
0.5
 49
-2.5
  0
LTYPE
  2
STRKSTR
 70
     0
  3
-- - -- - -- -
 72
    65
 73
     4
 40
30.0
 49
20.0
 49
-2.5
 49
5.0
 49
-2.5
  0
LTYPE
  2
STRKSTR2
 70
     0
  3
-- - -- - -- -
 72
    65
 73
     6
 40
37.5
 49
20.0
 49
-2.5
 49
5.0
 49
-2.5
 49
5.0
 49
-2.5
  0
LTYPE
  2
STRKSTR3
 70
     0
  3
-- - -- - -- -
 72
    65
 73
     8
 40
45.0
 49
20.0
 49
-2.5
 49
5.0
 49
-2.5
 49
5.0
 49
-2.5
 49
5.0
 49
-2.5
  0
LTYPE
  2
PUNKT2
 70
     0
  3
..............
 72
    65
 73
     2
 40
3.5
 49
0.5
 49
-3.0
  0
ENDTAB
  0
TABLE
  2
LAYER
 70
    16
  0
LAYER
  2
0
 70
     0
 62
     7
  6
CONTINUOUS
  0
LAYER
  2
LE_GREEN
 70
     0
 62
     3
  6
CONTINUOUS
  0
LAYER
  2
LE_RED
 70
     0
 62
     1
  6
CONTINUOUS
  0
LAYER
  2
LE_ALL
 70
     0
 62
     7
  6
CONTINUOUS
  0
LAYER
  2
LE_HIDDEN1
 70
     0
 62
     3
  6
HIDDEN
  0
LAYER
  2
LE_HIDDEN
 70
     0
 62
     7
  6
CONTINUOUS
  0
LAYER
  2
LE_MIDDLE
 70
     0
 62
     7
  6
CONTINUOUS
  0
LAYER
  2
TXT_YELLOW
 70
     0
 62
     2
  6
CONTINUOUS
  0
LAYER
  2
TXT_DIM49
 70
     0
 62
     2
  6
CONTINUOUS
  0
LAYER
  2
TXT_ALL
 70
     0
 62
     7
  6
CONTINUOUS
  0
LAYER
  2
DIM49
 70
     0
 62
     4
  6
CONTINUOUS
  0
LAYER
  2
HATCH
 70
     0
 62
     3
  6
CONTINUOUS
  0
LAYER
  2
APPLE
 70
     0
 62
     7
  6
CONTINUOUS
  0
LAYER
  2
10
 70
     0
 62
     7
  6
CONTINUOUS
  0
LAYER
  2
20
 70
     0
 62
     7
  6
CONTINUOUS
  0
LAYER
  2
49
 70
     0
 62
     7
  6
CONTINUOUS
  0
ENDTAB
  0
TABLE
  2
STYLE
 70
     5
  0
STYLE
  2
MONOTXT
 70
     0
 40
0.0
 41
1.0
 50
0.0
 71
     0
 42
1.0
  3
monotxt.shx
  4

  0
STYLE
  2
STANDARD
 70
     0
 40
0.0
 41
1.0
 50
0.0
 71
     0
 42
1.0
  3
txt
  4

  0
STYLE
  2
ARIAL
 70
     0
 40
0.0
 41
1.0
 50
0.0
 71
     0
 42
1.0
  3
arial.ttf
  4

  0
STYLE
  2
ARIAL_NARROW
 70
     0
 40
0.0
 41
1.0
 50
0.0
 71
     0
 42
1.0
  3
ArialN.ttf
  4

  0
STYLE
  2
ISOCPEUR
 70
     0
 40
0.0
 41
1.0
 50
0.0
 71
     0
 42
1.0
  3
ISOCPEUR.ttf
  4

  0
ENDTAB
  0
TABLE
  2
VIEW
 70
     0
  0
ENDTAB
  0
TABLE
  2
UCS
 70
     0
  0
ENDTAB
  0
ENDSEC
  0
SECTION
  2
BLOCKS
  0
ENDSEC
  0
SECTION
  2
ENTITIES
  0
POLYLINE
  5
16D
  8
0
 66
     1
 10
0.0
 20
0.0
 30
0.0
 70
     1
  0
VERTEX
  5
16E
  8
0
 10
800.26743517
 20
-1023.30948487
 30
0.0
  0
VERTEX
  5
16F
  8
0
 10
1220.26743517
 20
-1023.30948487
 30
0.0
  0
VERTEX
  5
170
  8
0
 10
1220.26743517
 20
-726.30948487
 30
0.0
  0
VERTEX
  5
171
  8
0
 10
800.26743517
 20
-726.30948487
 30
0.0
  0
SEQEND
  5
172
  8
0
  0
POLYLINE
  5
173
  8
0
 66
     1
 10
0.0
 20
0.0
 30
0.0
 70
     1
  0
VERTEX
  5
174
  8
0
 10
805.26743517
 20
-1018.30948487
 30
0.0
  0
VERTEX
  5
175
  8
0
 10
1215.26743517
 20
-1018.30948487
 30
0.0
  0
VERTEX
  5
176
  8
0
 10
1215.26743517
 20
-731.30948487
 30
0.0
  0
VERTEX
  5
177
  8
0
 10
805.26743517
 20
-731.30948487
 30
0.0
  0
SEQEND
  5
178
  8
0
  0
LINE
  5
179
  8
0
 10
1030.26743517
 20
-1018.30948487
 30
0.0
 11
1030.26743517
 21
-1023.30948487
 31
0.0
  0
LINE
  5
17A
  8
0
 10
1030.26743517
 20
-731.30948487
 30
0.0
 11
1030.26743517
 21
-726.30948487
 31
0.0
  0
LINE
  5
17B
  8
0
 10
820.26743517
 20
-1018.30948487
 30
0.0
 11
820.26743517
 21
-1023.30948487
 31
0.0
  0
LINE
  5
17C
  8
0
 10
820.26743517
 20
-731.30948487
 30
0.0
 11
820.26743517
 21
-726.30948487
 31
0.0
  0
TEXT
  5
17D
  8
TXT_ALL
 62
     4
 10
1219.26743517
 20
-1022.30948487
 30
0.0
 40
2.5
  1

 50
90.00020741
  0
POLYLINE
  5
17E
  8
0
 66
     1
 10
0.0
 20
0.0
 30
0.0
  0
VERTEX
  5
17F
  8
0
 10
1215.26743517
 20
-741.30948487
 30
0.0
  0
VERTEX
  5
180
  8
0
 10
1146.27413517
 20
-741.30948487
 30
0.0
  0
VERTEX
  5
181
  8
0
 10
1146.27413517
 20
-731.30948487
 30
0.0
  0
SEQEND
  5
182
  8
0
  0
LINE
  5
183
  8
0
 10
1148.17743517
 20
-998.80948487
 30
0.0
 11
1008.28743517
 21
-998.80948487
 31
0.0
  0
LINE
  5
184
  8
0
 10
1008.28743517
 20
-1008.55948487
 30
0.0
 11
1148.17743517
 21
-1008.55948487
 31
0.0
  0
POLYLINE
  5
185
  8
0
 66
     1
 10
0.0
 20
0.0
 30
0.0
  0
VERTEX
  5
186
  8
0
 10
1008.28743517
 20
-998.80948487
 30
0.0
  0
VERTEX
  5
187
  8
0
 10
1008.28743517
 20
-1008.55948487
 30
0.0
  0
VERTEX
  5
188
  8
0
 10
1008.28743517
 20
-1018.30948487
 30
0.0
  0
SEQEND
  5
189
  8
0
  0
POLYLINE
  5
18A
  8
0
 66
     1
 10
0.0
 20
0.0
 30
0.0
  0
VERTEX
  5
18B
  8
0
 10
1078.23243517
 20
-998.80948487
 30
0.0
  0
VERTEX
  5
18C
  8
0
 10
1078.23243517
 20
-1008.55948487
 30
0.0
  0
VERTEX
  5
18D
  8
0
 10
1078.23243517
 20
-1018.30948487
 30
0.0
  0
SEQEND
  5
18E
  8
0
  0
TEXT
  5
18F
  8
TXT_ALL
 10
1010.28743517
 20
-1004.98448482
 30
0.0
 40
2.5999999
  1
E-mail: verkoop@jonkers-bouwmetaal.nl
  7
ARIAL
  0
TEXT
  5
190
  8
TXT_ALL
 10
1010.28743517
 20
-1014.73448482
 30
0.0
 40
2.5999999
  1
Telefoon: 0527-685156
  7
ARIAL
  0
TEXT
  5
191
  8
TXT_ALL
 10
1080.23243517
 20
-1014.73448482
 30
0.0
 40
2.5999999
  1
Website: www.jonkers-bouwmetaal.nl
  7
ARIAL
  0
TEXT
  5
192
  8
TXT_ALL
 10
1080.23243517
 20
-1004.98448482
 30
0.0
 40
2.5999999
  1
Adres: Hoornse Hop 10, 8321 WX Urk
  7
ARIAL
  0
TEXT
  5
193
  8
TXT_ALL
 10
808.70939542
 20
-737.55948487
 30
0.0
 40
2.5
  1
Art. nr. 91002800
  7
ARIAL
  0
TEXT
  5
194
  8
TXT_ALL
 10
851.44743224
 20
-737.55948487
 30
0.0
 40
2.5
  1
Omschrijving: J01-Anker 150x25 70x8
  7
ARIAL
  0
LINE
  5
195
  8
0
 10
1215.26743517
 20
-741.30948487
 30
0.0
 11
805.26743517
 21
-741.30948487
 31
0.0
  0
LINE
  5
196
  8
0
 10
848.28743517
 20
-741.30948487
 30
0.0
 11
848.28743517
 21
-731.30948487
 31
0.0
  0
LINE
  5
197
  8
0
 10
1008.28743517
 20
-741.30948487
 30
0.0
 11
1008.28743517
 21
-731.30948487
 31
0.0
  0
TEXT
  5
198
  8
TXT_ALL
 10
1079.28113517
 20
-737.55948487
 30
0.0
 40
2.5
  1
Behandeling: Thermisch Verzinkt
  7
ARIAL
  0
LINE
  5
199
  8
0
 10
1148.17743517
 20
-998.80948487
 30
0.0
 11
1215.26743517
 21
-998.80948487
 31
0.0
  0
LINE
  5
19A
  8
0
 10
1148.17743517
 20
-1018.30948487
 30
0.0
 11
1148.17743517
 21
-998.80948487
 31
0.0
  0
LINE
  5
19B
  8
0
 10
1148.17743517
 20
-1018.30948487
 30
0.0
 11
1148.17743517
 21
-998.80948487
 31
0.0
  0
TEXT
  5
19C
  8
TXT_ALL
 10
942.63263326
 20
-1017.15495146
 30
0.0
 40
2.5
  1

  0
TEXT
  5
19D
  8
TXT_ALL
 10
1063.76781623
 20
-1007.05948487
 30
0.0
 40
2.5
  1

  0
POLYLINE
  5
19E
  8
0
 66
     1
 10
0.0
 20
0.0
 30
0.0
  0
VERTEX
  5
19F
  8
0
 10
1146.27413517
 20
-741.30948487
 30
0.0
  0
VERTEX
  5
1A0
  8
0
 10
1077.28113517
 20
-741.30948487
 30
0.0
  0
VERTEX
  5
1A1
  8
0
 10
1077.28113517
 20
-731.30948487
 30
0.0
  0
SEQEND
  5
1A2
  8
0
  0
TEXT
  5
1A3
  8
TXT_ALL
 10
1148.27413517
 20
-737.55948487
 30
0.0
 40
2.5
  1
Verpakkingshoeveelheid: 1 st.
  7
ARIAL
  0
TEXT
  5
1A4
  8
TXT_ALL
 10
1010.28743517
 20
-737.55948487
 30
0.0
 40
2.5
  1
Materiaal: S355
  7
ARIAL
  0
TEXT
  5
1A5
  8
TXT_ALL
 10
1182.75985809
 20
-1021.55899472
 30
0.0
 40
1.5
  1
Onderdeel van
  7
ARIAL
  0
POLYLINE
  5
1A6
  8
0
 66
     1
 10
0.0
 20
0.0
 30
0.0
  0
VERTEX
  5
1A7
  8
0
 10
869.5705416
 20
-901.6674736
 30
0.0
  0
VERTEX
  5
1A8
  8
0
 10
828.71788367
 20
-933.83983874
 30
0.0
  0
VERTEX
  5
1A9
  8
0
 10
822.22160747
 20
-931.19729175
 30
0.0
  0
SEQEND
  5
1AA
  8
0
  0
LINE
  5
1AB
  8
0
 10
863.0742654
 20
-899.02492661
 30
0.0
 11
822.22160747
 21
-931.19729175
 31
0.0
  0
LINE
  5
1AC
  8
0
 10
869.5705416
 20
-901.6674736
 30
0.0
 11
863.0742654
 21
-899.02492661
 31
0.0
  0
POLYLINE
  5
1AD
  8
0
 66
     1
 10
0.0
 20
0.0
 30
0.0
  0
VERTEX
  5
1AE
  8
0
 10
869.5705416
 20
-901.6674736
 30
0.0
  0
VERTEX
  5
1AF
  8
0
 10
869.5705416
 20
-909.08716889
 30
0.0
  0
VERTEX
  5
1B0
  8
0
 10
828.71788367
 20
-941.25953403
 30
0.0
  0
VERTEX
  5
1B1
  8
0
 10
828.71788367
 20
-933.83983874
 30
0.0
  0
SEQEND
  5
1B2
  8
0
  0
POLYLINE
  5
1B3
  8
0
 66
     1
 10
0.0
 20
0.0
 30
0.0
  0
VERTEX
  5
1B4
  8
0
 10
828.71788367
 20
-941.25953403
 30
0.0
  0
VERTEX
  5
1B5
  8
0
 10
822.22160747
 20
-938.61698704
 30
0.0
  0
VERTEX
  5
1B6
  8
0
 10
822.22160747
 20
-931.19729175
 30
0.0
  0
SEQEND
  5
1B7
  8
0
  0
POLYLINE
  5
1B8
  8
0
 66
     1
 10
0.0
 20
0.0
 30
0.0
  0
VERTEX
  5
1B9
  8
0
 10
869.5705416
 20
-909.08716889
 30
0.0
  0
VERTEX
  5
1BA
  8
0
 10
828.71788367
 20
-941.25953403
 30
0.0
  0
VERTEX
  5
1BB
  8
0
 10
822.22160747
 20
-938.61698704
 30
0.0
  0
SEQEND
  5
1BC
  8
0
  0
POLYLINE
  5
1BD
  8
0
 66
     1
 10
0.0
 20
0.0
 30
0.0
  0
VERTEX
  5
2A7
  8
0
 10
869.5705416004605
 20
-909.087168864341
 30
0.0
  0
VERTEX
  5
2A8
  8
0
 10
869.695365721868
 20
-910.4246208816985
 30
0.0
  0
VERTEX
  5
2A9
  8
0
 10
870.0650411744826
 20
-911.8122269681389
 30
0.0
  0
VERTEX
  5
2AA
  8
0
 10
870.665361537919
 20
-913.196662199722
 30
0.0
  0
VERTEX
  5
2AB
  8
0
 10
871.4732568371799
 20
-914.5247235066818
 30
0.0
  0
VERTEX
  5
2AC
  8
0
 10
872.4576801088614
 20
-915.7453742375698
 30
0.0
  0
VERTEX
  5
2AD
  8
0
 10
873.5808005185498
 20
-916.8117054691556
 30
0.0
  0
VERTEX
  5
2AE
  8
0
 10
874.7994571785783
 20
-917.6827386900485
 30
0.0
  0
VERTEX
  5
2AF
  8
0
 10
876.0668177967424
 20
-918.3250005819142
 30
0.0
  0
SEQEND
  5
2ED
  8
0
  0
POLYLINE
  5
1BE
  8
0
 66
     1
 10
0.0
 20
0.0
 30
0.0
  0
VERTEX
  5
1BF
  8
0
 10
876.0668178
 20
-918.32500058
 30
0.0
  0
VERTEX
  5
1C0
  8
0
 10
835.21415987
 20
-950.49736573
 30
0.0
  0
SEQEND
  5
1C1
  8
0
  0
POLYLINE
  5
1C2
  8
0
 66
     1
 10
0.0
 20
0.0
 30
0.0
  0
VERTEX
  5
2B0
  8
0
 10
828.7178836704605
 20
-941.259534014341
 30
0.0
  0
VERTEX
  5
2B1
  8
0
 10
828.8427077918681
 20
-942.5969860316985
 30
0.0
  0
VERTEX
  5
2B2
  8
0
 10
829.2123832444827
 20
-943.984592118139
 30
0.0
  0
VERTEX
  5
2B3
  8
0
 10
829.812703607919
 20
-945.369027349722
 30
0.0
  0
VERTEX
  5
2B4
  8
0
 10
830.6205989071799
 20
-946.6970886566818
 30
0.0
  0
VERTEX
  5
2B5
  8
0
 10
831.6050221788614
 20
-947.9177393875698
 30
0.0
  0
VERTEX
  5
2B6
  8
0
 10
832.7281425885499
 20
-948.9840706191557
 30
0.0
  0
VERTEX
  5
2B7
  8
0
 10
833.9467992485784
 20
-949.8551038400485
 30
0.0
  0
VERTEX
  5
2B8
  8
0
 10
835.2141598667424
 20
-950.4973657319142
 30
0.0
  0
SEQEND
  5
2EE
  8
0
  0
POLYLINE
  5
1C3
  8
0
 66
     1
 10
0.0
 20
0.0
 30
0.0
  0
VERTEX
  5
1C4
  8
0
 10
835.21415987
 20
-950.49736573
 30
0.0
  0
VERTEX
  5
1C5
  8
0
 10
835.21415987
 20
-957.09265043
 30
0.0
  0
SEQEND
  5
1C6
  8
0
  0
POLYLINE
  5
1C7
  8
0
 66
     1
 10
0.0
 20
0.0
 30
0.0
  0
VERTEX
  5
2B9
  8
0
 10
822.2216074709211
 20
-938.6169869986823
 30
0.0
  0
VERTEX
  5
2BA
  8
0
 10
822.471255713736
 20
-941.291891033397
 30
0.0
  0
VERTEX
  5
2BB
  8
0
 10
823.2106066189654
 20
-944.0671032062778
 30
0.0
  0
VERTEX
  5
2BC
  8
0
 10
824.411247345838
 20
-946.835973669444
 30
0.0
  0
VERTEX
  5
2BD
  8
0
 10
826.0270379443599
 20
-949.4920962833637
 30
0.0
  0
VERTEX
  5
2BE
  8
0
 10
827.9958844877228
 20
-951.9333977451395
 30
0.0
  0
VERTEX
  5
2BF
  8
0
 10
830.2421253070996
 20
-954.0660602083112
 30
0.0
  0
VERTEX
  5
2C0
  8
0
 10
832.6794386271569
 20
-955.8081266500968
 30
0.0
  0
VERTEX
  5
2C1
  8
0
 10
835.2141598634846
 20
-957.0926504338282
 30
0.0
  0
SEQEND
  5
2EF
  8
0
  0
POLYLINE
  5
1C8
  8
0
 66
     1
 10
0.0
 20
0.0
 30
0.0
  0
VERTEX
  5
2C2
  8
0
 10
890.0542496
 20
-951.2574202257774
 30
0.0
  0
VERTEX
  5
2C3
  8
0
 10
890.1795940403946
 20
-952.0038244786023
 30
0.0
  0
VERTEX
  5
2C4
  8
0
 10
890.5511384483805
 20
-952.7234979813902
 30
0.0
  0
VERTEX
  5
2C5
  8
0
 10
891.1555768160547
 20
-953.3906672838896
 30
0.0
  0
VERTEX
  5
2C6
  8
0
 10
891.9712625743286
 20
-953.9814392529493
 30
0.0
  0
VERTEX
  5
2C7
  8
0
 10
892.9689838149823
 20
-954.4746567500953
 30
0.0
  0
SEQEND
  5
2F0
  8
0
  0
POLYLINE
  5
1C9
  8
0
 66
     1
 10
0.0
 20
0.0
 30
0.0
  0
VERTEX
  5
2C8
  8
0
 10
901.1395153646125
 20
-948.0401837216042
 30
0.0
  0
VERTEX
  5
2C9
  8
0
 10
899.9323000704194
 20
-947.6458388278362
 30
0.0
  0
VERTEX
  5
2CA
  8
0
 10
898.610972761101
 20
-947.3946897664437
 30
0.0
  0
VERTEX
  5
2CB
  8
0
 10
897.2279228313037
 20
-947.2966943633186
 30
0.0
  0
VERTEX
  5
2CC
  8
0
 10
895.8379869199708
 20
-947.3557380447376
 30
0.0
  0
VERTEX
  5
2CD
  8
0
 10
894.4962746887876
 20
-947.5694797838369
 30
0.0
  0
VERTEX
  5
2CE
  8
0
 10
893.255983775527
 20
-947.9294449201419
 30
0.0
  0
VERTEX
  5
2CF
  8
0
 10
892.1662905573612
 20
-948.4213611719465
 30
0.0
  0
VERTEX
  5
2D0
  8
0
 10
891.2704003534017
 20
-949.0257245189622
 30
0.0
  0
VERTEX
  5
2D1
  8
0
 10
890.603834374119
 20
-949.71857251852
 30
0.0
  0
VERTEX
  5
2D2
  8
0
 10
890.1930213384987
 20
-950.4724343940587
 30
0.0
  0
VERTEX
  5
2D3
  8
0
 10
890.0542496
 20
-951.2574202257774
 30
0.0
  0
SEQEND
  5
2F1
  8
0
  0
POLYLINE
  5
1CA
  8
0
 66
     1
 10
0.0
 20
0.0
 30
0.0
  0
VERTEX
  5
1CB
  8
0
 10
901.13951539
 20
-948.04018373
 30
0.0
  0
VERTEX
  5
1CC
  8
0
 10
938.49310353
 20
-963.23482894
 30
0.0
  0
SEQEND
  5
1CD
  8
0
  0
POLYLINE
  5
1CE
  8
0
 66
     1
 10
0.0
 20
0.0
 30
0.0
  0
VERTEX
  5
2D4
  8
0
 10
941.40783774
 20
-966.45206545
 30
0.0
  0
VERTEX
  5
2D5
  8
0
 10
941.2824932948713
 20
-965.7056611974298
 30
0.0
  0
VERTEX
  5
2D6
  8
0
 10
940.910948882321
 20
-964.9859876953967
 30
0.0
  0
VERTEX
  5
2D7
  8
0
 10
940.3065105104153
 20
-964.3188183941255
 30
0.0
  0
VERTEX
  5
2D8
  8
0
 10
939.4908247483944
 20
-963.728046426723
 30
0.0
  0
VERTEX
  5
2D9
  8
0
 10
938.4931035046125
 20
-963.2348289316042
 30
0.0
  0
SEQEND
  5
2F2
  8
0
  0
POLYLINE
  5
1CF
  8
0
 66
     1
 10
0.0
 20
0.0
 30
0.0
  0
VERTEX
  5
2DA
  8
0
 10
930.3225719549822
 20
-969.6693019600953
 30
0.0
  0
VERTEX
  5
2DB
  8
0
 10
931.529787250839
 20
-970.0636468573794
 30
0.0
  0
VERTEX
  5
2DC
  8
0
 10
932.8511145633084
 20
-970.3147959215435
 30
0.0
  0
VERTEX
  5
2DD
  8
0
 10
934.2341644972778
 20
-970.412791326521
 30
0.0
  0
VERTEX
  5
2DE
  8
0
 10
935.6241004132802
 20
-970.3537476459363
 30
0.0
  0
VERTEX
  5
2DF
  8
0
 10
936.965812649086
 20
-970.1400059066356
 30
0.0
  0
VERTEX
  5
2E0
  8
0
 10
938.2061035663919
 20
-969.7800407691565
 30
0.0
  0
VERTEX
  5
2E1
  8
0
 10
939.2957967875445
 20
-969.288124515345
 30
0.0
  0
VERTEX
  5
2E2
  8
0
 10
940.1916869930321
 20
-968.6837611656962
 30
0.0
  0
VERTEX
  5
2E3
  8
0
 10
940.8582529720921
 20
-967.9909131631398
 30
0.0
  0
VERTEX
  5
2E4
  8
0
 10
941.2690660055748
 20
-967.2370512845353
 30
0.0
  0
VERTEX
  5
2E5
  8
0
 10
941.40783774
 20
-966.45206545
 30
0.0
  0
SEQEND
  5
2F3
  8
0
  0
LINE
  5
1D0
  8
0
 10
930.32257195
 20
-969.66930197
 30
0.0
 11
892.96898381
 21
-954.47465675
 31
0.0
  0
POLYLINE
  5
1D1
  8
0
 66
     1
 10
0.0
 20
0.0
 30
0.0
  0
VERTEX
  5
1D2
  8
0
 10
938.29176854
 20
-969.74821485
 30
0.0
  0
VERTEX
  5
1D3
  8
0
 10
901.13951539
 20
-954.63546843
 30
0.0
  0
SEQEND
  5
1D4
  8
0
  0
POLYLINE
  5
1D5
  8
0
 66
     1
 10
0.0
 20
0.0
 30
0.0
  0
VERTEX
  5
2E6
  8
0
 10
901.1395153646125
 20
-954.6354684216042
 30
0.0
  0
VERTEX
  5
2E7
  8
0
 10
899.9167231437726
 20
-954.2371599392484
 30
0.0
  0
VERTEX
  5
2E8
  8
0
 10
898.5776523607988
 20
-953.9857210672449
 30
0.0
  0
VERTEX
  5
2E9
  8
0
 10
897.1766983569435
 20
-953.8913656818286
 30
0.0
  0
VERTEX
  5
2EA
  8
0
 10
895.7707702755378
 20
-953.9579266598374
 30
0.0
  0
VERTEX
  5
2EB
  8
0
 10
894.4169793154347
 20
-954.1827001807127
 30
0.0
  0
VERTEX
  5
2EC
  8
0
 10
893.1703187766119
 20
-954.5565555603052
 30
0.0
  0
SEQEND
  5
2F4
  8
0
  0
LINE
  5
1D6
  8
0
 10
944.02678619
 20
-994.76002787
 30
0.0
 11
835.21415987
 21
-950.49736573
 31
0.0
  0
LINE
  5
1D7
  8
0
 10
876.0668178
 20
-918.32500058
 30
0.0
 11
835.21415987
 21
-950.49736573
 31
0.0
  0
POLYLINE
  5
1D8
  8
0
 66
     1
 10
0.0
 20
0.0
 30
0.0
  0
VERTEX
  5
1D9
  8
0
 10
876.0668178
 20
-918.32500058
 30
0.0
  0
VERTEX
  5
1DA
  8
0
 10
984.87944412
 20
-962.58766273
 30
0.0
  0
VERTEX
  5
1DB
  8
0
 10
944.02678619
 20
-994.76002787
 30
0.0
  0
VERTEX
  5
1DC
  8
0
 10
944.02678619
 20
-1001.35531257
 30
0.0
  0
VERTEX
  5
1DD
  8
0
 10
835.21415987
 20
-957.09265043
 30
0.0
  0
SEQEND
  5
1DE
  8
0
  0
LINE
  5
1DF
  8
0
 10
835.21415987
 20
-950.49736573
 30
0.0
 11
835.21415987
 21
-957.09265043
 31
0.0
  0
LINE
  5
1E0
  8
0
 10
984.87944412
 20
-969.18294743
 30
0.0
 11
944.02678619
 21
-1001.35531257
 31
0.0
  0
LINE
  5
1E1
  8
0
 10
984.87944412
 20
-962.58766273
 30
0.0
 11
984.87944412
 21
-969.18294743
 31
0.0
  0
POLYLINE
  5
1E2
  8
0
 66
     1
 10
0.0
 20
0.0
 30
0.0
  0
VERTEX
  5
1E3
  8
0
 10
987.22108385
 20
-789.09726963
 30
0.0
  0
VERTEX
  5
1E4
  8
0
 10
987.22108385
 20
-780.09726963
 30
0.0
  0
VERTEX
  5
1E5
  8
0
 10
979.22108385
 20
-780.09726963
 30
0.0
  0
SEQEND
  5
1E6
  8
0
  0
LINE
  5
1E7
  8
0
 10
979.22108385
 20
-789.09726963
 30
0.0
 11
979.22108385
 21
-780.09726963
 31
0.0
  0
LINE
  5
1E8
  8
0
 10
987.22108385
 20
-789.09726963
 30
0.0
 11
979.22108385
 21
-789.09726963
 31
0.0
  0
POLYLINE
  5
1E9
  8
0
 66
     1
 10
0.0
 20
0.0
 30
0.0
  0
VERTEX
  5
1EA
  8
0
 10
995.22108385
 20
-797.09726963
 30
0.0
 42
-0.414213562
  0
VERTEX
  5
1EB
  8
0
 10
987.22108385
 20
-789.09726963
 30
0.0
  0
VERTEX
  5
1EC
  8
0
 10
979.22108385
 20
-789.09726963
 30
0.0
  0
SEQEND
  5
1ED
  8
0
  0
ARC
  5
1EE
  8
0
 10
995.22108385
 20
-789.09726963
 30
0.0
 40
16.0
 50
-180.0
 51
-90.0
  0
LINE
  5
1EF
  8
0
 10
995.22108385
 20
-797.09726963
 30
0.0
 11
995.22108385
 21
-805.09726963
 31
0.0
  0
POLYLINE
  5
1F0
  8
0
 66
     1
 10
0.0
 20
0.0
 30
0.0
  0
VERTEX
  5
1F1
  8
0
 10
1129.22108385
 20
-797.09726963
 30
0.0
  0
VERTEX
  5
1F2
  8
0
 10
995.22108385
 20
-797.09726963
 30
0.0
  0
VERTEX
  5
1F3
  8
0
 10
995.22108385
 20
-805.09726963
 30
0.0
  0
SEQEND
  5
1F4
  8
0
  0
LINE
  5
1F5
  8
0
 10
1129.22108385
 20
-805.09726963
 30
0.0
 11
995.22108385
 21
-805.09726963
 31
0.0
  0
LINE
  5
1F6
  8
0
 10
1129.22108385
 20
-797.09726963
 30
0.0
 11
1129.22108385
 21
-805.09726963
 31
0.0
  0
LINE
  5
1F7
  8
0
 10
860.7308113
 20
-780.09726963
 30
0.0
 11
930.7308113
 21
-780.09726963
 31
0.0
  0
LINE
  5
1F8
  8
0
 10
930.7308113
 20
-789.09726963
 30
0.0
 11
930.7308113
 21
-780.09726963
 31
0.0
  0
LINE
  5
1F9
  8
0
 10
860.7308113
 20
-789.09726963
 30
0.0
 11
930.7308113
 21
-789.09726963
 31
0.0
  0
LINE
  5
1FA
  8
0
 10
860.7308113
 20
-780.09726963
 30
0.0
 11
860.7308113
 21
-789.09726963
 31
0.0
  0
LINE
  5
1FB
  8
0
 10
860.7308113
 20
-789.09726963
 30
0.0
 11
930.7308113
 21
-789.09726963
 31
0.0
  0
LINE
  5
1FC
  8
0
 10
930.7308113
 20
-805.09726963
 30
0.0
 11
930.7308113
 21
-789.09726963
 31
0.0
  0
LINE
  5
1FD
  8
0
 10
860.7308113
 20
-805.09726963
 30
0.0
 11
930.7308113
 21
-805.09726963
 31
0.0
  0
LINE
  5
1FE
  8
0
 10
860.7308113
 20
-789.09726963
 30
0.0
 11
860.7308113
 21
-805.09726963
 31
0.0
  0
LINE
  5
1FF
  8
0
 10
860.7308113
 20
-805.09726963
 30
0.0
 11
930.7308113
 21
-805.09726963
 31
0.0
  0
LINE
  5
200
  8
0
 10
979.22108385
 20
-902.98219529
 30
0.0
 11
979.22108385
 21
-832.98219529
 31
0.0
  0
LINE
  5
201
  8
0
 10
979.22108385
 20
-902.98219529
 30
0.0
 11
979.22108385
 21
-832.98219529
 31
0.0
  0
LINE
  5
202
  8
0
 10
995.22108385
 20
-832.98219529
 30
0.0
 11
979.22108385
 21
-832.98219529
 31
0.0
  0
LINE
  5
203
  8
0
 10
995.22108385
 20
-902.98219529
 30
0.0
 11
995.22108385
 21
-832.98219529
 31
0.0
  0
LINE
  5
204
  8
0
 10
979.22108385
 20
-902.98219529
 30
0.0
 11
995.22108385
 21
-902.98219529
 31
0.0
  0
POLYLINE
  5
205
  8
0
 66
     1
 10
0.0
 20
0.0
 30
0.0
 70
     1
  0
VERTEX
  5
206
  8
0
 10
1046.22108385
 20
-860.98219529
 30
0.0
  0
VERTEX
  5
207
  8
0
 10
1092.22108385
 20
-860.98219529
 30
0.0
 42
-1.0
  0
VERTEX
  5
208
  8
0
 10
1092.22108385
 20
-874.98219529
 30
0.0
  0
VERTEX
  5
209
  8
0
 10
1046.22108385
 20
-874.98219529
 30
0.0
 42
-1.0
  0
SEQEND
  5
20A
  8
0
  0
LINE
  5
20B
  8
0
 10
995.22108385
 20
-902.98219529
 30
0.0
 11
995.22108385
 21
-832.98219529
 31
0.0
  0
LINE
  5
20C
  8
0
 10
1129.22108385
 20
-832.98219529
 30
0.0
 11
995.22108385
 21
-832.98219529
 31
0.0
  0
LINE
  5
20D
  8
0
 10
1129.22108385
 20
-902.98219529
 30
0.0
 11
1129.22108385
 21
-832.98219529
 31
0.0
  0
LINE
  5
20E
  8
0
 10
995.22108385
 20
-902.98219529
 30
0.0
 11
1129.22108385
 21
-902.98219529
 31
0.0
  0
TEXT
  5
20F
  8
TXT_DIM49
 10
1051.43871805
 20
-817.18140011
 30
0.0
 40
2.5
  1
150
  7
ARIAL
  0
LINE
  5
210
  8
0
 62
     4
 10
980.22108385
 20
-817.68140011
 30
0.0
 11
978.22108385
 21
-819.68140011
 31
0.0
  0
LINE
  5
211
  8
0
 62
     4
 10
1128.47108385
 20
-819.43140011
 30
0.0
 11
1129.97108385
 21
-817.93140011
 31
0.0
  0
LINE
  5
212
  8
0
 62
     4
 10
979.22108385
 20
-818.68140011
 30
0.0
 11
1129.22108385
 21
-818.68140011
 31
0.0
  0
LINE
  5
213
  8
0
 62
     4
 10
979.22108385
 20
-816.68140011
 30
0.0
 11
979.22108385
 21
-820.68140011
 31
0.0
  0
LINE
  5
214
  8
0
 62
     4
 10
1129.22108385
 20
-816.68140011
 30
0.0
 11
1129.22108385
 21
-820.68140011
 31
0.0
  0
TEXT
  5
215
  8
TXT_DIM49
 10
967.72108385
 20
-794.45218024
 30
0.0
 40
2.5
  1
25
 50
90.00020741
  7
ARIAL
  0
LINE
  5
216
  8
0
 62
     4
 10
970.22108385
 20
-781.09726963
 30
0.0
 11
968.22108385
 21
-779.09726963
 31
0.0
  0
LINE
  5
217
  8
0
 62
     4
 10
968.47108385
 20
-804.34726963
 30
0.0
 11
969.97108385
 21
-805.84726963
 31
0.0
  0
LINE
  5
218
  8
0
 62
     4
 10
969.22108385
 20
-780.09726963
 30
0.0
 11
969.22108385
 21
-805.09726963
 31
0.0
  0
LINE
  5
219
  8
0
 62
     4
 10
971.22108385
 20
-780.09726963
 30
0.0
 11
967.22108385
 21
-780.09726963
 31
0.0
  0
LINE
  5
21A
  8
0
 62
     4
 10
971.22108385
 20
-805.09726963
 30
0.0
 11
967.22108385
 21
-805.09726963
 31
0.0
  0
TEXT
  5
21B
  8
TXT_DIM49
 10
1133.42390867
 20
-802.02472494
 30
0.0
 40
2.5
  1
8
 50
90.00020741
  7
ARIAL
  0
LINE
  5
21C
  8
0
 62
     4
 10
1135.92390867
 20
-798.09726963
 30
0.0
 11
1133.92390867
 21
-796.09726963
 31
0.0
  0
LINE
  5
21D
  8
0
 62
     4
 10
1134.17390867
 20
-804.34726963
 30
0.0
 11
1135.67390867
 21
-805.84726963
 31
0.0
  0
LINE
  5
21E
  8
0
 62
     4
 10
1134.92390867
 20
-797.09726963
 30
0.0
 11
1134.92390867
 21
-805.09726963
 31
0.0
  0
LINE
  5
21F
  8
0
 62
     4
 10
1132.92390867
 20
-797.09726963
 30
0.0
 11
1136.92390867
 21
-797.09726963
 31
0.0
  0
LINE
  5
220
  8
0
 62
     4
 10
1132.92390867
 20
-805.09726963
 30
0.0
 11
1136.92390867
 21
-805.09726963
 31
0.0
  0
TEXT
  5
221
  8
TXT_DIM49
 10
893.87590069
 20
-813.59726963
 30
0.0
 40
2.5
  1
70
  7
ARIAL
  0
LINE
  5
222
  8
0
 62
     4
 10
861.7308113
 20
-814.09726963
 30
0.0
 11
859.7308113
 21
-816.09726963
 31
0.0
  0
LINE
  5
223
  8
0
 62
     4
 10
929.9808113
 20
-815.84726963
 30
0.0
 11
931.4808113
 21
-814.34726963
 31
0.0
  0
LINE
  5
224
  8
0
 62
     4
 10
860.7308113
 20
-815.09726963
 30
0.0
 11
930.7308113
 21
-815.09726963
 31
0.0
  0
LINE
  5
225
  8
0
 62
     4
 10
860.7308113
 20
-813.09726963
 30
0.0
 11
860.7308113
 21
-817.09726963
 31
0.0
  0
LINE
  5
226
  8
0
 62
     4
 10
930.7308113
 20
-813.09726963
 30
0.0
 11
930.7308113
 21
-817.09726963
 31
0.0
  0
TEXT
  5
227
  8
TXT_DIM49
 10
967.72108385
 20
-869.8371059
 30
0.0
 40
2.5
  1
70
 50
90.00020741
  7
ARIAL
  0
LINE
  5
228
  8
0
 62
     4
 10
970.22108385
 20
-833.98219529
 30
0.0
 11
968.22108385
 21
-831.98219529
 31
0.0
  0
LINE
  5
229
  8
0
 62
     4
 10
968.47108385
 20
-902.23219529
 30
0.0
 11
969.97108385
 21
-903.73219529
 31
0.0
  0
LINE
  5
22A
  8
0
 62
     4
 10
969.22108385
 20
-832.98219529
 30
0.0
 11
969.22108385
 21
-902.98219529
 31
0.0
  0
LINE
  5
22B
  8
0
 62
     4
 10
971.22108385
 20
-832.98219529
 30
0.0
 11
967.22108385
 21
-832.98219529
 31
0.0
  0
LINE
  5
22C
  8
0
 62
     4
 10
971.22108385
 20
-902.98219529
 30
0.0
 11
967.22108385
 21
-902.98219529
 31
0.0
  0
TEXT
  5
22D
  8
TXT_DIM49
 10
1142.25118048
 20
-852.3371059
 30
0.0
 40
2.5
  1
35
 50
90.00020741
  7
ARIAL
  0
LINE
  5
22E
  8
0
 62
     4
 10
1144.75118048
 20
-833.98219529
 30
0.0
 11
1142.75118048
 21
-831.98219529
 31
0.0
  0
LINE
  5
22F
  8
0
 62
     4
 10
1143.00118048
 20
-867.23219529
 30
0.0
 11
1144.50118048
 21
-868.73219529
 31
0.0
  0
LINE
  5
230
  8
0
 62
     4
 10
1143.75118048
 20
-832.98219529
 30
0.0
 11
1143.75118048
 21
-867.98219529
 31
0.0
  0
LINE
  5
231
  8
0
 62
     4
 10
1141.75118048
 20
-832.98219529
 30
0.0
 11
1145.75118048
 21
-832.98219529
 31
0.0
  0
LINE
  5
232
  8
0
 62
     4
 10
1141.75118048
 20
-867.98219529
 30
0.0
 11
1145.75118048
 21
-867.98219529
 31
0.0
  0
TEXT
  5
233
  8
TXT_DIM49
 10
1142.25118048
 20
-887.3371059
 30
0.0
 40
2.5
  1
35
 50
90.00020741
  7
ARIAL
  0
LINE
  5
234
  8
0
 62
     4
 10
1142.75118048
 20
-901.98219529
 30
0.0
 11
1144.75118048
 21
-903.98219529
 31
0.0
  0
LINE
  5
235
  8
0
 62
     4
 10
1144.50118048
 20
-868.73219529
 30
0.0
 11
1143.00118048
 21
-867.23219529
 31
0.0
  0
LINE
  5
236
  8
0
 62
     4
 10
1143.75118048
 20
-902.98219529
 30
0.0
 11
1143.75118048
 21
-867.98219529
 31
0.0
  0
LINE
  5
237
  8
0
 62
     4
 10
1141.75118048
 20
-902.98219529
 30
0.0
 11
1145.75118048
 21
-902.98219529
 31
0.0
  0
LINE
  5
238
  8
0
 62
     4
 10
1141.75118048
 20
-867.98219529
 30
0.0
 11
1145.75118048
 21
-867.98219529
 31
0.0
  0
TEXT
  5
239
  8
TXT_DIM49
 10
1158.21271818
 20
-869.8371059
 30
0.0
 40
2.5
  1
70
 50
90.00020741
  7
ARIAL
  0
LINE
  5
23A
  8
0
 62
     4
 10
1160.71271818
 20
-833.98219529
 30
0.0
 11
1158.71271818
 21
-831.98219529
 31
0.0
  0
LINE
  5
23B
  8
0
 62
     4
 10
1158.96271818
 20
-902.23219529
 30
0.0
 11
1160.46271818
 21
-903.73219529
 31
0.0
  0
LINE
  5
23C
  8
0
 62
     4
 10
1159.71271818
 20
-832.98219529
 30
0.0
 11
1159.71271818
 21
-902.98219529
 31
0.0
  0
LINE
  5
23D
  8
0
 62
     4
 10
1157.71271818
 20
-832.98219529
 30
0.0
 11
1161.71271818
 21
-832.98219529
 31
0.0
  0
LINE
  5
23E
  8
0
 62
     4
 10
1157.71271818
 20
-902.98219529
 30
0.0
 11
1161.71271818
 21
-902.98219529
 31
0.0
  0
LINE
  5
23F
  8
0
 62
     5
 10
1069.22108385
 20
-874.98219529
 30
0.0
 11
1081.53206393
 21
-884.48756657
 31
0.0
  0
TEXT
  5
240
  8
TXT_DIM49
 10
1081.53206393
 20
-885.73756657
 30
0.0
 40
2.5
  1
Slobgat 14 x 60
  7
ARIAL
  0
TEXT
  5
241
  8
TXT_DIM49
 10
1097.36620852
 20
-911.01234071
 30
0.0
 40
2.5
  1
60
  7
ARIAL
  0
LINE
  5
242
  8
0
 62
     4
 10
1128.22108385
 20
-913.51234071
 30
0.0
 11
1130.22108385
 21
-911.51234071
 31
0.0
  0
LINE
  5
243
  8
0
 62
     4
 10
1069.97108385
 20
-911.76234071
 30
0.0
 11
1068.47108385
 21
-913.26234071
 31
0.0
  0
LINE
  5
244
  8
0
 62
     4
 10
1129.22108385
 20
-912.51234071
 30
0.0
 11
1069.22108385
 21
-912.51234071
 31
0.0
  0
LINE
  5
245
  8
0
 62
     4
 10
1129.22108385
 20
-910.51234071
 30
0.0
 11
1129.22108385
 21
-914.51234071
 31
0.0
  0
LINE
  5
246
  8
0
 62
     4
 10
1069.22108385
 20
-910.51234071
 30
0.0
 11
1069.22108385
 21
-914.51234071
 31
0.0
  0
TEXT
  5
247
  8
TXT_DIM49
 10
1112.36624381
 20
-858.02444577
 30
0.0
 40
2.5
  1
30
  7
ARIAL
  0
LINE
  5
248
  8
0
 62
     4
 10
1128.22108385
 20
-860.52444577
 30
0.0
 11
1130.22108385
 21
-858.52444577
 31
0.0
  0
LINE
  5
249
  8
0
 62
     4
 10
1099.97108385
 20
-858.77444577
 30
0.0
 11
1098.47108385
 21
-860.27444577
 31
0.0
  0
LINE
  5
24A
  8
0
 62
     4
 10
1129.22108385
 20
-859.52444577
 30
0.0
 11
1099.22108385
 21
-859.52444577
 31
0.0
  0
LINE
  5
24B
  8
0
 62
     4
 10
1129.22108385
 20
-857.52444577
 30
0.0
 11
1129.22108385
 21
-861.52444577
 31
0.0
  0
LINE
  5
24C
  8
0
 62
     4
 10
1099.22108385
 20
-861.52444577
 30
0.0
 11
1099.22108385
 21
-857.52444577
 31
0.0
  0
ENDSEC
  0
EOF
