  0
SECTION
  2
HEADER
  9
$ACADVER
  1
AC1006
  9
$DWGCODEPAGE
  3
ansi_1252
  9
$INSBASE
 10
0.0
 20
0.0
 30
0.0
  9
$EXTMIN
 10
5302.82420036
 20
2752.02628889
  9
$EXTMAX
 10
6285.66169184
 20
3225.37003889
  9
$LIMMIN
 10
5302.82420036
 20
2752.02628889
  9
$LIMMAX
 10
6285.66169184
 20
3225.37003889
  9
$ORTHOMODE
 70
     0
  9
$REGENMODE
 70
     1
  9
$FILLMODE
 70
     1
  9
$QTEXTMODE
 70
     0
  9
$MIRRTEXT
 70
     1
  9
$DRAGMODE
 70
     2
  9
$LTSCALE
 40
1.0
  9
$OSMODE
 70
    37
  9
$ATTMODE
 70
     1
  9
$TEXTSIZE
 40
1.0
  9
$TRACEWID
 40
0.05
  9
$TEXTSTYLE
  7
STANDARD
  9
$CLAYER
  8
0
  9
$CELTYPE
  6
BYBLOCK
  9
$CECOLOR
 62
   256
  9
$DIMSCALE
 40
1.0
  9
$DIMASZ
 40
0.18
  9
$DIMEXO
 40
0.0625
  9
$DIMDLI
 40
0.38
  9
$DIMRND
 40
0.0
  9
$DIMDLE
 40
0.0
  9
$DIMEXE
 40
0.18
  9
$DIMTP
 40
0.0
  9
$DIMTM
 40
0.0
  9
$DIMTXT
 40
0.18
  9
$DIMCEN
 40
0.09
  9
$DIMTSZ
 40
0.0
  9
$DIMTOL
 70
     0
  9
$DIMLIM
 70
     0
  9
$DIMTIH
 70
     1
  9
$DIMTOH
 70
     1
  9
$DIMSE1
 70
     0
  9
$DIMSE2
 70
     0
  9
$DIMTAD
 70
     0
  9
$DIMZIN
 70
     0
  9
$DIMBLK
  1

  9
$DIMASO
 70
     1
  9
$DIMSHO
 70
     1
  9
$DIMPOST
  1

  9
$DIMAPOST
  1

  9
$DIMALT
 70
     0
  9
$DIMALTD
 70
     2
  9
$DIMALTF
 40
25.4
  9
$DIMLFAC
 40
1.0
  9
$DIMTOFL
 70
     0
  9
$DIMTVP
 40
0.0
  9
$DIMTIX
 70
     0
  9
$DIMSOXD
 70
     0
  9
$DIMSAH
 70
     0
  9
$DIMBLK1
  1

  9
$DIMBLK2
  1

  9
$LUNITS
 70
     2
  9
$LUPREC
 70
     4
  9
$SKETCHINC
 40
0.1
  9
$FILLETRAD
 40
0.5
  9
$AUNITS
 70
     0
  9
$AUPREC
 70
     0
  9
$MENU
  1
.
  9
$ELEVATION
 40
0.0
  9
$THICKNESS
 40
0.0
  9
$LIMCHECK
 70
     0
  9
$CHAMFERA
 40
0.0
  9
$CHAMFERB
 40
0.0
  9
$SKPOLY
 70
     0
  9
$TDCREATE
 40
2447893.125
  9
$TDUPDATE
 40
2460791.494518599
  9
$TDINDWG
 40
0.0
  9
$TDUSRTIMER
 40
0.0
  9
$USRTIMER
 70
     1
  9
$ANGBASE
 50
0.0
  9
$ANGDIR
 70
     0
  9
$PDMODE
 70
     0
  9
$PDSIZE
 40
0.0
  9
$PLINEWID
 40
0.0
  9
$COORDS
 70
     1
  9
$SPLFRAME
 70
     0
  9
$SPLINETYPE
 70
     6
  9
$SPLINESEGS
 70
     8
  9
$ATTDIA
 70
     0
  9
$ATTREQ
 70
     1
  9
$HANDLING
 70
     1
  9
$HANDSEED
  5
391
  9
$SURFTAB1
 70
     6
  9
$SURFTAB2
 70
     6
  9
$SURFTYPE
 70
     6
  9
$SURFU
 70
     6
  9
$SURFV
 70
     6
  9
$UCSNAME
  2

  9
$UCSORG
 10
0.0
 20
0.0
 30
0.0
  9
$UCSXDIR
 10
1.0
 20
0.0
 30
0.0
  9
$UCSYDIR
 10
0.0
 20
1.0
 30
0.0
  9
$USERI1
 70
     0
  9
$USERI2
 70
     0
  9
$USERI3
 70
     0
  9
$USERI4
 70
     0
  9
$USERI5
 70
     0
  9
$USERR1
 40
0.0
  9
$USERR2
 40
0.0
  9
$USERR3
 40
0.0
  9
$USERR4
 40
0.0
  9
$USERR5
 40
0.0
  9
$WORLDVIEW
 70
     1
  0
ENDSEC
  0
SECTION
  2
TABLES
  0
TABLE
  2
VPORT
 70
     1
  0
VPORT
  2
*ACTIVE
 70
     0
 10
0.0
 20
0.0
 11
1.0
 21
1.0
 12
5794.2429461
 22
2988.69816389
 13
0.0
 23
0.0
 14
1.0
 24
1.0
 15
0.0
 25
0.0
 16
0.0
 26
0.0
 36
1.0
 17
0.0
 27
0.0
 37
0.0
 40
473.34375
 41
2.076371541
 42
50.0
 43
0.0
 44
0.0
 50
0.0
 51
0.0
 71
     0
 72
   100
 73
     1
 74
     1
 75
     0
 76
     0
 77
     0
 78
     0
  0
ENDTAB
  0
TABLE
  2
LTYPE
 70
    19
  0
LTYPE
  2
CONTINUOUS
 70
     0
  3
Solid line
 72
    65
 73
     0
 40
0.0
  0
LTYPE
  2
DOT
 70
     0
  3
..............
 72
    65
 73
     2
 40
2.0
 49
0.5
 49
-1.5
  0
LTYPE
  2
HIDDEN
 70
     0
  3
-- -- -- -- --
 72
    65
 73
     2
 40
7.0
 49
4.0
 49
-3.0
  0
LTYPE
  2
DASHDOT
 70
     0
  3
--.--.--.--.--
 72
    65
 73
     4
 40
8.5
 49
4.0
 49
-2.0
 49
0.5
 49
-2.0
  0
LTYPE
  2
STRICHPUNKT2
 70
     0
  3
--.--.--.--.--
 72
    65
 73
     4
 40
18.5
 49
10.0
 49
-4.0
 49
0.5
 49
-4.0
  0
LTYPE
  2
STRICHPUNKT3
 70
     0
  3
--.--.--.--.--
 72
    65
 73
     4
 40
35.5
 49
25.0
 49
-5.0
 49
0.5
 49
-5.0
  0
LTYPE
  2
PHANTOM
 70
     0
  3
--..--..--..--
 72
    65
 73
     6
 40
23.0
 49
10.0
 49
-4.0
 49
0.5
 49
-4.0
 49
0.5
 49
-4.0
  0
LTYPE
  2
PHANTOM2
 70
     0
  3
--..--..--..--
 72
    65
 73
     6
 40
33.0
 49
20.0
 49
-4.0
 49
0.5
 49
-4.0
 49
0.5
 49
-4.0
  0
LTYPE
  2
PHANTOM3
 70
     0
  3
--..--..--..--
 72
    65
 73
     6
 40
50.0
 49
37.0
 49
-4.0
 49
0.5
 49
-4.0
 49
0.5
 49
-4.0
  0
LTYPE
  2
STR3PKT
 70
     0
  3
--...--...--...
 72
    65
 73
     8
 40
31.5
 49
20.0
 49
-2.5
 49
0.5
 49
-2.5
 49
0.5
 49
-2.5
 49
0.5
 49
-2.5
  0
LTYPE
  2
2STRPKT
 70
     0
  3
--.--.--.--.--
 72
    65
 73
     6
 40
28.0
 49
10.0
 49
-2.5
 49
10.0
 49
-2.5
 49
0.5
 49
-2.5
  0
LTYPE
  2
GESTRICHELT2
 70
     0
  3
-- -- -- -- --
 72
    65
 73
     2
 40
25.0
 49
10.0
 49
-15.0
  0
LTYPE
  2
2STR2PKT
 70
     0
  3
--..--..--..--
 72
    65
 73
     8
 40
31.0
 49
10.0
 49
-2.5
 49
10.0
 49
-2.5
 49
0.5
 49
-2.5
 49
0.5
 49
-2.5
  0
LTYPE
  2
STR3PKT2
 70
     0
  3
--...--...--...
 72
    65
 73
     8
 40
21.0
 49
10.0
 49
-2.5
 49
0.5
 49
-2.5
 49
0.5
 49
-2.5
 49
0.5
 49
-2.0
  0
LTYPE
  2
2STR3PKT
 70
     0
  3
--...--...--...
 72
    65
 73
    10
 40
34.0
 49
10.0
 49
-2.5
 49
10.0
 49
-2.5
 49
0.5
 49
-2.5
 49
0.5
 49
-2.5
 49
0.5
 49
-2.5
  0
LTYPE
  2
STRKSTR
 70
     0
  3
-- - -- - -- -
 72
    65
 73
     4
 40
30.0
 49
20.0
 49
-2.5
 49
5.0
 49
-2.5
  0
LTYPE
  2
STRKSTR2
 70
     0
  3
-- - -- - -- -
 72
    65
 73
     6
 40
37.5
 49
20.0
 49
-2.5
 49
5.0
 49
-2.5
 49
5.0
 49
-2.5
  0
LTYPE
  2
STRKSTR3
 70
     0
  3
-- - -- - -- -
 72
    65
 73
     8
 40
45.0
 49
20.0
 49
-2.5
 49
5.0
 49
-2.5
 49
5.0
 49
-2.5
 49
5.0
 49
-2.5
  0
LTYPE
  2
PUNKT2
 70
     0
  3
..............
 72
    65
 73
     2
 40
3.5
 49
0.5
 49
-3.0
  0
ENDTAB
  0
TABLE
  2
LAYER
 70
    16
  0
LAYER
  2
0
 70
     0
 62
     7
  6
CONTINUOUS
  0
LAYER
  2
LE_GREEN
 70
     0
 62
     3
  6
CONTINUOUS
  0
LAYER
  2
LE_RED
 70
     0
 62
     1
  6
CONTINUOUS
  0
LAYER
  2
LE_ALL
 70
     0
 62
     7
  6
CONTINUOUS
  0
LAYER
  2
LE_HIDDEN1
 70
     0
 62
     3
  6
HIDDEN
  0
LAYER
  2
LE_HIDDEN
 70
     0
 62
     7
  6
CONTINUOUS
  0
LAYER
  2
LE_MIDDLE
 70
     0
 62
     7
  6
CONTINUOUS
  0
LAYER
  2
TXT_YELLOW
 70
     0
 62
     2
  6
CONTINUOUS
  0
LAYER
  2
TXT_DIM49
 70
     0
 62
     2
  6
CONTINUOUS
  0
LAYER
  2
TXT_ALL
 70
     0
 62
     7
  6
CONTINUOUS
  0
LAYER
  2
DIM49
 70
     0
 62
     4
  6
CONTINUOUS
  0
LAYER
  2
HATCH
 70
     0
 62
     3
  6
CONTINUOUS
  0
LAYER
  2
APPLE
 70
     0
 62
     7
  6
CONTINUOUS
  0
LAYER
  2
10
 70
     0
 62
     7
  6
CONTINUOUS
  0
LAYER
  2
20
 70
     0
 62
     7
  6
CONTINUOUS
  0
LAYER
  2
49
 70
     0
 62
     7
  6
CONTINUOUS
  0
ENDTAB
  0
TABLE
  2
STYLE
 70
     5
  0
STYLE
  2
MONOTXT
 70
     0
 40
0.0
 41
1.0
 50
0.0
 71
     0
 42
1.0
  3
monotxt.shx
  4

  0
STYLE
  2
STANDARD
 70
     0
 40
0.0
 41
1.0
 50
0.0
 71
     0
 42
1.0
  3
txt
  4

  0
STYLE
  2
ARIAL
 70
     0
 40
0.0
 41
1.0
 50
0.0
 71
     0
 42
1.0
  3
arial.ttf
  4

  0
STYLE
  2
ARIAL_NARROW
 70
     0
 40
0.0
 41
1.0
 50
0.0
 71
     0
 42
1.0
  3
ArialN.ttf
  4

  0
STYLE
  2
ISOCPEUR
 70
     0
 40
0.0
 41
1.0
 50
0.0
 71
     0
 42
1.0
  3
ISOCPEUR.ttf
  4

  0
ENDTAB
  0
TABLE
  2
VIEW
 70
     0
  0
ENDTAB
  0
TABLE
  2
UCS
 70
     0
  0
ENDTAB
  0
ENDSEC
  0
SECTION
  2
BLOCKS
  0
ENDSEC
  0
SECTION
  2
ENTITIES
  0
POLYLINE
  5
16D
  8
0
 66
     1
 10
0.0
 20
0.0
 30
0.0
 70
     1
  0
VERTEX
  5
16E
  8
0
 10
5487.69018342
 20
2830.20818534
 30
0.0
  0
VERTEX
  5
16F
  8
0
 10
5907.69018342
 20
2830.20818534
 30
0.0
  0
VERTEX
  5
170
  8
0
 10
5907.69018342
 20
3127.20818534
 30
0.0
  0
VERTEX
  5
171
  8
0
 10
5487.69018342
 20
3127.20818534
 30
0.0
  0
SEQEND
  5
172
  8
0
  0
POLYLINE
  5
173
  8
0
 66
     1
 10
0.0
 20
0.0
 30
0.0
 70
     1
  0
VERTEX
  5
174
  8
0
 10
5492.69018342
 20
2835.20818534
 30
0.0
  0
VERTEX
  5
175
  8
0
 10
5902.69018342
 20
2835.20818534
 30
0.0
  0
VERTEX
  5
176
  8
0
 10
5902.69018342
 20
3122.20818534
 30
0.0
  0
VERTEX
  5
177
  8
0
 10
5492.69018342
 20
3122.20818534
 30
0.0
  0
SEQEND
  5
178
  8
0
  0
LINE
  5
179
  8
0
 10
5717.69018342
 20
2835.20818534
 30
0.0
 11
5717.69018342
 21
2830.20818534
 31
0.0
  0
LINE
  5
17A
  8
0
 10
5717.69018342
 20
3122.20818534
 30
0.0
 11
5717.69018342
 21
3127.20818534
 31
0.0
  0
LINE
  5
17B
  8
0
 10
5507.69018342
 20
2835.20818534
 30
0.0
 11
5507.69018342
 21
2830.20818534
 31
0.0
  0
LINE
  5
17C
  8
0
 10
5507.69018342
 20
3122.20818534
 30
0.0
 11
5507.69018342
 21
3127.20818534
 31
0.0
  0
TEXT
  5
17D
  8
TXT_ALL
 62
     4
 10
5906.69018342
 20
2831.20818534
 30
0.0
 40
2.5
  1

 50
90.00020741
  0
POLYLINE
  5
17E
  8
0
 66
     1
 10
0.0
 20
0.0
 30
0.0
  0
VERTEX
  5
17F
  8
0
 10
5902.69018342
 20
3112.20818534
 30
0.0
  0
VERTEX
  5
180
  8
0
 10
5833.69688342
 20
3112.20818534
 30
0.0
  0
VERTEX
  5
181
  8
0
 10
5833.69688342
 20
3122.20818534
 30
0.0
  0
SEQEND
  5
182
  8
0
  0
LINE
  5
183
  8
0
 10
5835.60018342
 20
2854.70818534
 30
0.0
 11
5695.71018342
 21
2854.70818534
 31
0.0
  0
LINE
  5
184
  8
0
 10
5695.71018342
 20
2844.95818534
 30
0.0
 11
5835.60018342
 21
2844.95818534
 31
0.0
  0
POLYLINE
  5
185
  8
0
 66
     1
 10
0.0
 20
0.0
 30
0.0
  0
VERTEX
  5
186
  8
0
 10
5695.71018342
 20
2854.70818534
 30
0.0
  0
VERTEX
  5
187
  8
0
 10
5695.71018342
 20
2844.95818534
 30
0.0
  0
VERTEX
  5
188
  8
0
 10
5695.71018342
 20
2835.20818534
 30
0.0
  0
SEQEND
  5
189
  8
0
  0
POLYLINE
  5
18A
  8
0
 66
     1
 10
0.0
 20
0.0
 30
0.0
  0
VERTEX
  5
18B
  8
0
 10
5765.65518342
 20
2854.70818534
 30
0.0
  0
VERTEX
  5
18C
  8
0
 10
5765.65518342
 20
2844.95818534
 30
0.0
  0
VERTEX
  5
18D
  8
0
 10
5765.65518342
 20
2835.20818534
 30
0.0
  0
SEQEND
  5
18E
  8
0
  0
TEXT
  5
18F
  8
TXT_ALL
 10
5697.71018342
 20
2848.53318539
 30
0.0
 40
2.5999999
  1
E-mail: verkoop@jonkers-bouwmetaal.nl
  7
ARIAL
  0
TEXT
  5
190
  8
TXT_ALL
 10
5697.71018342
 20
2838.78318539
 30
0.0
 40
2.5999999
  1
Telefoon: 0527-685156
  7
ARIAL
  0
TEXT
  5
191
  8
TXT_ALL
 10
5767.65518342
 20
2838.78318539
 30
0.0
 40
2.5999999
  1
Website: www.jonkers-bouwmetaal.nl
  7
ARIAL
  0
TEXT
  5
192
  8
TXT_ALL
 10
5767.65518342
 20
2848.53318539
 30
0.0
 40
2.5999999
  1
Adres: Hoornse Hop 10, 8321 WX Urk
  7
ARIAL
  0
TEXT
  5
193
  8
TXT_ALL
 10
5496.13214368
 20
3115.95818534
 30
0.0
 40
2.5
  1
Art. nr. 91002432
  7
ARIAL
  0
TEXT
  5
194
  8
TXT_ALL
 10
5538.87018049
 20
3115.95818534
 30
0.0
 40
2.5
  1
Omschrijving: L03-anker 700x50 60x8
  7
ARIAL
  0
LINE
  5
195
  8
0
 10
5902.69018342
 20
3112.20818534
 30
0.0
 11
5492.69018342
 21
3112.20818534
 31
0.0
  0
LINE
  5
196
  8
0
 10
5535.71018342
 20
3112.20818534
 30
0.0
 11
5535.71018342
 21
3122.20818534
 31
0.0
  0
LINE
  5
197
  8
0
 10
5695.71018342
 20
3112.20818534
 30
0.0
 11
5695.71018342
 21
3122.20818534
 31
0.0
  0
TEXT
  5
198
  8
TXT_ALL
 10
5766.70388342
 20
3115.95818534
 30
0.0
 40
2.5
  1
Behandeling: Thermisch Verzinkt
  7
ARIAL
  0
LINE
  5
199
  8
0
 10
5835.60018342
 20
2854.70818534
 30
0.0
 11
5902.69018342
 21
2854.70818534
 31
0.0
  0
LINE
  5
19A
  8
0
 10
5835.60018342
 20
2835.20818534
 30
0.0
 11
5835.60018342
 21
2854.70818534
 31
0.0
  0
LINE
  5
19B
  8
0
 10
5835.60018342
 20
2835.20818534
 30
0.0
 11
5835.60018342
 21
2854.70818534
 31
0.0
  0
TEXT
  5
19C
  8
TXT_ALL
 10
5630.05538151
 20
2836.36271876
 30
0.0
 40
2.5
  1

  0
TEXT
  5
19D
  8
TXT_ALL
 10
5751.19056448
 20
2846.45818534
 30
0.0
 40
2.5
  1

  0
POLYLINE
  5
19E
  8
0
 66
     1
 10
0.0
 20
0.0
 30
0.0
  0
VERTEX
  5
19F
  8
0
 10
5833.69688342
 20
3112.20818534
 30
0.0
  0
VERTEX
  5
1A0
  8
0
 10
5764.70388342
 20
3112.20818534
 30
0.0
  0
VERTEX
  5
1A1
  8
0
 10
5764.70388342
 20
3122.20818534
 30
0.0
  0
SEQEND
  5
1A2
  8
0
  0
TEXT
  5
1A3
  8
TXT_ALL
 10
5835.69688342
 20
3115.95818534
 30
0.0
 40
2.5
  1
Verpakkingshoeveelheid: 1 st.
  7
ARIAL
  0
TEXT
  5
1A4
  8
TXT_ALL
 10
5697.71018342
 20
3115.95818534
 30
0.0
 40
2.5
  1
Materiaal: S355
  7
ARIAL
  0
TEXT
  5
1A5
  8
TXT_ALL
 10
5871.03104384
 20
2831.95867549
 30
0.0
 40
1.5
  1
Onderdeel van
  7
ARIAL
  0
POLYLINE
  5
1A6
  8
0
 66
     1
 10
0.0
 20
0.0
 30
0.0
  0
VERTEX
  5
303
  8
0
 10
5512.789360770001
 20
2936.0791295
 30
0.0
  0
VERTEX
  5
304
  8
0
 10
5512.937231945696
 20
2936.110416376636
 30
0.0
  0
VERTEX
  5
305
  8
0
 10
5513.090437217244
 20
2936.235940784413
 30
0.0
  0
VERTEX
  5
306
  8
0
 10
5513.243088991994
 20
2936.450878890744
 30
0.0
  0
VERTEX
  5
307
  8
0
 10
5513.389320947862
 20
2936.746970744763
 30
0.0
  0
VERTEX
  5
308
  8
0
 10
5513.523513472805
 20
2937.112837702593
 30
0.0
  0
VERTEX
  5
309
  8
0
 10
5513.640509623355
 20
2937.534419702259
 30
0.0
  0
VERTEX
  5
30A
  8
0
 10
5513.735813303072
 20
2937.995515583977
 30
0.0
  0
VERTEX
  5
30B
  8
0
 10
5513.805762044998
 20
2938.478405691637
 30
0.0
  0
VERTEX
  5
30C
  8
0
 10
5513.847667758216
 20
2938.964532829254
 30
0.0
  0
VERTEX
  5
30D
  8
0
 10
5513.859920029669
 20
2939.435215403592
 30
0.0
  0
VERTEX
  5
30E
  8
0
 10
5513.842048011441
 20
2939.872365347325
 30
0.0
  0
VERTEX
  5
30F
  8
0
 10
5513.794738515166
 20
2940.25918323331
 30
0.0
  0
VERTEX
  5
310
  8
0
 10
5513.719809618249
 20
2940.580803867151
 30
0.0
  0
VERTEX
  5
311
  8
0
 10
5513.620140796174
 20
2940.824867548285
 30
0.0
  0
VERTEX
  5
312
  8
0
 10
5513.499562265869
 20
2940.98199504634
 30
0.0
  0
VERTEX
  5
313
  8
0
 10
5513.362707792619
 20
2941.046148039698
 30
0.0
  0
SEQEND
  5
386
  8
0
  0
POLYLINE
  5
1A7
  8
0
 66
     1
 10
0.0
 20
0.0
 30
0.0
  0
VERTEX
  5
314
  8
0
 10
5513.362707792619
 20
2941.046148039698
 30
0.0
  0
VERTEX
  5
315
  8
0
 10
5513.214836616728
 20
2941.014861164626
 30
0.0
  0
VERTEX
  5
316
  8
0
 10
5513.061631344866
 20
2940.889336757937
 30
0.0
  0
VERTEX
  5
317
  8
0
 10
5512.908979569725
 20
2940.674398652194
 30
0.0
  0
VERTEX
  5
318
  8
0
 10
5512.762747613428
 20
2940.378306798283
 30
0.0
  0
VERTEX
  5
319
  8
0
 10
5512.628555088064
 20
2940.012439840124
 30
0.0
  0
VERTEX
  5
31A
  8
0
 10
5512.511558937134
 20
2939.590857839771
 30
0.0
  0
VERTEX
  5
31B
  8
0
 10
5512.416255257119
 20
2939.129761957109
 30
0.0
  0
VERTEX
  5
31C
  8
0
 10
5512.346306515003
 20
2938.646871848362
 30
0.0
  0
VERTEX
  5
31D
  8
0
 10
5512.304400801723
 20
2938.160744709646
 30
0.0
  0
VERTEX
  5
31E
  8
0
 10
5512.292148530343
 20
2937.690062134319
 30
0.0
  0
VERTEX
  5
31F
  8
0
 10
5512.310020548784
 20
2937.252912189831
 30
0.0
  0
VERTEX
  5
320
  8
0
 10
5512.357330045398
 20
2936.866094303431
 30
0.0
  0
VERTEX
  5
321
  8
0
 10
5512.432258942756
 20
2936.544473669597
 30
0.0
  0
VERTEX
  5
322
  8
0
 10
5512.531927765347
 20
2936.300409988947
 30
0.0
  0
VERTEX
  5
323
  8
0
 10
5512.652506296205
 20
2936.143282491879
 30
0.0
  0
VERTEX
  5
324
  8
0
 10
5512.789360770001
 20
2936.0791295
 30
0.0
  0
SEQEND
  5
387
  8
0
  0
POLYLINE
  5
1A8
  8
0
 66
     1
 10
0.0
 20
0.0
 30
0.0
  0
VERTEX
  5
1A9
  8
0
 10
5517.78014261
 20
2950.56776255
 30
0.0
  0
VERTEX
  5
1AA
  8
0
 10
5508.37192596
 20
2940.61152597
 30
0.0
  0
VERTEX
  5
1AB
  8
0
 10
5504.57371478
 20
2941.04995659
 30
0.0
  0
SEQEND
  5
1AC
  8
0
  0
LINE
  5
1AD
  8
0
 10
5513.98193143
 20
2951.00619318
 30
0.0
 11
5504.57371478
 21
2941.04995659
 31
0.0
  0
LINE
  5
1AE
  8
0
 10
5517.78014261
 20
2950.56776255
 30
0.0
 11
5513.98193143
 21
2951.00619318
 31
0.0
  0
POLYLINE
  5
1AF
  8
0
 66
     1
 10
0.0
 20
0.0
 30
0.0
  0
VERTEX
  5
1B0
  8
0
 10
5517.78014261
 20
2950.56776255
 30
0.0
  0
VERTEX
  5
1B1
  8
0
 10
5517.78014261
 20
2934.63988344
 30
0.0
  0
VERTEX
  5
1B2
  8
0
 10
5508.37192596
 20
2924.68364686
 30
0.0
  0
VERTEX
  5
1B3
  8
0
 10
5508.37192596
 20
2940.61152597
 30
0.0
  0
SEQEND
  5
1B4
  8
0
  0
POLYLINE
  5
1B5
  8
0
 66
     1
 10
0.0
 20
0.0
 30
0.0
  0
VERTEX
  5
1B6
  8
0
 10
5508.37192596
 20
2924.68364686
 30
0.0
  0
VERTEX
  5
1B7
  8
0
 10
5504.57371478
 20
2925.12207748
 30
0.0
  0
VERTEX
  5
1B8
  8
0
 10
5504.57371478
 20
2941.04995659
 30
0.0
  0
SEQEND
  5
1B9
  8
0
  0
LINE
  5
1BA
  8
0
  6
STRICHPUNKT2
 62
     1
 10
5514.26297528
 20
2938.4256292
 30
0.0
 11
5512.34630652
 21
2938.64687184
 31
0.0
  0
LINE
  5
1BB
  8
0
  6
STRICHPUNKT2
 62
     1
 10
5513.07603428
 20
2938.56263877
 30
0.0
 11
5514.25206137
 21
2939.80716834
 31
0.0
  0
LINE
  5
1BC
  8
0
  6
STRICHPUNKT2
 62
     1
 10
5513.07603428
 20
2938.56263877
 30
0.0
 11
5511.9000072
 21
2937.3181092
 31
0.0
  0
LINE
  5
1BD
  8
0
  6
STRICHPUNKT2
 62
     1
 10
5513.07603428
 20
2938.56263877
 30
0.0
 11
5513.07603428
 21
2942.07614151
 31
0.0
  0
LINE
  5
1BE
  8
0
  6
STRICHPUNKT2
 62
     1
 10
5513.07603428
 20
2938.56263877
 30
0.0
 11
5513.07603428
 21
2935.04913602
 31
0.0
  0
POLYLINE
  5
1BF
  8
0
 66
     1
 10
0.0
 20
0.0
 30
0.0
  0
VERTEX
  5
325
  8
0
 10
5689.51628894
 20
2905.143378004392
 30
0.0
  0
VERTEX
  5
326
  8
0
 10
5689.592187622587
 20
2904.890008893195
 30
0.0
  0
VERTEX
  5
327
  8
0
 10
5689.816591898285
 20
2904.647628571755
 30
0.0
  0
VERTEX
  5
328
  8
0
 10
5690.179769201681
 20
2904.426749238765
 30
0.0
  0
VERTEX
  5
329
  8
0
 10
5690.665968287162
 20
2904.236950580487
 30
0.0
  0
VERTEX
  5
32A
  8
0
 10
5691.254102371115
 20
2904.086464293272
 30
0.0
  0
VERTEX
  5
32B
  8
0
 10
5691.918663680002
 20
2903.981817069313
 30
0.0
  0
SEQEND
  5
388
  8
0
  0
POLYLINE
  5
1C0
  8
0
 66
     1
 10
0.0
 20
0.0
 30
0.0
  0
VERTEX
  5
32C
  8
0
 10
5694.113914221301
 20
2906.304938928228
 30
0.0
  0
VERTEX
  5
32D
  8
0
 10
5693.470046412275
 20
2906.356325729363
 30
0.0
  0
VERTEX
  5
32E
  8
0
 10
5692.810021775404
 20
2906.36452340669
 30
0.0
  0
VERTEX
  5
32F
  8
0
 10
5692.157341641428
 20
2906.329240067579
 30
0.0
  0
VERTEX
  5
330
  8
0
 10
5691.535245827224
 20
2906.251732036985
 30
0.0
  0
VERTEX
  5
331
  8
0
 10
5690.965885141514
 20
2906.134759123801
 30
0.0
  0
VERTEX
  5
332
  8
0
 10
5690.469532666601
 20
2905.982486353038
 30
0.0
  0
VERTEX
  5
333
  8
0
 10
5690.063861899846
 20
2905.80033566283
 30
0.0
  0
VERTEX
  5
334
  8
0
 10
5689.763317457899
 20
2905.594792846853
 30
0.0
  0
VERTEX
  5
335
  8
0
 10
5689.578600750888
 20
2905.373176616302
 30
0.0
  0
VERTEX
  5
336
  8
0
 10
5689.51628894
 20
2905.143378004392
 30
0.0
  0
SEQEND
  5
389
  8
0
  0
POLYLINE
  5
1C1
  8
0
 66
     1
 10
0.0
 20
0.0
 30
0.0
  0
VERTEX
  5
1C2
  8
0
 10
5694.11391421
 20
2906.30493894
 30
0.0
  0
VERTEX
  5
1C3
  8
0
 10
5706.45810055
 20
2904.8800394
 30
0.0
  0
SEQEND
  5
1C4
  8
0
  0
POLYLINE
  5
1C5
  8
0
 66
     1
 10
0.0
 20
0.0
 30
0.0
  0
VERTEX
  5
337
  8
0
 10
5708.86047527
 20
2903.71847847
 30
0.0
  0
VERTEX
  5
338
  8
0
 10
5708.784576586019
 20
2903.971847579106
 30
0.0
  0
VERTEX
  5
339
  8
0
 10
5708.560172311351
 20
2904.214227898532
 30
0.0
  0
VERTEX
  5
33A
  8
0
 10
5708.196995011211
 20
2904.435107229837
 30
0.0
  0
VERTEX
  5
33B
  8
0
 10
5707.710795930817
 20
2904.624905886986
 30
0.0
  0
VERTEX
  5
33C
  8
0
 10
5707.12266185323
 20
2904.775392173807
 30
0.0
  0
VERTEX
  5
33D
  8
0
 10
5706.458100551302
 20
2904.880039398227
 30
0.0
  0
SEQEND
  5
38A
  8
0
  0
POLYLINE
  5
1C6
  8
0
 66
     1
 10
0.0
 20
0.0
 30
0.0
  0
VERTEX
  5
33E
  8
0
 10
5704.262850010003
 20
2902.556917539313
 30
0.0
  0
VERTEX
  5
33F
  8
0
 10
5704.906717818992
 20
2902.505530739665
 30
0.0
  0
VERTEX
  5
340
  8
0
 10
5705.566742455022
 20
2902.497333063732
 30
0.0
  0
VERTEX
  5
341
  8
0
 10
5706.219422587452
 20
2902.532616404092
 30
0.0
  0
VERTEX
  5
342
  8
0
 10
5706.841518399527
 20
2902.610124435749
 30
0.0
  0
VERTEX
  5
343
  8
0
 10
5707.410879082669
 20
2902.727097349782
 30
0.0
  0
VERTEX
  5
344
  8
0
 10
5707.907231554726
 20
2902.879370121162
 30
0.0
  0
VERTEX
  5
345
  8
0
 10
5708.312902318493
 20
2903.061520811747
 30
0.0
  0
VERTEX
  5
346
  8
0
 10
5708.613446757467
 20
2903.26706362787
 30
0.0
  0
VERTEX
  5
347
  8
0
 10
5708.798163461658
 20
2903.48867985835
 30
0.0
  0
VERTEX
  5
348
  8
0
 10
5708.86047527
 20
2903.71847847
 30
0.0
  0
SEQEND
  5
38B
  8
0
  0
LINE
  5
1C7
  8
0
 10
5704.26285
 20
2902.55691753
 30
0.0
 11
5691.91866366
 21
2903.98181707
 31
0.0
  0
POLYLINE
  5
1C8
  8
0
 66
     1
 10
0.0
 20
0.0
 30
0.0
  0
VERTEX
  5
349
  8
0
 10
5821.38248148
 20
2890.72997119
 30
0.0
  0
VERTEX
  5
34A
  8
0
 10
5821.315229961565
 20
2890.968619632285
 30
0.0
  0
VERTEX
  5
34B
  8
0
 10
5821.11605984439
 20
2891.198096948788
 30
0.0
  0
VERTEX
  5
34C
  8
0
 10
5820.792625124368
 20
2891.409584454951
 30
0.0
  0
VERTEX
  5
34D
  8
0
 10
5820.357355216374
 20
2891.594954804532
 30
0.0
  0
VERTEX
  5
34E
  8
0
 10
5819.826977298833
 20
2891.747084318972
 30
0.0
  0
VERTEX
  5
34F
  8
0
 10
5819.22187349763
 20
2891.860126746357
 30
0.0
  0
VERTEX
  5
350
  8
0
 10
5818.565297612447
 20
2891.929737929609
 30
0.0
  0
VERTEX
  5
351
  8
0
 10
5817.882481486282
 20
2891.95324275
 30
0.0
  0
VERTEX
  5
352
  8
0
 10
5817.199665359875
 20
2891.929737930466
 30
0.0
  0
VERTEX
  5
353
  8
0
 10
5816.543089473977
 20
2891.860126748038
 30
0.0
  0
VERTEX
  5
354
  8
0
 10
5815.937985671613
 20
2891.747084321411
 30
0.0
  0
VERTEX
  5
355
  8
0
 10
5815.407607752511
 20
2891.594954807637
 30
0.0
  0
VERTEX
  5
356
  8
0
 10
5814.972337842612
 20
2891.409584458602
 30
0.0
  0
VERTEX
  5
357
  8
0
 10
5814.648903120417
 20
2891.198096952845
 30
0.0
  0
VERTEX
  5
358
  8
0
 10
5814.449733000887
 20
2890.968619636591
 30
0.0
  0
VERTEX
  5
359
  8
0
 10
5814.38248148
 20
2890.729971194392
 30
0.0
  0
SEQEND
  5
38C
  8
0
  0
POLYLINE
  5
1C9
  8
0
 66
     1
 10
0.0
 20
0.0
 30
0.0
  0
VERTEX
  5
35A
  8
0
 10
5814.38248148
 20
2890.729971194392
 30
0.0
  0
VERTEX
  5
35B
  8
0
 10
5814.449732996291
 20
2890.491322751484
 30
0.0
  0
VERTEX
  5
35C
  8
0
 10
5814.648903112004
 20
2890.261845434255
 30
0.0
  0
VERTEX
  5
35D
  8
0
 10
5814.972337831269
 20
2890.050357927331
 30
0.0
  0
VERTEX
  5
35E
  8
0
 10
5815.407607739184
 20
2889.86498757702
 30
0.0
  0
VERTEX
  5
35F
  8
0
 10
5815.93798565725
 20
2889.712858061943
 30
0.0
  0
VERTEX
  5
360
  8
0
 10
5816.543089459467
 20
2889.599815634063
 30
0.0
  0
VERTEX
  5
361
  8
0
 10
5817.199665346012
 20
2889.530204450498
 30
0.0
  0
VERTEX
  5
362
  8
0
 10
5817.882481473718
 20
2889.50669963
 30
0.0
  0
VERTEX
  5
363
  8
0
 10
5818.565297601665
 20
2889.530204449641
 30
0.0
  0
VERTEX
  5
364
  8
0
 10
5819.221873488925
 20
2889.599815632383
 30
0.0
  0
VERTEX
  5
365
  8
0
 10
5819.826977292304
 20
2889.712858059504
 30
0.0
  0
VERTEX
  5
366
  8
0
 10
5820.357355211931
 20
2889.864987573915
 30
0.0
  0
VERTEX
  5
367
  8
0
 10
5820.79262512175
 20
2890.05035792368
 30
0.0
  0
VERTEX
  5
368
  8
0
 10
5821.116059843189
 20
2890.261845430197
 30
0.0
  0
VERTEX
  5
369
  8
0
 10
5821.315229961258
 20
2890.491322747177
 30
0.0
  0
VERTEX
  5
36A
  8
0
 10
5821.38248148
 20
2890.72997119
 30
0.0
  0
SEQEND
  5
38D
  8
0
  0
LINE
  5
1CA
  8
0
 10
5836.91719303
 20
2883.01166148
 30
0.0
 11
5512.17013714
 21
2920.49747997
 31
0.0
  0
LINE
  5
1CB
  8
0
 10
5521.57835379
 20
2930.45371655
 30
0.0
 11
5512.17013714
 21
2920.49747997
 31
0.0
  0
POLYLINE
  5
1CC
  8
0
 66
     1
 10
0.0
 20
0.0
 30
0.0
  0
VERTEX
  5
1CD
  8
0
 10
5521.57835379
 20
2930.45371655
 30
0.0
  0
VERTEX
  5
1CE
  8
0
 10
5846.32540968
 20
2892.96789807
 30
0.0
  0
VERTEX
  5
1CF
  8
0
 10
5836.91719303
 20
2883.01166148
 30
0.0
  0
VERTEX
  5
1D0
  8
0
 10
5836.91719303
 20
2879.26392522
 30
0.0
  0
VERTEX
  5
1D1
  8
0
 10
5512.17013714
 20
2916.74974371
 30
0.0
  0
SEQEND
  5
1D2
  8
0
  0
LINE
  5
1D3
  8
0
 10
5512.17013714
 20
2920.49747997
 30
0.0
 11
5512.17013714
 21
2916.74974371
 31
0.0
  0
LINE
  5
1D4
  8
0
 10
5846.32540968
 20
2889.22016181
 30
0.0
 11
5836.91719303
 21
2879.26392522
 31
0.0
  0
LINE
  5
1D5
  8
0
 10
5846.32540968
 20
2892.96789807
 30
0.0
 11
5846.32540968
 21
2889.22016181
 31
0.0
  0
LINE
  5
1D6
  8
0
  6
STRICHPUNKT2
 62
     1
 10
5817.88248148
 20
2892.3696058
 30
0.0
 11
5817.88248148
 21
2889.50669962
 31
0.0
  0
LINE
  5
1D7
  8
0
  6
STRICHPUNKT2
 62
     1
 10
5817.88248148
 20
2890.72997119
 30
0.0
 11
5822.86763366
 21
2890.15453099
 31
0.0
  0
LINE
  5
1D8
  8
0
  6
STRICHPUNKT2
 62
     1
 10
5817.88248148
 20
2890.72997119
 30
0.0
 11
5812.89732931
 21
2891.30541138
 31
0.0
  0
LINE
  5
1D9
  8
0
  6
STRICHPUNKT2
 62
     1
 10
5817.88248148
 20
2890.72997119
 30
0.0
 11
5819.5289194
 21
2892.47231259
 31
0.0
  0
LINE
  5
1DA
  8
0
  6
STRICHPUNKT2
 62
     1
 10
5817.88248148
 20
2890.72997119
 30
0.0
 11
5816.23604357
 21
2888.98762978
 31
0.0
  0
LINE
  5
1DB
  8
0
  6
STRICHPUNKT2
 62
     1
 10
5693.01628894
 20
2906.78301262
 30
0.0
 11
5693.01628894
 21
2903.85511728
 31
0.0
  0
LINE
  5
1DC
  8
0
  6
STRICHPUNKT2
 62
     1
 10
5705.36047527
 20
2905.35811308
 30
0.0
 11
5705.36047527
 21
2902.4952069
 31
0.0
  0
LINE
  5
1DD
  8
0
  6
STRICHPUNKT2
 62
     1
 10
5688.03113676
 20
2905.7188182
 30
0.0
 11
5710.34562745
 21
2903.14303827
 31
0.0
  0
LINE
  5
1DE
  8
0
  6
STRICHPUNKT2
 62
     1
 10
5691.36985102
 20
2903.4010366
 30
0.0
 11
5694.66272685
 21
2906.8857194
 31
0.0
  0
LINE
  5
1DF
  8
0
  6
STRICHPUNKT2
 62
     1
 10
5703.71403736
 20
2901.97613707
 30
0.0
 11
5707.00691319
 21
2905.46081987
 31
0.0
  0
POLYLINE
  5
1E0
  8
0
 66
     1
 10
0.0
 20
0.0
 30
0.0
  0
VERTEX
  5
1E1
  8
0
 10
5517.78014261
 20
2934.63988344
 30
0.0
  0
VERTEX
  5
1E2
  8
0
 10
5508.37192596
 20
2924.68364686
 30
0.0
  0
VERTEX
  5
1E3
  8
0
 10
5504.57371478
 20
2925.12207748
 30
0.0
  0
SEQEND
  5
1E4
  8
0
  0
POLYLINE
  5
1E5
  8
0
 66
     1
 10
0.0
 20
0.0
 30
0.0
  0
VERTEX
  5
36B
  8
0
 10
5517.780142605227
 20
2934.639883457155
 30
0.0
  0
VERTEX
  5
36C
  8
0
 10
5517.853124166631
 20
2933.900312059146
 30
0.0
  0
VERTEX
  5
36D
  8
0
 10
5518.069264213911
 20
2933.172313331743
 30
0.0
  0
VERTEX
  5
36E
  8
0
 10
5518.420256606229
 20
2932.483863857887
 30
0.0
  0
VERTEX
  5
36F
  8
0
 10
5518.89261290273
 20
2931.861420364878
 30
0.0
  0
VERTEX
  5
370
  8
0
 10
5519.468180715769
 20
2931.32890300718
 30
0.0
  0
VERTEX
  5
371
  8
0
 10
5520.124841296983
 20
2930.906776128293
 30
0.0
  0
VERTEX
  5
372
  8
0
 10
5520.837359548391
 20
2930.611261827507
 30
0.0
  0
VERTEX
  5
373
  8
0
 10
5521.578353793065
 20
2930.453716553722
 30
0.0
  0
SEQEND
  5
38E
  8
0
  0
POLYLINE
  5
1E6
  8
0
 66
     1
 10
0.0
 20
0.0
 30
0.0
  0
VERTEX
  5
1E7
  8
0
 10
5521.57835379
 20
2930.45371655
 30
0.0
  0
VERTEX
  5
1E8
  8
0
 10
5512.17013714
 20
2920.49747997
 30
0.0
  0
SEQEND
  5
1E9
  8
0
  0
POLYLINE
  5
1EA
  8
0
 66
     1
 10
0.0
 20
0.0
 30
0.0
  0
VERTEX
  5
374
  8
0
 10
5508.371925955227
 20
2924.683646867154
 30
0.0
  0
VERTEX
  5
375
  8
0
 10
5508.444907516631
 20
2923.944075469146
 30
0.0
  0
VERTEX
  5
376
  8
0
 10
5508.661047563912
 20
2923.216076741743
 30
0.0
  0
VERTEX
  5
377
  8
0
 10
5509.012039956229
 20
2922.527627267887
 30
0.0
  0
VERTEX
  5
378
  8
0
 10
5509.484396252731
 20
2921.905183774878
 30
0.0
  0
VERTEX
  5
379
  8
0
 10
5510.05996406577
 20
2921.37266641718
 30
0.0
  0
VERTEX
  5
37A
  8
0
 10
5510.716624646983
 20
2920.950539538293
 30
0.0
  0
VERTEX
  5
37B
  8
0
 10
5511.429142898392
 20
2920.655025237507
 30
0.0
  0
VERTEX
  5
37C
  8
0
 10
5512.170137143065
 20
2920.497479963722
 30
0.0
  0
SEQEND
  5
38F
  8
0
  0
POLYLINE
  5
1EB
  8
0
 66
     1
 10
0.0
 20
0.0
 30
0.0
  0
VERTEX
  5
1EC
  8
0
 10
5512.17013714
 20
2920.49747997
 30
0.0
  0
VERTEX
  5
1ED
  8
0
 10
5512.17013714
 20
2916.74974371
 30
0.0
  0
SEQEND
  5
1EE
  8
0
  0
POLYLINE
  5
1EF
  8
0
 66
     1
 10
0.0
 20
0.0
 30
0.0
  0
VERTEX
  5
37D
  8
0
 10
5504.573714783833
 20
2925.122077502379
 30
0.0
  0
VERTEX
  5
37E
  8
0
 10
5504.719677906458
 20
2923.642934708984
 30
0.0
  0
VERTEX
  5
37F
  8
0
 10
5505.151958000327
 20
2922.186937256772
 30
0.0
  0
VERTEX
  5
380
  8
0
 10
5505.85394278379
 20
2920.810038311527
 30
0.0
  0
VERTEX
  5
381
  8
0
 10
5506.798655375188
 20
2919.565151327756
 30
0.0
  0
VERTEX
  5
382
  8
0
 10
5507.949790999285
 20
2918.5001166143
 30
0.0
  0
VERTEX
  5
383
  8
0
 10
5509.263112159433
 20
2917.655862858083
 30
0.0
  0
VERTEX
  5
384
  8
0
 10
5510.688148659759
 20
2917.064834257627
 30
0.0
  0
VERTEX
  5
385
  8
0
 10
5512.170137146505
 20
2916.749743710688
 30
0.0
  0
SEQEND
  5
390
  8
0
  0
POLYLINE
  5
1F0
  8
0
 66
     1
 10
0.0
 20
0.0
 30
0.0
  0
VERTEX
  5
1F1
  8
0
 10
5547.8289145
 20
3076.23285822
 30
0.0
  0
VERTEX
  5
1F2
  8
0
 10
5547.8289145
 20
3093.23285822
 30
0.0
  0
VERTEX
  5
1F3
  8
0
 10
5543.8289145
 20
3093.23285822
 30
0.0
  0
SEQEND
  5
1F4
  8
0
  0
LINE
  5
1F5
  8
0
 10
5543.8289145
 20
3076.23285822
 30
0.0
 11
5543.8289145
 21
3093.23285822
 31
0.0
  0
LINE
  5
1F6
  8
0
 10
5547.8289145
 20
3076.23285822
 30
0.0
 11
5543.8289145
 21
3076.23285822
 31
0.0
  0
LINE
  5
1F7
  8
0
  6
STRICHPUNKT2
 62
     1
 10
5543.8289145
 20
3085.73285822
 30
0.0
 11
5542.5789145
 21
3085.73285822
 31
0.0
  0
LINE
  5
1F8
  8
0
  6
STRICHPUNKT2
 62
     1
 10
5549.0789145
 20
3085.73285822
 30
0.0
 11
5547.8289145
 21
3085.73285822
 31
0.0
  0
POLYLINE
  5
1F9
  8
0
 66
     1
 10
0.0
 20
0.0
 30
0.0
  0
VERTEX
  5
1FA
  8
0
 10
5893.8289145
 20
3072.23285822
 30
0.0
  0
VERTEX
  5
1FB
  8
0
 10
5551.8289145
 20
3072.23285822
 30
0.0
  0
VERTEX
  5
1FC
  8
0
 10
5551.8289145
 20
3068.23285822
 30
0.0
  0
SEQEND
  5
1FD
  8
0
  0
LINE
  5
1FE
  8
0
 10
5893.8289145
 20
3068.23285822
 30
0.0
 11
5551.8289145
 21
3068.23285822
 31
0.0
  0
LINE
  5
1FF
  8
0
 10
5893.8289145
 20
3072.23285822
 30
0.0
 11
5893.8289145
 21
3068.23285822
 31
0.0
  0
LINE
  5
200
  8
0
  6
STRICHPUNKT2
 62
     1
 10
5868.8289145
 20
3068.23285822
 30
0.0
 11
5868.8289145
 21
3066.48285822
 31
0.0
  0
LINE
  5
201
  8
0
  6
STRICHPUNKT2
 62
     1
 10
5868.8289145
 20
3073.98285822
 30
0.0
 11
5868.8289145
 21
3072.23285822
 31
0.0
  0
LINE
  5
202
  8
0
  6
STRICHPUNKT2
 62
     1
 10
5750.3289145
 20
3068.23285822
 30
0.0
 11
5750.3289145
 21
3066.48285822
 31
0.0
  0
LINE
  5
203
  8
0
  6
STRICHPUNKT2
 62
     1
 10
5750.3289145
 20
3073.98285822
 30
0.0
 11
5750.3289145
 21
3072.23285822
 31
0.0
  0
LINE
  5
204
  8
0
  6
STRICHPUNKT2
 62
     1
 10
5737.3289145
 20
3068.23285822
 30
0.0
 11
5737.3289145
 21
3066.48285822
 31
0.0
  0
LINE
  5
205
  8
0
  6
STRICHPUNKT2
 62
     1
 10
5737.3289145
 20
3073.98285822
 30
0.0
 11
5737.3289145
 21
3072.23285822
 31
0.0
  0
POLYLINE
  5
206
  8
0
 66
     1
 10
0.0
 20
0.0
 30
0.0
  0
VERTEX
  5
207
  8
0
 10
5551.8289145
 20
3072.23285822
 30
0.0
 42
-0.414213562
  0
VERTEX
  5
208
  8
0
 10
5547.8289145
 20
3076.23285822
 30
0.0
  0
VERTEX
  5
209
  8
0
 10
5543.8289145
 20
3076.23285822
 30
0.0
  0
SEQEND
  5
20A
  8
0
  0
ARC
  5
20B
  8
0
 10
5551.8289145
 20
3076.23285822
 30
0.0
 40
8.0
 50
180.0
 51
-90.0
  0
LINE
  5
20C
  8
0
 10
5551.8289145
 20
3072.23285822
 30
0.0
 11
5551.8289145
 21
3068.23285822
 31
0.0
  0
CIRCLE
  5
20D
  8
0
 10
5517.14684995
 20
3085.73285822
 30
0.0
 40
2.5
  0
LINE
  5
20E
  8
0
 10
5502.14684995
 20
3093.23285822
 30
0.0
 11
5532.14684995
 21
3093.23285822
 31
0.0
  0
LINE
  5
20F
  8
0
 10
5532.14684995
 20
3076.23285822
 30
0.0
 11
5532.14684995
 21
3093.23285822
 31
0.0
  0
LINE
  5
210
  8
0
 10
5502.14684995
 20
3076.23285822
 30
0.0
 11
5532.14684995
 21
3076.23285822
 31
0.0
  0
LINE
  5
211
  8
0
 10
5502.14684995
 20
3093.23285822
 30
0.0
 11
5502.14684995
 21
3076.23285822
 31
0.0
  0
LINE
  5
212
  8
0
  6
STRICHPUNKT2
 62
     1
 10
5517.14684995
 20
3085.73285822
 30
0.0
 11
5513.39684995
 21
3085.73285822
 31
0.0
  0
LINE
  5
213
  8
0
  6
STRICHPUNKT2
 62
     1
 10
5517.14684995
 20
3085.73285822
 30
0.0
 11
5520.89684995
 21
3085.73285822
 31
0.0
  0
LINE
  5
214
  8
0
  6
STRICHPUNKT2
 62
     1
 10
5517.14684995
 20
3085.73285822
 30
0.0
 11
5517.14684995
 21
3089.48285822
 31
0.0
  0
LINE
  5
215
  8
0
  6
STRICHPUNKT2
 62
     1
 10
5517.14684995
 20
3085.73285822
 30
0.0
 11
5517.14684995
 21
3081.98285822
 31
0.0
  0
LINE
  5
216
  8
0
 10
5502.14684995
 20
3068.23285822
 30
0.0
 11
5532.14684995
 21
3068.23285822
 31
0.0
  0
LINE
  5
217
  8
0
  6
STRICHPUNKT2
 62
     1
 10
5517.14684995
 20
3068.23285822
 30
0.0
 11
5517.14684995
 21
3066.48285822
 31
0.0
  0
LINE
  5
218
  8
0
 10
5502.14684995
 20
3076.23285822
 30
0.0
 11
5532.14684995
 21
3076.23285822
 31
0.0
  0
LINE
  5
219
  8
0
 10
5532.14684995
 20
3068.23285822
 30
0.0
 11
5532.14684995
 21
3076.23285822
 31
0.0
  0
LINE
  5
21A
  8
0
 10
5502.14684995
 20
3068.23285822
 30
0.0
 11
5532.14684995
 21
3068.23285822
 31
0.0
  0
LINE
  5
21B
  8
0
 10
5502.14684995
 20
3076.23285822
 30
0.0
 11
5502.14684995
 21
3068.23285822
 31
0.0
  0
POLYLINE
  5
21C
  8
0
 66
     1
 10
0.0
 20
0.0
 30
0.0
  0
VERTEX
  5
21D
  8
0
 10
5547.8289145
 20
3031.21039081
 30
0.0
  0
VERTEX
  5
21E
  8
0
 10
5547.8289145
 20
3001.21039081
 30
0.0
  0
VERTEX
  5
21F
  8
0
 10
5543.8289145
 20
3001.21039081
 30
0.0
  0
SEQEND
  5
220
  8
0
  0
LINE
  5
221
  8
0
 10
5543.8289145
 20
3031.21039081
 30
0.0
 11
5543.8289145
 21
3001.21039081
 31
0.0
  0
LINE
  5
222
  8
0
 10
5547.8289145
 20
3031.21039081
 30
0.0
 11
5543.8289145
 21
3031.21039081
 31
0.0
  0
LINE
  5
223
  8
0
  6
STRICHPUNKT2
 62
     1
 10
5543.8289145
 20
3016.21039081
 30
0.0
 11
5542.5789145
 21
3016.21039081
 31
0.0
  0
LINE
  5
224
  8
0
  6
STRICHPUNKT2
 62
     1
 10
5549.0789145
 20
3016.21039081
 30
0.0
 11
5547.8289145
 21
3016.21039081
 31
0.0
  0
POLYLINE
  5
225
  8
0
 66
     1
 10
0.0
 20
0.0
 30
0.0
 70
     1
  0
VERTEX
  5
226
  8
0
 10
5737.3289145
 20
3012.71039081
 30
0.0
 42
-1.0
  0
VERTEX
  5
227
  8
0
 10
5737.3289145
 20
3019.71039081
 30
0.0
  0
VERTEX
  5
228
  8
0
 10
5750.3289145
 20
3019.71039081
 30
0.0
 42
-1.0
  0
VERTEX
  5
229
  8
0
 10
5750.3289145
 20
3012.71039081
 30
0.0
  0
SEQEND
  5
22A
  8
0
  0
CIRCLE
  5
22B
  8
0
 10
5868.8289145
 20
3016.21039081
 30
0.0
 40
3.5
  0
LINE
  5
22C
  8
0
 10
5893.8289145
 20
3001.21039081
 30
0.0
 11
5551.8289145
 21
3001.21039081
 31
0.0
  0
LINE
  5
22D
  8
0
 10
5551.8289145
 20
3031.21039081
 30
0.0
 11
5551.8289145
 21
3001.21039081
 31
0.0
  0
POLYLINE
  5
22E
  8
0
 66
     1
 10
0.0
 20
0.0
 30
0.0
  0
VERTEX
  5
22F
  8
0
 10
5551.8289145
 20
3031.21039081
 30
0.0
  0
VERTEX
  5
230
  8
0
 10
5893.8289145
 20
3031.21039081
 30
0.0
  0
VERTEX
  5
231
  8
0
 10
5893.8289145
 20
3001.21039081
 30
0.0
  0
SEQEND
  5
232
  8
0
  0
LINE
  5
233
  8
0
  6
STRICHPUNKT2
 62
     1
 10
5868.8289145
 20
3016.21039081
 30
0.0
 11
5874.0789145
 21
3016.21039081
 31
0.0
  0
LINE
  5
234
  8
0
  6
STRICHPUNKT2
 62
     1
 10
5868.8289145
 20
3016.21039081
 30
0.0
 11
5863.5789145
 21
3016.21039081
 31
0.0
  0
LINE
  5
235
  8
0
  6
STRICHPUNKT2
 62
     1
 10
5868.8289145
 20
3016.21039081
 30
0.0
 11
5868.8289145
 21
3021.46039081
 31
0.0
  0
LINE
  5
236
  8
0
  6
STRICHPUNKT2
 62
     1
 10
5868.8289145
 20
3016.21039081
 30
0.0
 11
5868.8289145
 21
3010.96039081
 31
0.0
  0
LINE
  5
237
  8
0
  6
STRICHPUNKT2
 62
     1
 10
5732.0789145
 20
3016.21039081
 30
0.0
 11
5755.5789145
 21
3016.21039081
 31
0.0
  0
LINE
  5
238
  8
0
  6
STRICHPUNKT2
 62
     1
 10
5737.3289145
 20
3010.96039081
 30
0.0
 11
5737.3289145
 21
3021.46039081
 31
0.0
  0
LINE
  5
239
  8
0
  6
STRICHPUNKT2
 62
     1
 10
5750.3289145
 20
3010.96039081
 30
0.0
 11
5750.3289145
 21
3021.46039081
 31
0.0
  0
POLYLINE
  5
23A
  8
0
 66
     1
 10
0.0
 20
0.0
 30
0.0
  0
VERTEX
  5
23B
  8
0
 10
5547.8289145
 20
3031.21039081
 30
0.0
  0
VERTEX
  5
23C
  8
0
 10
5551.8289145
 20
3031.21039081
 30
0.0
  0
VERTEX
  5
23D
  8
0
 10
5551.8289145
 20
3001.21039081
 30
0.0
  0
VERTEX
  5
23E
  8
0
 10
5547.8289145
 20
3001.21039081
 30
0.0
  0
SEQEND
  5
23F
  8
0
  0
TEXT
  5
240
  8
TXT_DIM49
 10
5537.46408436
 20
3078.87795393
 30
0.0
 40
2.5
  1
50
 50
90.00020741
  7
ARIAL
  0
LINE
  5
241
  8
0
 62
     4
 10
5539.96408436
 20
3092.23285822
 30
0.0
 11
5537.96408436
 21
3094.23285822
 31
0.0
  0
LINE
  5
242
  8
0
 62
     4
 10
5538.21408436
 20
3068.98285822
 30
0.0
 11
5539.71408436
 21
3067.48285822
 31
0.0
  0
LINE
  5
243
  8
0
 62
     4
 10
5538.96408436
 20
3093.23285822
 30
0.0
 11
5538.96408436
 21
3068.23285822
 31
0.0
  0
LINE
  5
244
  8
0
 62
     4
 10
5540.96408436
 20
3093.23285822
 30
0.0
 11
5536.96408436
 21
3093.23285822
 31
0.0
  0
LINE
  5
245
  8
0
 62
     4
 10
5540.96408436
 20
3068.23285822
 30
0.0
 11
5536.96408436
 21
3068.23285822
 31
0.0
  0
TEXT
  5
246
  8
TXT_DIM49
 10
5544.90146236
 20
3099.39373272
 30
0.0
 40
2.5
  1
8
  7
ARIAL
  0
LINE
  5
247
  8
0
 62
     4
 10
5544.8289145
 20
3098.89373272
 30
0.0
 11
5542.8289145
 21
3096.89373272
 31
0.0
  0
LINE
  5
248
  8
0
 62
     4
 10
5547.0789145
 20
3097.14373272
 30
0.0
 11
5548.5789145
 21
3098.64373272
 31
0.0
  0
LINE
  5
249
  8
0
 62
     4
 10
5543.8289145
 20
3097.89373272
 30
0.0
 11
5547.8289145
 21
3097.89373272
 31
0.0
  0
LINE
  5
24A
  8
0
 62
     4
 10
5543.8289145
 20
3095.89373272
 30
0.0
 11
5543.8289145
 21
3099.89373272
 31
0.0
  0
LINE
  5
24B
  8
0
 62
     4
 10
5547.8289145
 20
3095.89373272
 30
0.0
 11
5547.8289145
 21
3099.89373272
 31
0.0
  0
TEXT
  5
24C
  8
TXT_DIM49
 10
5718.046558
 20
3099.39373272
 30
0.0
 40
2.5
  1
692
  7
ARIAL
  0
LINE
  5
24D
  8
0
 62
     4
 10
5548.8289145
 20
3098.89373272
 30
0.0
 11
5546.8289145
 21
3096.89373272
 31
0.0
  0
LINE
  5
24E
  8
0
 62
     4
 10
5893.0789145
 20
3097.14373272
 30
0.0
 11
5894.5789145
 21
3098.64373272
 31
0.0
  0
LINE
  5
24F
  8
0
 62
     4
 10
5547.8289145
 20
3097.89373272
 30
0.0
 11
5893.8289145
 21
3097.89373272
 31
0.0
  0
LINE
  5
250
  8
0
 62
     4
 10
5547.8289145
 20
3095.89373272
 30
0.0
 11
5547.8289145
 21
3099.89373272
 31
0.0
  0
LINE
  5
251
  8
0
 62
     4
 10
5893.8289145
 20
3095.89373272
 30
0.0
 11
5893.8289145
 21
3099.89373272
 31
0.0
  0
TEXT
  5
252
  8
TXT_DIM49
 10
5716.046558
 20
3059.73285822
 30
0.0
 40
2.5
  1
700
  7
ARIAL
  0
LINE
  5
253
  8
0
 62
     4
 10
5892.8289145
 20
3057.23285822
 30
0.0
 11
5894.8289145
 21
3059.23285822
 31
0.0
  0
LINE
  5
254
  8
0
 62
     4
 10
5544.5789145
 20
3058.98285822
 30
0.0
 11
5543.0789145
 21
3057.48285822
 31
0.0
  0
LINE
  5
255
  8
0
 62
     4
 10
5893.8289145
 20
3058.23285822
 30
0.0
 11
5543.8289145
 21
3058.23285822
 31
0.0
  0
LINE
  5
256
  8
0
 62
     4
 10
5893.8289145
 20
3060.23285822
 30
0.0
 11
5893.8289145
 21
3056.23285822
 31
0.0
  0
LINE
  5
257
  8
0
 62
     4
 10
5543.8289145
 20
3060.23285822
 30
0.0
 11
5543.8289145
 21
3056.23285822
 31
0.0
  0
TEXT
  5
258
  8
TXT_DIM49
 10
5507.79194566
 20
3099.63524508
 30
0.0
 40
2.5
  1
30
  7
ARIAL
  0
LINE
  5
259
  8
0
 62
     4
 10
5503.14684995
 20
3099.13524508
 30
0.0
 11
5501.14684995
 21
3097.13524508
 31
0.0
  0
LINE
  5
25A
  8
0
 62
     4
 10
5516.39684995
 20
3097.38524508
 30
0.0
 11
5517.89684995
 21
3098.88524508
 31
0.0
  0
LINE
  5
25B
  8
0
 62
     4
 10
5502.14684995
 20
3098.13524508
 30
0.0
 11
5517.14684995
 21
3098.13524508
 31
0.0
  0
LINE
  5
25C
  8
0
 62
     4
 10
5502.14684995
 20
3096.13524508
 30
0.0
 11
5502.14684995
 21
3100.13524508
 31
0.0
  0
LINE
  5
25D
  8
0
 62
     4
 10
5517.14684995
 20
3096.13524508
 30
0.0
 11
5517.14684995
 21
3100.13524508
 31
0.0
  0
TEXT
  5
25E
  8
TXT_DIM49
 10
5522.79194566
 20
3099.63524508
 30
0.0
 40
2.5
  1
30
  7
ARIAL
  0
LINE
  5
25F
  8
0
 62
     4
 10
5518.14684995
 20
3099.13524508
 30
0.0
 11
5516.14684995
 21
3097.13524508
 31
0.0
  0
LINE
  5
260
  8
0
 62
     4
 10
5531.39684995
 20
3097.38524508
 30
0.0
 11
5532.89684995
 21
3098.88524508
 31
0.0
  0
LINE
  5
261
  8
0
 62
     4
 10
5517.14684995
 20
3098.13524508
 30
0.0
 11
5532.14684995
 21
3098.13524508
 31
0.0
  0
LINE
  5
262
  8
0
 62
     4
 10
5517.14684995
 20
3096.13524508
 30
0.0
 11
5517.14684995
 21
3100.13524508
 31
0.0
  0
LINE
  5
263
  8
0
 62
     4
 10
5532.14684995
 20
3096.13524508
 30
0.0
 11
5532.14684995
 21
3100.13524508
 31
0.0
  0
TEXT
  5
264
  8
TXT_DIM49
 10
5498.30182316
 20
3087.62795393
 30
0.0
 40
2.5
  1
15
 50
90.00020741
  7
ARIAL
  0
LINE
  5
265
  8
0
 62
     4
 10
5500.80182316
 20
3092.23285822
 30
0.0
 11
5498.80182316
 21
3094.23285822
 31
0.0
  0
LINE
  5
266
  8
0
 62
     4
 10
5499.05182316
 20
3086.48285822
 30
0.0
 11
5500.55182316
 21
3084.98285822
 31
0.0
  0
LINE
  5
267
  8
0
 62
     4
 10
5499.80182316
 20
3093.23285822
 30
0.0
 11
5499.80182316
 21
3085.73285822
 31
0.0
  0
LINE
  5
268
  8
0
 62
     4
 10
5501.80182316
 20
3093.23285822
 30
0.0
 11
5497.80182316
 21
3093.23285822
 31
0.0
  0
LINE
  5
269
  8
0
 62
     4
 10
5501.80182316
 20
3085.73285822
 30
0.0
 11
5497.80182316
 21
3085.73285822
 31
0.0
  0
TEXT
  5
26A
  8
TXT_DIM49
 10
5498.30182316
 20
3075.12795393
 30
0.0
 40
2.5
  1
35
 50
90.00020741
  7
ARIAL
  0
LINE
  5
26B
  8
0
 62
     4
 10
5500.80182316
 20
3084.73285822
 30
0.0
 11
5498.80182316
 21
3086.73285822
 31
0.0
  0
LINE
  5
26C
  8
0
 62
     4
 10
5499.05182316
 20
3068.98285822
 30
0.0
 11
5500.55182316
 21
3067.48285822
 31
0.0
  0
LINE
  5
26D
  8
0
 62
     4
 10
5499.80182316
 20
3085.73285822
 30
0.0
 11
5499.80182316
 21
3068.23285822
 31
0.0
  0
LINE
  5
26E
  8
0
 62
     4
 10
5501.80182316
 20
3085.73285822
 30
0.0
 11
5497.80182316
 21
3085.73285822
 31
0.0
  0
LINE
  5
26F
  8
0
 62
     4
 10
5501.80182316
 20
3068.23285822
 30
0.0
 11
5497.80182316
 21
3068.23285822
 31
0.0
  0
LINE
  5
270
  8
0
 62
     5
 10
5517.14684995
 20
3085.73285822
 30
0.0
 11
5521.03871598
 21
3080.05099223
 31
0.0
  0
TEXT
  5
271
  8
TXT_DIM49
 10
5521.03871598
 20
3078.80099223
 30
0.0
 40
2.5
  1
Ø10
  7
ARIAL
  0
TEXT
  5
272
  8
TXT_DIM49
 10
5641.046558
 20
3039.82754681
 30
0.0
 40
2.5
  1
400
  7
ARIAL
  0
LINE
  5
273
  8
0
 62
     4
 10
5544.8289145
 20
3039.32754681
 30
0.0
 11
5542.8289145
 21
3037.32754681
 31
0.0
  0
LINE
  5
274
  8
0
 62
     4
 10
5743.0789145
 20
3037.57754681
 30
0.0
 11
5744.5789145
 21
3039.07754681
 31
0.0
  0
LINE
  5
275
  8
0
 62
     4
 10
5543.8289145
 20
3038.32754681
 30
0.0
 11
5743.8289145
 21
3038.32754681
 31
0.0
  0
LINE
  5
276
  8
0
 62
     4
 10
5543.8289145
 20
3036.32754681
 30
0.0
 11
5543.8289145
 21
3040.32754681
 31
0.0
  0
LINE
  5
277
  8
0
 62
     4
 10
5743.8289145
 20
3036.32754681
 30
0.0
 11
5743.8289145
 21
3040.32754681
 31
0.0
  0
TEXT
  5
278
  8
TXT_DIM49
 10
5803.546558
 20
3039.82754681
 30
0.0
 40
2.5
  1
250
  7
ARIAL
  0
LINE
  5
279
  8
0
 62
     4
 10
5744.8289145
 20
3039.32754681
 30
0.0
 11
5742.8289145
 21
3037.32754681
 31
0.0
  0
LINE
  5
27A
  8
0
 62
     4
 10
5868.0789145
 20
3037.57754681
 30
0.0
 11
5869.5789145
 21
3039.07754681
 31
0.0
  0
LINE
  5
27B
  8
0
 62
     4
 10
5743.8289145
 20
3038.32754681
 30
0.0
 11
5868.8289145
 21
3038.32754681
 31
0.0
  0
LINE
  5
27C
  8
0
 62
     4
 10
5743.8289145
 20
3036.32754681
 30
0.0
 11
5743.8289145
 21
3040.32754681
 31
0.0
  0
LINE
  5
27D
  8
0
 62
     4
 10
5868.8289145
 20
3036.32754681
 30
0.0
 11
5868.8289145
 21
3040.32754681
 31
0.0
  0
TEXT
  5
27E
  8
TXT_DIM49
 10
5879.47401021
 20
3039.82754681
 30
0.0
 40
2.5
  1
50
  7
ARIAL
  0
LINE
  5
27F
  8
0
 62
     4
 10
5869.8289145
 20
3039.32754681
 30
0.0
 11
5867.8289145
 21
3037.32754681
 31
0.0
  0
LINE
  5
280
  8
0
 62
     4
 10
5893.0789145
 20
3037.57754681
 30
0.0
 11
5894.5789145
 21
3039.07754681
 31
0.0
  0
LINE
  5
281
  8
0
 62
     4
 10
5868.8289145
 20
3038.32754681
 30
0.0
 11
5893.8289145
 21
3038.32754681
 31
0.0
  0
LINE
  5
282
  8
0
 62
     4
 10
5868.8289145
 20
3036.32754681
 30
0.0
 11
5868.8289145
 21
3040.32754681
 31
0.0
  0
LINE
  5
283
  8
0
 62
     4
 10
5893.8289145
 20
3036.32754681
 30
0.0
 11
5893.8289145
 21
3040.32754681
 31
0.0
  0
TEXT
  5
284
  8
TXT_DIM49
 10
5534.42152964
 20
3014.35548651
 30
0.0
 40
2.5
  1
60
 50
90.00020741
  7
ARIAL
  0
LINE
  5
285
  8
0
 62
     4
 10
5536.92152964
 20
3030.21039081
 30
0.0
 11
5534.92152964
 21
3032.21039081
 31
0.0
  0
LINE
  5
286
  8
0
 62
     4
 10
5535.17152964
 20
3001.96039081
 30
0.0
 11
5536.67152964
 21
3000.46039081
 31
0.0
  0
LINE
  5
287
  8
0
 62
     4
 10
5535.92152964
 20
3031.21039081
 30
0.0
 11
5535.92152964
 21
3001.21039081
 31
0.0
  0
LINE
  5
288
  8
0
 62
     4
 10
5537.92152964
 20
3031.21039081
 30
0.0
 11
5533.92152964
 21
3031.21039081
 31
0.0
  0
LINE
  5
289
  8
0
 62
     4
 10
5537.92152964
 20
3001.21039081
 30
0.0
 11
5533.92152964
 21
3001.21039081
 31
0.0
  0
LINE
  5
28A
  8
0
 62
     5
 10
5743.8289145
 20
3016.21039081
 30
0.0
 11
5740.9168791
 21
3005.84840075
 31
0.0
  0
TEXT
  5
28B
  8
TXT_DIM49
 10
5717.84518785
 20
3004.59840075
 30
0.0
 40
2.5
  1
Slobgat 14 x 40
  7
ARIAL
  0
LINE
  5
28C
  8
0
 62
     5
 10
5868.8289145
 20
3016.21039081
 30
0.0
 11
5861.47561682
 21
3006.23576454
 31
0.0
  0
TEXT
  5
28D
  8
TXT_DIM49
 10
5855.19186476
 20
3004.98576454
 30
0.0
 40
2.5
  1
Ø14
  7
ARIAL
  0
TEXT
  5
28E
  8
TXT_DIM49
 10
5897.05149774
 20
3021.85548651
 30
0.0
 40
2.5
  1
30
 50
90.00020741
  7
ARIAL
  0
LINE
  5
28F
  8
0
 62
     4
 10
5899.55149774
 20
3030.21039081
 30
0.0
 11
5897.55149774
 21
3032.21039081
 31
0.0
  0
LINE
  5
290
  8
0
 62
     4
 10
5897.80149774
 20
3016.96039081
 30
0.0
 11
5899.30149774
 21
3015.46039081
 31
0.0
  0
LINE
  5
291
  8
0
 62
     4
 10
5898.55149774
 20
3031.21039081
 30
0.0
 11
5898.55149774
 21
3016.21039081
 31
0.0
  0
LINE
  5
292
  8
0
 62
     4
 10
5896.55149774
 20
3031.21039081
 30
0.0
 11
5900.55149774
 21
3031.21039081
 31
0.0
  0
LINE
  5
293
  8
0
 62
     4
 10
5896.55149774
 20
3016.21039081
 30
0.0
 11
5900.55149774
 21
3016.21039081
 31
0.0
  0
TEXT
  5
294
  8
TXT_DIM49
 10
5897.05149774
 20
3006.85548651
 30
0.0
 40
2.5
  1
30
 50
90.00020741
  7
ARIAL
  0
LINE
  5
295
  8
0
 62
     4
 10
5899.55149774
 20
3015.21039081
 30
0.0
 11
5897.55149774
 21
3017.21039081
 31
0.0
  0
LINE
  5
296
  8
0
 62
     4
 10
5897.80149774
 20
3001.96039081
 30
0.0
 11
5899.30149774
 21
3000.46039081
 31
0.0
  0
LINE
  5
297
  8
0
 62
     4
 10
5898.55149774
 20
3016.21039081
 30
0.0
 11
5898.55149774
 21
3001.21039081
 31
0.0
  0
LINE
  5
298
  8
0
 62
     4
 10
5896.55149774
 20
3016.21039081
 30
0.0
 11
5900.55149774
 21
3016.21039081
 31
0.0
  0
LINE
  5
299
  8
0
 62
     4
 10
5896.55149774
 20
3001.21039081
 30
0.0
 11
5900.55149774
 21
3001.21039081
 31
0.0
  0
POINT
  5
29A
  8
0
 10
5697.69018342
 20
3006.33818534
 30
0.0
  0
POINT
  5
29B
  8
0
 62
     3
 10
5836.35955074
 20
2836.0008674
 30
0.0
  0
POINT
  5
29C
  8
0
 62
     3
 10
5902.22396444
 20
2853.91986231
 30
0.0
  0
POINT
  5
29D
  8
0
 62
     3
 10
5836.35955074
 20
2853.91986231
 30
0.0
  0
POINT
  5
29E
  8
0
 62
     3
 10
5902.22396444
 20
2836.0008674
 30
0.0
  0
POINT
  5
29F
  8
0
 62
     3
 10
5884.5326095
 20
2830.31818534
 30
0.0
  0
POINT
  5
2A0
  8
0
 62
     3
 10
5902.22464147
 20
2835.13145875
 30
0.0
  0
POINT
  5
2A1
  8
0
 62
     3
 10
5884.5326095
 20
2835.13145875
 30
0.0
  0
POINT
  5
2A2
  8
0
 62
     3
 10
5902.22464147
 20
2830.31818534
 30
0.0
  0
ENDSEC
  0
EOF
