  0
SECTION
  2
HEADER
  9
$ACADVER
  1
AC1006
  9
$DWGCODEPAGE
  3
ansi_1252
  9
$INSBASE
 10
0.0
 20
0.0
 30
0.0
  9
$EXTMIN
 10
1334.0819487
 20
-892.76230788
  9
$EXTMAX
 10
2155.97634284
 20
-514.08730788
  9
$LIMMIN
 10
1334.0819487
 20
-892.76230788
  9
$LIMMAX
 10
2155.97634284
 20
-514.08730788
  9
$ORTHOMODE
 70
     0
  9
$REGENMODE
 70
     1
  9
$FILLMODE
 70
     1
  9
$QTEXTMODE
 70
     0
  9
$MIRRTEXT
 70
     1
  9
$DRAGMODE
 70
     2
  9
$LTSCALE
 40
1.0
  9
$OSMODE
 70
    37
  9
$ATTMODE
 70
     1
  9
$TEXTSIZE
 40
1.0
  9
$TRACEWID
 40
0.05
  9
$TEXTSTYLE
  7
STANDARD
  9
$CLAYER
  8
0
  9
$CELTYPE
  6
BYBLOCK
  9
$CECOLOR
 62
   256
  9
$DIMSCALE
 40
1.0
  9
$DIMASZ
 40
0.18
  9
$DIMEXO
 40
0.0625
  9
$DIMDLI
 40
0.38
  9
$DIMRND
 40
0.0
  9
$DIMDLE
 40
0.0
  9
$DIMEXE
 40
0.18
  9
$DIMTP
 40
0.0
  9
$DIMTM
 40
0.0
  9
$DIMTXT
 40
0.18
  9
$DIMCEN
 40
0.09
  9
$DIMTSZ
 40
0.0
  9
$DIMTOL
 70
     0
  9
$DIMLIM
 70
     0
  9
$DIMTIH
 70
     1
  9
$DIMTOH
 70
     1
  9
$DIMSE1
 70
     0
  9
$DIMSE2
 70
     0
  9
$DIMTAD
 70
     0
  9
$DIMZIN
 70
     0
  9
$DIMBLK
  1

  9
$DIMASO
 70
     1
  9
$DIMSHO
 70
     1
  9
$DIMPOST
  1

  9
$DIMAPOST
  1

  9
$DIMALT
 70
     0
  9
$DIMALTD
 70
     2
  9
$DIMALTF
 40
25.4
  9
$DIMLFAC
 40
1.0
  9
$DIMTOFL
 70
     0
  9
$DIMTVP
 40
0.0
  9
$DIMTIX
 70
     0
  9
$DIMSOXD
 70
     0
  9
$DIMSAH
 70
     0
  9
$DIMBLK1
  1

  9
$DIMBLK2
  1

  9
$LUNITS
 70
     2
  9
$LUPREC
 70
     4
  9
$SKETCHINC
 40
0.1
  9
$FILLETRAD
 40
0.5
  9
$AUNITS
 70
     0
  9
$AUPREC
 70
     0
  9
$MENU
  1
.
  9
$ELEVATION
 40
0.0
  9
$THICKNESS
 40
0.0
  9
$LIMCHECK
 70
     0
  9
$CHAMFERA
 40
0.0
  9
$CHAMFERB
 40
0.0
  9
$SKPOLY
 70
     0
  9
$TDCREATE
 40
2447893.125
  9
$TDUPDATE
 40
2460791.476844456
  9
$TDINDWG
 40
0.0
  9
$TDUSRTIMER
 40
0.0
  9
$USRTIMER
 70
     1
  9
$ANGBASE
 50
0.0
  9
$ANGDIR
 70
     0
  9
$PDMODE
 70
     0
  9
$PDSIZE
 40
0.0
  9
$PLINEWID
 40
0.0
  9
$COORDS
 70
     1
  9
$SPLFRAME
 70
     0
  9
$SPLINETYPE
 70
     6
  9
$SPLINESEGS
 70
     8
  9
$ATTDIA
 70
     0
  9
$ATTREQ
 70
     1
  9
$HANDLING
 70
     1
  9
$HANDSEED
  5
329
  9
$SURFTAB1
 70
     6
  9
$SURFTAB2
 70
     6
  9
$SURFTYPE
 70
     6
  9
$SURFU
 70
     6
  9
$SURFV
 70
     6
  9
$UCSNAME
  2

  9
$UCSORG
 10
0.0
 20
0.0
 30
0.0
  9
$UCSXDIR
 10
1.0
 20
0.0
 30
0.0
  9
$UCSYDIR
 10
0.0
 20
1.0
 30
0.0
  9
$USERI1
 70
     0
  9
$USERI2
 70
     0
  9
$USERI3
 70
     0
  9
$USERI4
 70
     0
  9
$USERI5
 70
     0
  9
$USERR1
 40
0.0
  9
$USERR2
 40
0.0
  9
$USERR3
 40
0.0
  9
$USERR4
 40
0.0
  9
$USERR5
 40
0.0
  9
$WORLDVIEW
 70
     1
  0
ENDSEC
  0
SECTION
  2
TABLES
  0
TABLE
  2
VPORT
 70
     1
  0
VPORT
  2
*ACTIVE
 70
     0
 10
0.0
 20
0.0
 11
1.0
 21
1.0
 12
1745.02914577
 22
-703.42480788
 13
0.0
 23
0.0
 14
1.0
 24
1.0
 15
0.0
 25
0.0
 16
0.0
 26
0.0
 36
1.0
 17
0.0
 27
0.0
 37
0.0
 40
378.675
 41
2.170447994
 42
50.0
 43
0.0
 44
0.0
 50
0.0
 51
0.0
 71
     0
 72
   100
 73
     1
 74
     1
 75
     0
 76
     0
 77
     0
 78
     0
  0
ENDTAB
  0
TABLE
  2
LTYPE
 70
    19
  0
LTYPE
  2
CONTINUOUS
 70
     0
  3
Solid line
 72
    65
 73
     0
 40
0.0
  0
LTYPE
  2
DOT
 70
     0
  3
..............
 72
    65
 73
     2
 40
2.0
 49
0.5
 49
-1.5
  0
LTYPE
  2
HIDDEN
 70
     0
  3
-- -- -- -- --
 72
    65
 73
     2
 40
7.0
 49
4.0
 49
-3.0
  0
LTYPE
  2
DASHDOT
 70
     0
  3
--.--.--.--.--
 72
    65
 73
     4
 40
8.5
 49
4.0
 49
-2.0
 49
0.5
 49
-2.0
  0
LTYPE
  2
STRICHPUNKT2
 70
     0
  3
--.--.--.--.--
 72
    65
 73
     4
 40
18.5
 49
10.0
 49
-4.0
 49
0.5
 49
-4.0
  0
LTYPE
  2
STRICHPUNKT3
 70
     0
  3
--.--.--.--.--
 72
    65
 73
     4
 40
35.5
 49
25.0
 49
-5.0
 49
0.5
 49
-5.0
  0
LTYPE
  2
PHANTOM
 70
     0
  3
--..--..--..--
 72
    65
 73
     6
 40
23.0
 49
10.0
 49
-4.0
 49
0.5
 49
-4.0
 49
0.5
 49
-4.0
  0
LTYPE
  2
PHANTOM2
 70
     0
  3
--..--..--..--
 72
    65
 73
     6
 40
33.0
 49
20.0
 49
-4.0
 49
0.5
 49
-4.0
 49
0.5
 49
-4.0
  0
LTYPE
  2
PHANTOM3
 70
     0
  3
--..--..--..--
 72
    65
 73
     6
 40
50.0
 49
37.0
 49
-4.0
 49
0.5
 49
-4.0
 49
0.5
 49
-4.0
  0
LTYPE
  2
STR3PKT
 70
     0
  3
--...--...--...
 72
    65
 73
     8
 40
31.5
 49
20.0
 49
-2.5
 49
0.5
 49
-2.5
 49
0.5
 49
-2.5
 49
0.5
 49
-2.5
  0
LTYPE
  2
2STRPKT
 70
     0
  3
--.--.--.--.--
 72
    65
 73
     6
 40
28.0
 49
10.0
 49
-2.5
 49
10.0
 49
-2.5
 49
0.5
 49
-2.5
  0
LTYPE
  2
GESTRICHELT2
 70
     0
  3
-- -- -- -- --
 72
    65
 73
     2
 40
25.0
 49
10.0
 49
-15.0
  0
LTYPE
  2
2STR2PKT
 70
     0
  3
--..--..--..--
 72
    65
 73
     8
 40
31.0
 49
10.0
 49
-2.5
 49
10.0
 49
-2.5
 49
0.5
 49
-2.5
 49
0.5
 49
-2.5
  0
LTYPE
  2
STR3PKT2
 70
     0
  3
--...--...--...
 72
    65
 73
     8
 40
21.0
 49
10.0
 49
-2.5
 49
0.5
 49
-2.5
 49
0.5
 49
-2.5
 49
0.5
 49
-2.0
  0
LTYPE
  2
2STR3PKT
 70
     0
  3
--...--...--...
 72
    65
 73
    10
 40
34.0
 49
10.0
 49
-2.5
 49
10.0
 49
-2.5
 49
0.5
 49
-2.5
 49
0.5
 49
-2.5
 49
0.5
 49
-2.5
  0
LTYPE
  2
STRKSTR
 70
     0
  3
-- - -- - -- -
 72
    65
 73
     4
 40
30.0
 49
20.0
 49
-2.5
 49
5.0
 49
-2.5
  0
LTYPE
  2
STRKSTR2
 70
     0
  3
-- - -- - -- -
 72
    65
 73
     6
 40
37.5
 49
20.0
 49
-2.5
 49
5.0
 49
-2.5
 49
5.0
 49
-2.5
  0
LTYPE
  2
STRKSTR3
 70
     0
  3
-- - -- - -- -
 72
    65
 73
     8
 40
45.0
 49
20.0
 49
-2.5
 49
5.0
 49
-2.5
 49
5.0
 49
-2.5
 49
5.0
 49
-2.5
  0
LTYPE
  2
PUNKT2
 70
     0
  3
..............
 72
    65
 73
     2
 40
3.5
 49
0.5
 49
-3.0
  0
ENDTAB
  0
TABLE
  2
LAYER
 70
    16
  0
LAYER
  2
0
 70
     0
 62
     7
  6
CONTINUOUS
  0
LAYER
  2
LE_GREEN
 70
     0
 62
     3
  6
CONTINUOUS
  0
LAYER
  2
LE_RED
 70
     0
 62
     1
  6
CONTINUOUS
  0
LAYER
  2
LE_ALL
 70
     0
 62
     7
  6
CONTINUOUS
  0
LAYER
  2
LE_HIDDEN1
 70
     0
 62
     3
  6
HIDDEN
  0
LAYER
  2
LE_HIDDEN
 70
     0
 62
     7
  6
CONTINUOUS
  0
LAYER
  2
LE_MIDDLE
 70
     0
 62
     7
  6
CONTINUOUS
  0
LAYER
  2
TXT_YELLOW
 70
     0
 62
     2
  6
CONTINUOUS
  0
LAYER
  2
TXT_DIM49
 70
     0
 62
     2
  6
CONTINUOUS
  0
LAYER
  2
TXT_ALL
 70
     0
 62
     7
  6
CONTINUOUS
  0
LAYER
  2
DIM49
 70
     0
 62
     4
  6
CONTINUOUS
  0
LAYER
  2
HATCH
 70
     0
 62
     3
  6
CONTINUOUS
  0
LAYER
  2
APPLE
 70
     0
 62
     7
  6
CONTINUOUS
  0
LAYER
  2
10
 70
     0
 62
     7
  6
CONTINUOUS
  0
LAYER
  2
47
 70
     0
 62
     7
  6
CONTINUOUS
  0
LAYER
  2
49
 70
     0
 62
     7
  6
CONTINUOUS
  0
ENDTAB
  0
TABLE
  2
STYLE
 70
     5
  0
STYLE
  2
MONOTXT
 70
     0
 40
0.0
 41
1.0
 50
0.0
 71
     0
 42
1.0
  3
monotxt.shx
  4

  0
STYLE
  2
STANDARD
 70
     0
 40
0.0
 41
1.0
 50
0.0
 71
     0
 42
1.0
  3
txt
  4

  0
STYLE
  2
ARIAL
 70
     0
 40
0.0
 41
1.0
 50
0.0
 71
     0
 42
1.0
  3
arial.ttf
  4

  0
STYLE
  2
ARIAL_NARROW
 70
     0
 40
0.0
 41
1.0
 50
0.0
 71
     0
 42
1.0
  3
ArialN.ttf
  4

  0
STYLE
  2
ISOCPEUR
 70
     0
 40
0.0
 41
1.0
 50
0.0
 71
     0
 42
1.0
  3
ISOCPEUR.ttf
  4

  0
ENDTAB
  0
TABLE
  2
VIEW
 70
     0
  0
ENDTAB
  0
TABLE
  2
UCS
 70
     0
  0
ENDTAB
  0
ENDSEC
  0
SECTION
  2
BLOCKS
  0
ENDSEC
  0
SECTION
  2
ENTITIES
  0
POLYLINE
  5
16D
  8
0
 66
     1
 10
0.0
 20
0.0
 30
0.0
 70
     1
  0
VERTEX
  5
16E
  8
0
 10
1480.60060343
 20
-840.23308594
 30
0.0
  0
VERTEX
  5
16F
  8
0
 10
1900.60060343
 20
-840.23308594
 30
0.0
  0
VERTEX
  5
170
  8
0
 10
1900.60060343
 20
-543.23308594
 30
0.0
  0
VERTEX
  5
171
  8
0
 10
1480.60060343
 20
-543.23308594
 30
0.0
  0
SEQEND
  5
172
  8
0
  0
POLYLINE
  5
173
  8
0
 66
     1
 10
0.0
 20
0.0
 30
0.0
 70
     1
  0
VERTEX
  5
174
  8
0
 10
1485.60060343
 20
-835.23308594
 30
0.0
  0
VERTEX
  5
175
  8
0
 10
1895.60060343
 20
-835.23308594
 30
0.0
  0
VERTEX
  5
176
  8
0
 10
1895.60060343
 20
-548.23308594
 30
0.0
  0
VERTEX
  5
177
  8
0
 10
1485.60060343
 20
-548.23308594
 30
0.0
  0
SEQEND
  5
178
  8
0
  0
LINE
  5
179
  8
0
 10
1710.60060343
 20
-835.23308594
 30
0.0
 11
1710.60060343
 21
-840.23308594
 31
0.0
  0
LINE
  5
17A
  8
0
 10
1710.60060343
 20
-548.23308594
 30
0.0
 11
1710.60060343
 21
-543.23308594
 31
0.0
  0
LINE
  5
17B
  8
0
 10
1500.60060343
 20
-835.23308594
 30
0.0
 11
1500.60060343
 21
-840.23308594
 31
0.0
  0
LINE
  5
17C
  8
0
 10
1500.60060343
 20
-548.23308594
 30
0.0
 11
1500.60060343
 21
-543.23308594
 31
0.0
  0
TEXT
  5
17D
  8
TXT_ALL
 62
     4
 10
1899.60060343
 20
-839.23308594
 30
0.0
 40
2.5
  1

 50
90.00020741
  0
POLYLINE
  5
17E
  8
0
 66
     1
 10
0.0
 20
0.0
 30
0.0
  0
VERTEX
  5
17F
  8
0
 10
1895.60060343
 20
-558.23308594
 30
0.0
  0
VERTEX
  5
180
  8
0
 10
1826.60730343
 20
-558.23308594
 30
0.0
  0
VERTEX
  5
181
  8
0
 10
1826.60730343
 20
-548.23308594
 30
0.0
  0
SEQEND
  5
182
  8
0
  0
LINE
  5
183
  8
0
 10
1828.51060343
 20
-815.73308594
 30
0.0
 11
1688.62060343
 21
-815.73308594
 31
0.0
  0
LINE
  5
184
  8
0
 10
1688.62060343
 20
-825.48308594
 30
0.0
 11
1828.51060343
 21
-825.48308594
 31
0.0
  0
POLYLINE
  5
185
  8
0
 66
     1
 10
0.0
 20
0.0
 30
0.0
  0
VERTEX
  5
186
  8
0
 10
1688.62060343
 20
-815.73308594
 30
0.0
  0
VERTEX
  5
187
  8
0
 10
1688.62060343
 20
-825.48308594
 30
0.0
  0
VERTEX
  5
188
  8
0
 10
1688.62060343
 20
-835.23308594
 30
0.0
  0
SEQEND
  5
189
  8
0
  0
POLYLINE
  5
18A
  8
0
 66
     1
 10
0.0
 20
0.0
 30
0.0
  0
VERTEX
  5
18B
  8
0
 10
1758.56560343
 20
-815.73308594
 30
0.0
  0
VERTEX
  5
18C
  8
0
 10
1758.56560343
 20
-825.48308594
 30
0.0
  0
VERTEX
  5
18D
  8
0
 10
1758.56560343
 20
-835.23308594
 30
0.0
  0
SEQEND
  5
18E
  8
0
  0
TEXT
  5
18F
  8
TXT_ALL
 10
1690.62060343
 20
-821.90808589
 30
0.0
 40
2.5999999
  1
E-mail: verkoop@jonkers-bouwmetaal.nl
  7
ARIAL
  0
TEXT
  5
190
  8
TXT_ALL
 10
1690.62060343
 20
-831.65808589
 30
0.0
 40
2.5999999
  1
Telefoon: 0527-685156
  7
ARIAL
  0
TEXT
  5
191
  8
TXT_ALL
 10
1760.56560343
 20
-831.65808589
 30
0.0
 40
2.5999999
  1
Website: www.jonkers-bouwmetaal.nl
  7
ARIAL
  0
TEXT
  5
192
  8
TXT_ALL
 10
1760.56560343
 20
-821.90808589
 30
0.0
 40
2.5999999
  1
Adres: Hoornse Hop 10, 8321 WX Urk
  7
ARIAL
  0
TEXT
  5
193
  8
TXT_ALL
 10
1489.04256368
 20
-554.48308594
 30
0.0
 40
2.5
  1
Art. nr. 91002363
  7
ARIAL
  0
TEXT
  5
194
  8
TXT_ALL
 10
1531.7806005
 20
-554.48308594
 30
0.0
 40
2.5
  1
Omschrijving: H1506-anker 150x100 80x8
  7
ARIAL
  0
LINE
  5
195
  8
0
 10
1895.60060343
 20
-558.23308594
 30
0.0
 11
1485.60060343
 21
-558.23308594
 31
0.0
  0
LINE
  5
196
  8
0
 10
1528.62060343
 20
-558.23308594
 30
0.0
 11
1528.62060343
 21
-548.23308594
 31
0.0
  0
LINE
  5
197
  8
0
 10
1688.62060343
 20
-558.23308594
 30
0.0
 11
1688.62060343
 21
-548.23308594
 31
0.0
  0
TEXT
  5
198
  8
TXT_ALL
 10
1759.61430343
 20
-554.48308594
 30
0.0
 40
2.5
  1
Behandeling:  Thermisch Verzinkt
  7
ARIAL
  0
LINE
  5
199
  8
0
 10
1828.51060343
 20
-815.73308594
 30
0.0
 11
1895.60060343
 21
-815.73308594
 31
0.0
  0
LINE
  5
19A
  8
0
 10
1828.51060343
 20
-835.23308594
 30
0.0
 11
1828.51060343
 21
-815.73308594
 31
0.0
  0
LINE
  5
19B
  8
0
 10
1828.51060343
 20
-835.23308594
 30
0.0
 11
1828.51060343
 21
-815.73308594
 31
0.0
  0
TEXT
  5
19C
  8
TXT_ALL
 10
1622.96580152
 20
-834.07855253
 30
0.0
 40
2.5
  1

  0
TEXT
  5
19D
  8
TXT_ALL
 10
1744.10098449
 20
-823.98308594
 30
0.0
 40
2.5
  1

  0
POLYLINE
  5
19E
  8
0
 66
     1
 10
0.0
 20
0.0
 30
0.0
  0
VERTEX
  5
19F
  8
0
 10
1826.60730343
 20
-558.23308594
 30
0.0
  0
VERTEX
  5
1A0
  8
0
 10
1757.61430343
 20
-558.23308594
 30
0.0
  0
VERTEX
  5
1A1
  8
0
 10
1757.61430343
 20
-548.23308594
 30
0.0
  0
SEQEND
  5
1A2
  8
0
  0
TEXT
  5
1A3
  8
TXT_ALL
 10
1828.60730343
 20
-554.48308594
 30
0.0
 40
2.5
  1
Verpakkingshoeveelheid: 1 st.
  7
ARIAL
  0
TEXT
  5
1A4
  8
TXT_ALL
 10
1690.62060343
 20
-554.48308594
 30
0.0
 40
2.5
  1
Materiaal: S355
  7
ARIAL
  0
TEXT
  5
1A5
  8
TXT_ALL
 10
1863.83463514
 20
-838.48259579
 30
0.0
 40
1.5
  1
Onderdeel van
  7
ARIAL
  0
POLYLINE
  5
1A6
  8
0
 66
     1
 10
0.0
 20
0.0
 30
0.0
  0
VERTEX
  5
2B3
  8
0
 10
1574.28565979
 20
-793.28086958
 30
0.0
  0
VERTEX
  5
2B4
  8
0
 10
1574.151156753129
 20
-792.8256588336945
 30
0.0
  0
VERTEX
  5
2B5
  8
0
 10
1573.752816518781
 20
-792.3879415810446
 30
0.0
  0
VERTEX
  5
2B6
  8
0
 10
1573.105947078735
 20
-791.9845390505567
 30
0.0
  0
VERTEX
  5
2B7
  8
0
 10
1572.235407262748
 20
-791.6309537752112
 30
0.0
  0
VERTEX
  5
2B8
  8
0
 10
1571.174651427667
 20
-791.3407738388158
 30
0.0
  0
VERTEX
  5
2B9
  8
0
 10
1569.964443825261
 20
-791.1251506935662
 30
0.0
  0
VERTEX
  5
2BA
  8
0
 10
1568.651292054895
 20
-790.9923706159923
 30
0.0
  0
VERTEX
  5
2BB
  8
0
 10
1567.285659802564
 20
-790.94753627
 30
0.0
  0
VERTEX
  5
2BC
  8
0
 10
1565.92002754975
 20
-790.9923706143582
 30
0.0
  0
VERTEX
  5
2BD
  8
0
 10
1564.606875777954
 20
-791.1251506903608
 30
0.0
  0
VERTEX
  5
2BE
  8
0
 10
1563.396668173227
 20
-791.3407738341623
 30
0.0
  0
VERTEX
  5
2BF
  8
0
 10
1562.335912335021
 20
-791.6309537692883
 30
0.0
  0
VERTEX
  5
2C0
  8
0
 10
1561.465372515225
 20
-791.9845390435921
 30
0.0
  0
VERTEX
  5
2C1
  8
0
 10
1560.818503070835
 20
-792.3879415733061
 30
0.0
  0
VERTEX
  5
2C2
  8
0
 10
1560.420162831773
 20
-792.8256588254793
 30
0.0
  0
VERTEX
  5
2C3
  8
0
 10
1560.28565979
 20
-793.2808695716237
 30
0.0
  0
SEQEND
  5
322
  8
0
  0
POLYLINE
  5
1A7
  8
0
 66
     1
 10
0.0
 20
0.0
 30
0.0
  0
VERTEX
  5
2C4
  8
0
 10
1560.28565979
 20
-793.2808695716237
 30
0.0
  0
VERTEX
  5
2C5
  8
0
 10
1560.420162822581
 20
-793.736080319117
 30
0.0
  0
VERTEX
  5
2C6
  8
0
 10
1560.818503054007
 20
-794.1737975731513
 30
0.0
  0
VERTEX
  5
2C7
  8
0
 10
1561.465372492539
 20
-794.5772001050904
 30
0.0
  0
VERTEX
  5
2C8
  8
0
 10
1562.335912308368
 20
-794.9307853818273
 30
0.0
  0
VERTEX
  5
2C9
  8
0
 10
1563.396668144498
 20
-795.220965319439
 30
0.0
  0
VERTEX
  5
2CA
  8
0
 10
1564.606875748934
 20
-795.4365884656323
 30
0.0
  0
VERTEX
  5
2CB
  8
0
 10
1565.920027522024
 20
-795.5693685438033
 30
0.0
  0
VERTEX
  5
2CC
  8
0
 10
1567.285659777436
 20
-795.6142028899999
 30
0.0
  0
VERTEX
  5
2CD
  8
0
 10
1568.65129203333
 20
-795.5693685454374
 30
0.0
  0
VERTEX
  5
2CE
  8
0
 10
1569.96444380785
 20
-795.4365884688378
 30
0.0
  0
VERTEX
  5
2CF
  8
0
 10
1571.174651414608
 20
-795.2209653240925
 30
0.0
  0
VERTEX
  5
2D0
  8
0
 10
1572.235407253864
 20
-794.9307853877501
 30
0.0
  0
VERTEX
  5
2D1
  8
0
 10
1573.1059470735
 20
-794.5772001120549
 30
0.0
  0
VERTEX
  5
2D2
  8
0
 10
1573.752816516377
 20
-794.1737975808899
 30
0.0
  0
VERTEX
  5
2D3
  8
0
 10
1574.151156752516
 20
-793.7360803273323
 30
0.0
  0
VERTEX
  5
2D4
  8
0
 10
1574.28565979
 20
-793.28086958
 30
0.0
  0
SEQEND
  5
323
  8
0
  0
POLYLINE
  5
1A8
  8
0
 66
     1
 10
0.0
 20
0.0
 30
0.0
  0
VERTEX
  5
2D5
  8
0
 10
1630.41052059
 20
-800.35193739
 30
0.0
  0
VERTEX
  5
2D6
  8
0
 10
1630.276017553129
 20
-799.8967266436946
 30
0.0
  0
VERTEX
  5
2D7
  8
0
 10
1629.877677318781
 20
-799.4590093910447
 30
0.0
  0
VERTEX
  5
2D8
  8
0
 10
1629.230807878736
 20
-799.0556068605567
 30
0.0
  0
VERTEX
  5
2D9
  8
0
 10
1628.360268062748
 20
-798.7020215852112
 30
0.0
  0
VERTEX
  5
2DA
  8
0
 10
1627.299512227667
 20
-798.4118416488159
 30
0.0
  0
VERTEX
  5
2DB
  8
0
 10
1626.089304625262
 20
-798.1962185035662
 30
0.0
  0
VERTEX
  5
2DC
  8
0
 10
1624.776152854895
 20
-798.0634384259923
 30
0.0
  0
VERTEX
  5
2DD
  8
0
 10
1623.410520602564
 20
-798.01860408
 30
0.0
  0
VERTEX
  5
2DE
  8
0
 10
1622.04488834975
 20
-798.0634384243583
 30
0.0
  0
VERTEX
  5
2DF
  8
0
 10
1620.731736577954
 20
-798.1962185003608
 30
0.0
  0
VERTEX
  5
2E0
  8
0
 10
1619.521528973227
 20
-798.4118416441623
 30
0.0
  0
VERTEX
  5
2E1
  8
0
 10
1618.460773135021
 20
-798.7020215792884
 30
0.0
  0
VERTEX
  5
2E2
  8
0
 10
1617.590233315225
 20
-799.0556068535922
 30
0.0
  0
VERTEX
  5
2E3
  8
0
 10
1616.943363870835
 20
-799.4590093833061
 30
0.0
  0
VERTEX
  5
2E4
  8
0
 10
1616.545023631773
 20
-799.8967266354794
 30
0.0
  0
VERTEX
  5
2E5
  8
0
 10
1616.41052059
 20
-800.3519373816238
 30
0.0
  0
SEQEND
  5
324
  8
0
  0
POLYLINE
  5
1A9
  8
0
 66
     1
 10
0.0
 20
0.0
 30
0.0
  0
VERTEX
  5
2E6
  8
0
 10
1616.41052059
 20
-800.3519373816238
 30
0.0
  0
VERTEX
  5
2E7
  8
0
 10
1616.545023622582
 20
-800.8071481291171
 30
0.0
  0
VERTEX
  5
2E8
  8
0
 10
1616.943363854007
 20
-801.2448653831514
 30
0.0
  0
VERTEX
  5
2E9
  8
0
 10
1617.590233292539
 20
-801.6482679150904
 30
0.0
  0
VERTEX
  5
2EA
  8
0
 10
1618.460773108368
 20
-802.0018531918273
 30
0.0
  0
VERTEX
  5
2EB
  8
0
 10
1619.521528944498
 20
-802.292033129439
 30
0.0
  0
VERTEX
  5
2EC
  8
0
 10
1620.731736548935
 20
-802.5076562756324
 30
0.0
  0
VERTEX
  5
2ED
  8
0
 10
1622.044888322024
 20
-802.6404363538034
 30
0.0
  0
VERTEX
  5
2EE
  8
0
 10
1623.410520577436
 20
-802.6852706999999
 30
0.0
  0
VERTEX
  5
2EF
  8
0
 10
1624.77615283333
 20
-802.6404363554375
 30
0.0
  0
VERTEX
  5
2F0
  8
0
 10
1626.08930460785
 20
-802.5076562788379
 30
0.0
  0
VERTEX
  5
2F1
  8
0
 10
1627.299512214608
 20
-802.2920331340925
 30
0.0
  0
VERTEX
  5
2F2
  8
0
 10
1628.360268053864
 20
-802.0018531977502
 30
0.0
  0
VERTEX
  5
2F3
  8
0
 10
1629.2308078735
 20
-801.648267922055
 30
0.0
  0
VERTEX
  5
2F4
  8
0
 10
1629.877677316377
 20
-801.2448653908899
 30
0.0
  0
VERTEX
  5
2F5
  8
0
 10
1630.276017552516
 20
-800.8071481373323
 30
0.0
  0
VERTEX
  5
2F6
  8
0
 10
1630.41052059
 20
-800.35193739
 30
0.0
  0
SEQEND
  5
325
  8
0
  0
POLYLINE
  5
1AA
  8
0
 66
     1
 10
0.0
 20
0.0
 30
0.0
  0
VERTEX
  5
2F7
  8
0
 10
1528.873257238311
 20
-713.5037739310471
 30
0.0
  0
VERTEX
  5
2F8
  8
0
 10
1528.404803947342
 20
-713.5803206781286
 30
0.0
  0
VERTEX
  5
2F9
  8
0
 10
1527.920727293984
 20
-713.9208219673652
 30
0.0
  0
VERTEX
  5
2FA
  8
0
 10
1527.439630072595
 20
-714.5121925251368
 30
0.0
  0
VERTEX
  5
2FB
  8
0
 10
1526.980000579632
 20
-715.3317063125012
 30
0.0
  0
VERTEX
  5
2FC
  8
0
 10
1526.559502118786
 20
-716.3478698741263
 30
0.0
  0
VERTEX
  5
2FD
  8
0
 10
1526.194294210128
 20
-717.5216326141216
 30
0.0
  0
VERTEX
  5
2FE
  8
0
 10
1525.898411588807
 20
-718.8078874885398
 30
0.0
  0
VERTEX
  5
2FF
  8
0
 10
1525.683224858054
 20
-720.1572044437843
 30
0.0
  0
VERTEX
  5
300
  8
0
 10
1525.557003523273
 20
-721.5177299858528
 30
0.0
  0
VERTEX
  5
301
  8
0
 10
1525.524598199584
 20
-722.8371798810359
 30
0.0
  0
VERTEX
  5
302
  8
0
 10
1525.587254205406
 20
-724.0648484097026
 30
0.0
  0
VERTEX
  5
303
  8
0
 10
1525.742563705568
 20
-725.1535569586725
 30
0.0
  0
VERTEX
  5
304
  8
0
 10
1525.984558243064
 20
-726.0614670688689
 30
0.0
  0
VERTEX
  5
305
  8
0
 10
1526.30393810351
 20
-726.7536882638389
 30
0.0
  0
VERTEX
  5
306
  8
0
 10
1526.688429697949
 20
-727.2036188712013
 30
0.0
  0
VERTEX
  5
307
  8
0
 10
1527.12325723
 20
-727.39396831
 30
0.0
  0
SEQEND
  5
326
  8
0
  0
POLYLINE
  5
1AB
  8
0
 66
     1
 10
0.0
 20
0.0
 30
0.0
  0
VERTEX
  5
308
  8
0
 10
1527.12325723
 20
-727.39396831
 30
0.0
  0
VERTEX
  5
309
  8
0
 10
1527.591710520326
 20
-727.317421558514
 30
0.0
  0
VERTEX
  5
30A
  8
0
 10
1528.075787172676
 20
-726.9769202662047
 30
0.0
  0
VERTEX
  5
30B
  8
0
 10
1528.556884392815
 20
-726.3855497067503
 30
0.0
  0
VERTEX
  5
30C
  8
0
 10
1529.016513884417
 20
-725.5660359190546
 30
0.0
  0
VERTEX
  5
30D
  8
0
 10
1529.437012343924
 20
-724.5498723583182
 30
0.0
  0
VERTEX
  5
30E
  8
0
 10
1529.802220251393
 20
-723.3761096202202
 30
0.0
  0
VERTEX
  5
30F
  8
0
 10
1530.098102871781
 20
-722.0898547484294
 30
0.0
  0
VERTEX
  5
310
  8
0
 10
1530.313289601946
 20
-720.7405377962158
 30
0.0
  0
VERTEX
  5
311
  8
0
 10
1530.439510936545
 20
-719.3800122572293
 30
0.0
  0
VERTEX
  5
312
  8
0
 10
1530.471916260486
 20
-718.0605623648227
 30
0.0
  0
VERTEX
  5
313
  8
0
 10
1530.409260255346
 20
-716.8328938382894
 30
0.0
  0
VERTEX
  5
314
  8
0
 10
1530.253950756259
 20
-715.7441852905123
 30
0.0
  0
VERTEX
  5
315
  8
0
 10
1530.011956220164
 20
-714.8362751803322
 30
0.0
  0
VERTEX
  5
316
  8
0
 10
1529.692576361347
 20
-714.1440539840424
 30
0.0
  0
VERTEX
  5
317
  8
0
 10
1529.308084768647
 20
-713.6941233739532
 30
0.0
  0
VERTEX
  5
318
  8
0
 10
1528.873257238311
 20
-713.5037739310471
 30
0.0
  0
SEQEND
  5
327
  8
0
  0
LINE
  5
1AC
  8
0
 10
1513.8561216
 20
-800.8033134
 30
0.0
 11
1513.8561216
 21
-714.06488158
 31
0.0
  0
LINE
  5
1AD
  8
0
 10
1506.37280683
 20
-713.12207253
 30
0.0
 11
1513.8561216
 21
-714.06488158
 31
0.0
  0
LINE
  5
1AE
  8
0
 10
1506.37280683
 20
-799.86050436
 30
0.0
 11
1506.37280683
 21
-713.12207253
 31
0.0
  0
POLYLINE
  5
1AF
  8
0
 66
     1
 10
0.0
 20
0.0
 30
0.0
  0
VERTEX
  5
319
  8
0
 10
1506.372806843606
 20
-799.8605043660137
 30
0.0
  0
VERTEX
  5
31A
  8
0
 10
1506.516596644221
 20
-801.3500835245743
 30
0.0
  0
VERTEX
  5
31B
  8
0
 10
1506.942440270403
 20
-802.8186506140609
 30
0.0
  0
VERTEX
  5
31C
  8
0
 10
1507.633972790552
 20
-804.209769425293
 30
0.0
  0
VERTEX
  5
31D
  8
0
 10
1508.564618997964
 20
-805.4699800429646
 30
0.0
  0
VERTEX
  5
31E
  8
0
 10
1509.698614681111
 20
-806.5508532801905
 30
0.0
  0
VERTEX
  5
31F
  8
0
 10
1510.992381022216
 20
-807.4108517849828
 30
0.0
  0
VERTEX
  5
320
  8
0
 10
1512.396199306772
 20
-808.0169262973805
 30
0.0
  0
VERTEX
  5
321
  8
0
 10
1513.856121585839
 20
-808.3457857139629
 30
0.0
  0
SEQEND
  5
328
  8
0
  0
LINE
  5
1B0
  8
0
 10
1646.68495883
 20
-825.08064622
 30
0.0
 11
1513.8561216
 21
-808.34578573
 31
0.0
  0
LINE
  5
1B1
  8
0
 10
1646.68495883
 20
-817.53817389
 30
0.0
 11
1646.68495883
 21
-825.08064622
 31
0.0
  0
POLYLINE
  5
1B2
  8
0
 66
     1
 10
0.0
 20
0.0
 30
0.0
  0
VERTEX
  5
1B3
  8
0
 10
1646.68495883
 20
-817.53817389
 30
0.0
  0
VERTEX
  5
1B4
  8
0
 10
1513.8561216
 20
-800.8033134
 30
0.0
  0
VERTEX
  5
1B5
  8
0
 10
1542.14039285
 20
-775.85893082
 30
0.0
  0
VERTEX
  5
1B6
  8
0
 10
1542.14039285
 20
-689.120499
 30
0.0
  0
SEQEND
  5
1B7
  8
0
  0
POLYLINE
  5
1B8
  8
0
 66
     1
 10
0.0
 20
0.0
 30
0.0
  0
VERTEX
  5
1B9
  8
0
 10
1513.8561216
 20
-714.06488158
 30
0.0
  0
VERTEX
  5
1BA
  8
0
 10
1542.14039285
 20
-689.120499
 30
0.0
  0
VERTEX
  5
1BB
  8
0
 10
1534.65707808
 20
-688.17768996
 30
0.0
  0
VERTEX
  5
1BC
  8
0
 10
1506.37280683
 20
-713.12207253
 30
0.0
  0
SEQEND
  5
1BD
  8
0
  0
LINE
  5
1BE
  8
0
 10
1674.96923008
 20
-792.59379131
 30
0.0
 11
1542.14039285
 21
-775.85893082
 31
0.0
  0
LINE
  5
1BF
  8
0
 10
1674.96923008
 20
-792.59379131
 30
0.0
 11
1646.68495883
 21
-817.53817389
 31
0.0
  0
LINE
  5
1C0
  8
0
 10
1674.96923008
 20
-800.13626364
 30
0.0
 11
1674.96923008
 21
-792.59379131
 31
0.0
  0
LINE
  5
1C1
  8
0
 10
1646.68495883
 20
-825.08064622
 30
0.0
 11
1674.96923008
 21
-800.13626364
 31
0.0
  0
LINE
  5
1C2
  8
0
  6
STRICHPUNKT2
 62
     1
 10
1623.41052059
 20
-797.05210575
 30
0.0
 11
1623.41052059
 21
-802.68527073
 31
0.0
  0
LINE
  5
1C3
  8
0
  6
STRICHPUNKT2
 62
     1
 10
1623.41052059
 20
-800.35193739
 30
0.0
 11
1613.58866995
 21
-799.11450053
 31
0.0
  0
LINE
  5
1C4
  8
0
  6
STRICHPUNKT2
 62
     1
 10
1623.41052059
 20
-800.35193739
 30
0.0
 11
1633.23237123
 21
-801.58937426
 31
0.0
  0
LINE
  5
1C5
  8
0
  6
STRICHPUNKT2
 62
     1
 10
1623.41052059
 20
-800.35193739
 30
0.0
 11
1619.69820999
 21
-803.62588761
 31
0.0
  0
LINE
  5
1C6
  8
0
  6
STRICHPUNKT2
 62
     1
 10
1623.41052059
 20
-800.35193739
 30
0.0
 11
1627.12283119
 21
-797.07798718
 31
0.0
  0
LINE
  5
1C7
  8
0
  6
STRICHPUNKT2
 62
     1
 10
1567.28565979
 20
-789.98103794
 30
0.0
 11
1567.28565979
 21
-795.61420291
 31
0.0
  0
LINE
  5
1C8
  8
0
  6
STRICHPUNKT2
 62
     1
 10
1567.28565979
 20
-793.28086958
 30
0.0
 11
1557.46380915
 21
-792.04343271
 31
0.0
  0
LINE
  5
1C9
  8
0
  6
STRICHPUNKT2
 62
     1
 10
1567.28565979
 20
-793.28086958
 30
0.0
 11
1577.10751043
 21
-794.51830645
 31
0.0
  0
LINE
  5
1CA
  8
0
  6
STRICHPUNKT2
 62
     1
 10
1567.28565979
 20
-793.28086958
 30
0.0
 11
1563.57334919
 21
-796.55481979
 31
0.0
  0
LINE
  5
1CB
  8
0
  6
STRICHPUNKT2
 62
     1
 10
1567.28565979
 20
-793.28086958
 30
0.0
 11
1570.99797039
 21
-790.00691937
 31
0.0
  0
LINE
  5
1CC
  8
0
  6
STRICHPUNKT2
 62
     1
 10
1531.27220744
 20
-720.86135007
 30
0.0
 11
1525.68322483
 21
-720.15720445
 31
0.0
  0
LINE
  5
1CD
  8
0
  6
STRICHPUNKT2
 62
     1
 10
1527.99825723
 20
-720.44887112
 30
0.0
 11
1527.99825723
 21
-730.34836605
 31
0.0
  0
LINE
  5
1CE
  8
0
  6
STRICHPUNKT2
 62
     1
 10
1527.99825723
 20
-720.44887112
 30
0.0
 11
1527.99825723
 21
-710.54937618
 31
0.0
  0
LINE
  5
1CF
  8
0
  6
STRICHPUNKT2
 62
     1
 10
1527.99825723
 20
-720.44887112
 30
0.0
 11
1531.71056783
 21
-717.1749209
 31
0.0
  0
LINE
  5
1D0
  8
0
  6
STRICHPUNKT2
 62
     1
 10
1527.99825723
 20
-720.44887112
 30
0.0
 11
1524.28594663
 21
-723.72282133
 31
0.0
  0
LINE
  5
1D1
  8
0
 10
1717.73197678
 20
-669.38368908
 30
0.0
 11
1717.73197678
 21
-577.38368908
 31
0.0
  0
LINE
  5
1D2
  8
0
 10
1709.73197678
 20
-577.38368908
 30
0.0
 11
1717.73197678
 21
-577.38368908
 31
0.0
  0
LINE
  5
1D3
  8
0
 10
1709.73197678
 20
-669.38368908
 30
0.0
 11
1709.73197678
 21
-577.38368908
 31
0.0
  0
ARC
  5
1D4
  8
0
 10
1717.73197678
 20
-669.38368908
 30
0.0
 40
8.0
 50
180.0
 51
-90.0
  0
LINE
  5
1D5
  8
0
 10
1859.73197678
 20
-677.38368908
 30
0.0
 11
1717.73197678
 21
-677.38368908
 31
0.0
  0
LINE
  5
1D6
  8
0
 10
1859.73197678
 20
-669.38368908
 30
0.0
 11
1859.73197678
 21
-677.38368908
 31
0.0
  0
LINE
  5
1D7
  8
0
 10
1859.73197678
 20
-669.38368908
 30
0.0
 11
1717.73197678
 21
-669.38368908
 31
0.0
  0
LINE
  5
1D8
  8
0
  6
STRICHPUNKT2
 62
     1
 10
1819.73197678
 20
-677.38368908
 30
0.0
 11
1819.73197678
 21
-680.88368908
 31
0.0
  0
LINE
  5
1D9
  8
0
  6
STRICHPUNKT2
 62
     1
 10
1819.73197678
 20
-665.88368908
 30
0.0
 11
1819.73197678
 21
-669.38368908
 31
0.0
  0
LINE
  5
1DA
  8
0
  6
STRICHPUNKT2
 62
     1
 10
1709.73197678
 20
-597.38368908
 30
0.0
 11
1706.23197678
 21
-597.38368908
 31
0.0
  0
LINE
  5
1DB
  8
0
  6
STRICHPUNKT2
 62
     1
 10
1721.23197678
 20
-597.38368908
 30
0.0
 11
1717.73197678
 21
-597.38368908
 31
0.0
  0
LINE
  5
1DC
  8
0
  6
STRICHPUNKT2
 62
     1
 10
1759.73197678
 20
-677.38368908
 30
0.0
 11
1759.73197678
 21
-680.88368908
 31
0.0
  0
LINE
  5
1DD
  8
0
  6
STRICHPUNKT2
 62
     1
 10
1759.73197678
 20
-665.88368908
 30
0.0
 11
1759.73197678
 21
-669.38368908
 31
0.0
  0
CIRCLE
  5
1DE
  8
0
 10
1633.28436557
 20
-597.38368908
 30
0.0
 40
7.0
  0
LINE
  5
1DF
  8
0
 10
1593.28436557
 20
-677.38368908
 30
0.0
 11
1593.28436557
 21
-669.38368908
 31
0.0
  0
LINE
  5
1E0
  8
0
 10
1673.28436557
 20
-677.38368908
 30
0.0
 11
1673.28436557
 21
-669.38368908
 31
0.0
  0
LINE
  5
1E1
  8
0
 10
1593.28436557
 20
-677.38368908
 30
0.0
 11
1673.28436557
 21
-677.38368908
 31
0.0
  0
LINE
  5
1E2
  8
0
 10
1673.28436557
 20
-669.38368908
 30
0.0
 11
1673.28436557
 21
-577.38368908
 31
0.0
  0
LINE
  5
1E3
  8
0
 10
1593.28436557
 20
-577.38368908
 30
0.0
 11
1673.28436557
 21
-577.38368908
 31
0.0
  0
LINE
  5
1E4
  8
0
 10
1593.28436557
 20
-669.38368908
 30
0.0
 11
1593.28436557
 21
-577.38368908
 31
0.0
  0
LINE
  5
1E5
  8
0
  6
STRICHPUNKT2
 62
     1
 10
1633.28436557
 20
-597.38368908
 30
0.0
 11
1643.78436557
 21
-597.38368908
 31
0.0
  0
LINE
  5
1E6
  8
0
  6
STRICHPUNKT2
 62
     1
 10
1633.28436557
 20
-597.38368908
 30
0.0
 11
1622.78436557
 21
-597.38368908
 31
0.0
  0
LINE
  5
1E7
  8
0
  6
STRICHPUNKT2
 62
     1
 10
1633.28436557
 20
-597.38368908
 30
0.0
 11
1633.28436557
 21
-586.88368908
 31
0.0
  0
LINE
  5
1E8
  8
0
  6
STRICHPUNKT2
 62
     1
 10
1633.28436557
 20
-597.38368908
 30
0.0
 11
1633.28436557
 21
-607.88368908
 31
0.0
  0
LINE
  5
1E9
  8
0
  6
STRICHPUNKT2
 62
     1
 10
1633.28436557
 20
-677.38368908
 30
0.0
 11
1633.28436557
 21
-680.88368908
 31
0.0
  0
POLYLINE
  5
1EA
  8
0
 66
     1
 10
0.0
 20
0.0
 30
0.0
 70
     1
  0
VERTEX
  5
1EB
  8
0
 10
1709.73197678
 20
-782.9777689
 30
0.0
  0
VERTEX
  5
1EC
  8
0
 10
1717.73197678
 20
-782.9777689
 30
0.0
  0
VERTEX
  5
1ED
  8
0
 10
1717.73197678
 20
-702.9777689
 30
0.0
  0
VERTEX
  5
1EE
  8
0
 10
1709.73197678
 20
-702.9777689
 30
0.0
  0
SEQEND
  5
1EF
  8
0
  0
CIRCLE
  5
1F0
  8
0
 10
1759.73197678
 20
-742.9777689
 30
0.0
 40
7.0
  0
CIRCLE
  5
1F1
  8
0
 10
1819.73197678
 20
-742.9777689
 30
0.0
 40
7.0
  0
LINE
  5
1F2
  8
0
 10
1859.73197678
 20
-702.9777689
 30
0.0
 11
1717.73197678
 21
-702.9777689
 31
0.0
  0
POLYLINE
  5
1F3
  8
0
 66
     1
 10
0.0
 20
0.0
 30
0.0
  0
VERTEX
  5
1F4
  8
0
 10
1859.73197678
 20
-702.9777689
 30
0.0
  0
VERTEX
  5
1F5
  8
0
 10
1859.73197678
 20
-782.9777689
 30
0.0
  0
VERTEX
  5
1F6
  8
0
 10
1717.73197678
 20
-782.9777689
 30
0.0
  0
SEQEND
  5
1F7
  8
0
  0
LINE
  5
1F8
  8
0
  6
STRICHPUNKT2
 62
     1
 10
1819.73197678
 20
-742.9777689
 30
0.0
 11
1809.23197678
 21
-742.9777689
 31
0.0
  0
LINE
  5
1F9
  8
0
  6
STRICHPUNKT2
 62
     1
 10
1819.73197678
 20
-742.9777689
 30
0.0
 11
1830.23197678
 21
-742.9777689
 31
0.0
  0
LINE
  5
1FA
  8
0
  6
STRICHPUNKT2
 62
     1
 10
1819.73197678
 20
-742.9777689
 30
0.0
 11
1819.73197678
 21
-753.4777689
 31
0.0
  0
LINE
  5
1FB
  8
0
  6
STRICHPUNKT2
 62
     1
 10
1819.73197678
 20
-742.9777689
 30
0.0
 11
1819.73197678
 21
-732.4777689
 31
0.0
  0
LINE
  5
1FC
  8
0
  6
STRICHPUNKT2
 62
     1
 10
1759.73197678
 20
-742.9777689
 30
0.0
 11
1749.23197678
 21
-742.9777689
 31
0.0
  0
LINE
  5
1FD
  8
0
  6
STRICHPUNKT2
 62
     1
 10
1759.73197678
 20
-742.9777689
 30
0.0
 11
1770.23197678
 21
-742.9777689
 31
0.0
  0
LINE
  5
1FE
  8
0
  6
STRICHPUNKT2
 62
     1
 10
1759.73197678
 20
-742.9777689
 30
0.0
 11
1759.73197678
 21
-753.4777689
 31
0.0
  0
LINE
  5
1FF
  8
0
  6
STRICHPUNKT2
 62
     1
 10
1759.73197678
 20
-742.9777689
 30
0.0
 11
1759.73197678
 21
-732.4777689
 31
0.0
  0
LINE
  5
200
  8
0
  6
STRICHPUNKT2
 62
     1
 10
1709.73197678
 20
-742.9777689
 30
0.0
 11
1706.23197678
 21
-742.9777689
 31
0.0
  0
LINE
  5
201
  8
0
  6
STRICHPUNKT2
 62
     1
 10
1721.23197678
 20
-742.9777689
 30
0.0
 11
1717.73197678
 21
-742.9777689
 31
0.0
  0
TEXT
  5
202
  8
TXT_DIM49
 10
1781.94968156
 20
-684.98166501
 30
0.0
 40
2.5
  1
150
  7
ARIAL
  0
LINE
  5
203
  8
0
 62
     4
 10
1710.73197678
 20
-685.48166501
 30
0.0
 11
1708.73197678
 21
-687.48166501
 31
0.0
  0
LINE
  5
204
  8
0
 62
     4
 10
1858.98197678
 20
-687.23166501
 30
0.0
 11
1860.48197678
 21
-685.73166501
 31
0.0
  0
LINE
  5
205
  8
0
 62
     4
 10
1709.73197678
 20
-686.48166501
 30
0.0
 11
1859.73197678
 21
-686.48166501
 31
0.0
  0
LINE
  5
206
  8
0
 62
     4
 10
1709.73197678
 20
-684.48166501
 30
0.0
 11
1709.73197678
 21
-688.48166501
 31
0.0
  0
LINE
  5
207
  8
0
 62
     4
 10
1859.73197678
 20
-684.48166501
 30
0.0
 11
1859.73197678
 21
-688.48166501
 31
0.0
  0
TEXT
  5
208
  8
TXT_DIM49
 10
1700.97108419
 20
-630.16594902
 30
0.0
 40
2.5
  1
100
 50
90.00020741
  7
ARIAL
  0
LINE
  5
209
  8
0
 62
     4
 10
1701.47108419
 20
-676.38368908
 30
0.0
 11
1703.47108419
 21
-678.38368908
 31
0.0
  0
LINE
  5
20A
  8
0
 62
     4
 10
1703.22108419
 20
-578.13368908
 30
0.0
 11
1701.72108419
 21
-576.63368908
 31
0.0
  0
LINE
  5
20B
  8
0
 62
     4
 10
1702.47108419
 20
-677.38368908
 30
0.0
 11
1702.47108419
 21
-577.38368908
 31
0.0
  0
LINE
  5
20C
  8
0
 62
     4
 10
1704.47108419
 20
-677.38368908
 30
0.0
 11
1700.47108419
 21
-677.38368908
 31
0.0
  0
LINE
  5
20D
  8
0
 62
     4
 10
1704.47108419
 20
-577.38368908
 30
0.0
 11
1700.47108419
 21
-577.38368908
 31
0.0
  0
TEXT
  5
20E
  8
TXT_DIM49
 10
1712.80455676
 20
-568.75015685
 30
0.0
 40
2.5
  1
8
  7
ARIAL
  0
LINE
  5
20F
  8
0
 62
     4
 10
1710.73197678
 20
-569.25015685
 30
0.0
 11
1708.73197678
 21
-571.25015685
 31
0.0
  0
LINE
  5
210
  8
0
 62
     4
 10
1716.98197678
 20
-571.00015685
 30
0.0
 11
1718.48197678
 21
-569.50015685
 31
0.0
  0
LINE
  5
211
  8
0
 62
     4
 10
1709.73197678
 20
-570.25015685
 30
0.0
 11
1717.73197678
 21
-570.25015685
 31
0.0
  0
LINE
  5
212
  8
0
 62
     4
 10
1709.73197678
 20
-572.25015685
 30
0.0
 11
1709.73197678
 21
-568.25015685
 31
0.0
  0
LINE
  5
213
  8
0
 62
     4
 10
1717.73197678
 20
-572.25015685
 30
0.0
 11
1717.73197678
 21
-568.25015685
 31
0.0
  0
TEXT
  5
214
  8
TXT_DIM49
 10
1865.72505181
 20
-674.3111091
 30
0.0
 40
2.5
  1
8
 50
90.00020741
  7
ARIAL
  0
LINE
  5
215
  8
0
 62
     4
 10
1868.22505181
 20
-670.38368908
 30
0.0
 11
1866.22505181
 21
-668.38368908
 31
0.0
  0
LINE
  5
216
  8
0
 62
     4
 10
1866.47505181
 20
-676.63368908
 30
0.0
 11
1867.97505181
 21
-678.13368908
 31
0.0
  0
LINE
  5
217
  8
0
 62
     4
 10
1867.22505181
 20
-669.38368908
 30
0.0
 11
1867.22505181
 21
-677.38368908
 31
0.0
  0
LINE
  5
218
  8
0
 62
     4
 10
1865.22505181
 20
-669.38368908
 30
0.0
 11
1869.22505181
 21
-669.38368908
 31
0.0
  0
LINE
  5
219
  8
0
 62
     4
 10
1865.22505181
 20
-677.38368908
 30
0.0
 11
1869.22505181
 21
-677.38368908
 31
0.0
  0
TEXT
  5
21A
  8
TXT_DIM49
 10
1651.42952553
 20
-569.90224829
 30
0.0
 40
2.5
  1
40
  7
ARIAL
  0
LINE
  5
21B
  8
0
 62
     4
 10
1672.28436557
 20
-572.40224829
 30
0.0
 11
1674.28436557
 21
-570.40224829
 31
0.0
  0
LINE
  5
21C
  8
0
 62
     4
 10
1634.03436557
 20
-570.65224829
 30
0.0
 11
1632.53436557
 21
-572.15224829
 31
0.0
  0
LINE
  5
21D
  8
0
 62
     4
 10
1673.28436557
 20
-571.40224829
 30
0.0
 11
1633.28436557
 21
-571.40224829
 31
0.0
  0
LINE
  5
21E
  8
0
 62
     4
 10
1673.28436557
 20
-573.40224829
 30
0.0
 11
1673.28436557
 21
-569.40224829
 31
0.0
  0
LINE
  5
21F
  8
0
 62
     4
 10
1633.28436557
 20
-573.40224829
 30
0.0
 11
1633.28436557
 21
-569.40224829
 31
0.0
  0
TEXT
  5
220
  8
TXT_DIM49
 10
1611.42952553
 20
-569.90224829
 30
0.0
 40
2.5
  1
40
  7
ARIAL
  0
LINE
  5
221
  8
0
 62
     4
 10
1632.28436557
 20
-572.40224829
 30
0.0
 11
1634.28436557
 21
-570.40224829
 31
0.0
  0
LINE
  5
222
  8
0
 62
     4
 10
1594.03436557
 20
-570.65224829
 30
0.0
 11
1592.53436557
 21
-572.15224829
 31
0.0
  0
LINE
  5
223
  8
0
 62
     4
 10
1633.28436557
 20
-571.40224829
 30
0.0
 11
1593.28436557
 21
-571.40224829
 31
0.0
  0
LINE
  5
224
  8
0
 62
     4
 10
1633.28436557
 20
-573.40224829
 30
0.0
 11
1633.28436557
 21
-569.40224829
 31
0.0
  0
LINE
  5
225
  8
0
 62
     4
 10
1593.28436557
 20
-573.40224829
 30
0.0
 11
1593.28436557
 21
-569.40224829
 31
0.0
  0
TEXT
  5
226
  8
TXT_DIM49
 10
1585.07002258
 20
-589.23852912
 30
0.0
 40
2.5
  1
20
 50
90.00020741
  7
ARIAL
  0
LINE
  5
227
  8
0
 62
     4
 10
1587.57002258
 20
-578.38368908
 30
0.0
 11
1585.57002258
 21
-576.38368908
 31
0.0
  0
LINE
  5
228
  8
0
 62
     4
 10
1585.82002258
 20
-596.63368908
 30
0.0
 11
1587.32002258
 21
-598.13368908
 31
0.0
  0
LINE
  5
229
  8
0
 62
     4
 10
1586.57002258
 20
-577.38368908
 30
0.0
 11
1586.57002258
 21
-597.38368908
 31
0.0
  0
LINE
  5
22A
  8
0
 62
     4
 10
1588.57002258
 20
-577.38368908
 30
0.0
 11
1584.57002258
 21
-577.38368908
 31
0.0
  0
LINE
  5
22B
  8
0
 62
     4
 10
1588.57002258
 20
-597.38368908
 30
0.0
 11
1584.57002258
 21
-597.38368908
 31
0.0
  0
TEXT
  5
22C
  8
TXT_DIM49
 10
1585.07002258
 20
-639.23852912
 30
0.0
 40
2.5
  1
80
 50
90.00020741
  7
ARIAL
  0
LINE
  5
22D
  8
0
 62
     4
 10
1587.57002258
 20
-598.38368908
 30
0.0
 11
1585.57002258
 21
-596.38368908
 31
0.0
  0
LINE
  5
22E
  8
0
 62
     4
 10
1585.82002258
 20
-676.63368908
 30
0.0
 11
1587.32002258
 21
-678.13368908
 31
0.0
  0
LINE
  5
22F
  8
0
 62
     4
 10
1586.57002258
 20
-597.38368908
 30
0.0
 11
1586.57002258
 21
-677.38368908
 31
0.0
  0
LINE
  5
230
  8
0
 62
     4
 10
1588.57002258
 20
-597.38368908
 30
0.0
 11
1584.57002258
 21
-597.38368908
 31
0.0
  0
LINE
  5
231
  8
0
 62
     4
 10
1588.57002258
 20
-677.38368908
 30
0.0
 11
1584.57002258
 21
-677.38368908
 31
0.0
  0
TEXT
  5
232
  8
TXT_DIM49
 10
1631.42952553
 20
-686.59759758
 30
0.0
 40
2.5
  1
80
  7
ARIAL
  0
LINE
  5
233
  8
0
 62
     4
 10
1594.28436557
 20
-687.09759758
 30
0.0
 11
1592.28436557
 21
-689.09759758
 31
0.0
  0
LINE
  5
234
  8
0
 62
     4
 10
1672.53436557
 20
-688.84759758
 30
0.0
 11
1674.03436557
 21
-687.34759758
 31
0.0
  0
LINE
  5
235
  8
0
 62
     4
 10
1593.28436557
 20
-688.09759758
 30
0.0
 11
1673.28436557
 21
-688.09759758
 31
0.0
  0
LINE
  5
236
  8
0
 62
     4
 10
1593.28436557
 20
-686.09759758
 30
0.0
 11
1593.28436557
 21
-690.09759758
 31
0.0
  0
LINE
  5
237
  8
0
 62
     4
 10
1673.28436557
 20
-686.09759758
 30
0.0
 11
1673.28436557
 21
-690.09759758
 31
0.0
  0
TEXT
  5
238
  8
TXT_DIM49
 10
1837.87713674
 20
-694.51701925
 30
0.0
 40
2.5
  1
40
  7
ARIAL
  0
LINE
  5
239
  8
0
 62
     4
 10
1858.73197678
 20
-697.01701925
 30
0.0
 11
1860.73197678
 21
-695.01701925
 31
0.0
  0
LINE
  5
23A
  8
0
 62
     4
 10
1820.48197678
 20
-695.26701925
 30
0.0
 11
1818.98197678
 21
-696.76701925
 31
0.0
  0
LINE
  5
23B
  8
0
 62
     4
 10
1859.73197678
 20
-696.01701925
 30
0.0
 11
1819.73197678
 21
-696.01701925
 31
0.0
  0
LINE
  5
23C
  8
0
 62
     4
 10
1859.73197678
 20
-698.01701925
 30
0.0
 11
1859.73197678
 21
-694.01701925
 31
0.0
  0
LINE
  5
23D
  8
0
 62
     4
 10
1819.73197678
 20
-698.01701925
 30
0.0
 11
1819.73197678
 21
-694.01701925
 31
0.0
  0
TEXT
  5
23E
  8
TXT_DIM49
 10
1787.87710146
 20
-694.51701925
 30
0.0
 40
2.5
  1
60
  7
ARIAL
  0
LINE
  5
23F
  8
0
 62
     4
 10
1818.73197678
 20
-697.01701925
 30
0.0
 11
1820.73197678
 21
-695.01701925
 31
0.0
  0
LINE
  5
240
  8
0
 62
     4
 10
1760.48197678
 20
-695.26701925
 30
0.0
 11
1758.98197678
 21
-696.76701925
 31
0.0
  0
LINE
  5
241
  8
0
 62
     4
 10
1819.73197678
 20
-696.01701925
 30
0.0
 11
1759.73197678
 21
-696.01701925
 31
0.0
  0
LINE
  5
242
  8
0
 62
     4
 10
1819.73197678
 20
-698.01701925
 30
0.0
 11
1819.73197678
 21
-694.01701925
 31
0.0
  0
LINE
  5
243
  8
0
 62
     4
 10
1759.73197678
 20
-698.01701925
 30
0.0
 11
1759.73197678
 21
-694.01701925
 31
0.0
  0
TEXT
  5
244
  8
TXT_DIM49
 10
1732.87710146
 20
-694.51701925
 30
0.0
 40
2.5
  1
50
  7
ARIAL
  0
LINE
  5
245
  8
0
 62
     4
 10
1758.73197678
 20
-697.01701925
 30
0.0
 11
1760.73197678
 21
-695.01701925
 31
0.0
  0
LINE
  5
246
  8
0
 62
     4
 10
1710.48197678
 20
-695.26701925
 30
0.0
 11
1708.98197678
 21
-696.76701925
 31
0.0
  0
LINE
  5
247
  8
0
 62
     4
 10
1759.73197678
 20
-696.01701925
 30
0.0
 11
1709.73197678
 21
-696.01701925
 31
0.0
  0
LINE
  5
248
  8
0
 62
     4
 10
1759.73197678
 20
-698.01701925
 30
0.0
 11
1759.73197678
 21
-694.01701925
 31
0.0
  0
LINE
  5
249
  8
0
 62
     4
 10
1709.73197678
 20
-698.01701925
 30
0.0
 11
1709.73197678
 21
-694.01701925
 31
0.0
  0
TEXT
  5
24A
  8
TXT_DIM49
 10
1865.62781364
 20
-724.83260894
 30
0.0
 40
2.5
  1
40
 50
90.00020741
  7
ARIAL
  0
LINE
  5
24B
  8
0
 62
     4
 10
1868.12781364
 20
-703.9777689
 30
0.0
 11
1866.12781364
 21
-701.9777689
 31
0.0
  0
LINE
  5
24C
  8
0
 62
     4
 10
1866.37781364
 20
-742.2277689
 30
0.0
 11
1867.87781364
 21
-743.7277689
 31
0.0
  0
LINE
  5
24D
  8
0
 62
     4
 10
1867.12781364
 20
-702.9777689
 30
0.0
 11
1867.12781364
 21
-742.9777689
 31
0.0
  0
LINE
  5
24E
  8
0
 62
     4
 10
1865.12781364
 20
-702.9777689
 30
0.0
 11
1869.12781364
 21
-702.9777689
 31
0.0
  0
LINE
  5
24F
  8
0
 62
     4
 10
1865.12781364
 20
-742.9777689
 30
0.0
 11
1869.12781364
 21
-742.9777689
 31
0.0
  0
TEXT
  5
250
  8
TXT_DIM49
 10
1865.62781364
 20
-764.83260894
 30
0.0
 40
2.5
  1
40
 50
90.00020741
  7
ARIAL
  0
LINE
  5
251
  8
0
 62
     4
 10
1868.12781364
 20
-743.9777689
 30
0.0
 11
1866.12781364
 21
-741.9777689
 31
0.0
  0
LINE
  5
252
  8
0
 62
     4
 10
1866.37781364
 20
-782.2277689
 30
0.0
 11
1867.87781364
 21
-783.7277689
 31
0.0
  0
LINE
  5
253
  8
0
 62
     4
 10
1867.12781364
 20
-742.9777689
 30
0.0
 11
1867.12781364
 21
-782.9777689
 31
0.0
  0
LINE
  5
254
  8
0
 62
     4
 10
1865.12781364
 20
-742.9777689
 30
0.0
 11
1869.12781364
 21
-742.9777689
 31
0.0
  0
LINE
  5
255
  8
0
 62
     4
 10
1865.12781364
 20
-782.9777689
 30
0.0
 11
1869.12781364
 21
-782.9777689
 31
0.0
  0
ENDSEC
  0
EOF
