  0
SECTION
  2
HEADER
  9
$ACADVER
  1
AC1006
  9
$DWGCODEPAGE
  3
ansi_1252
  9
$INSBASE
 10
0.0
 20
0.0
 30
0.0
  9
$EXTMIN
 10
1383.00085596
 20
-948.50416342
  9
$EXTMAX
 10
2279.5273234
 20
-535.44360178
  9
$LIMMIN
 10
1383.00085596
 20
-948.50416342
  9
$LIMMAX
 10
2279.5273234
 20
-535.44360178
  9
$ORTHOMODE
 70
     0
  9
$REGENMODE
 70
     1
  9
$FILLMODE
 70
     1
  9
$QTEXTMODE
 70
     0
  9
$MIRRTEXT
 70
     1
  9
$DRAGMODE
 70
     2
  9
$LTSCALE
 40
1.0
  9
$OSMODE
 70
    37
  9
$ATTMODE
 70
     1
  9
$TEXTSIZE
 40
1.0
  9
$TRACEWID
 40
0.05
  9
$TEXTSTYLE
  7
STANDARD
  9
$CLAYER
  8
0
  9
$CELTYPE
  6
BYBLOCK
  9
$CECOLOR
 62
   256
  9
$DIMSCALE
 40
1.0
  9
$DIMASZ
 40
0.18
  9
$DIMEXO
 40
0.0625
  9
$DIMDLI
 40
0.38
  9
$DIMRND
 40
0.0
  9
$DIMDLE
 40
0.0
  9
$DIMEXE
 40
0.18
  9
$DIMTP
 40
0.0
  9
$DIMTM
 40
0.0
  9
$DIMTXT
 40
0.18
  9
$DIMCEN
 40
0.09
  9
$DIMTSZ
 40
0.0
  9
$DIMTOL
 70
     0
  9
$DIMLIM
 70
     0
  9
$DIMTIH
 70
     1
  9
$DIMTOH
 70
     1
  9
$DIMSE1
 70
     0
  9
$DIMSE2
 70
     0
  9
$DIMTAD
 70
     0
  9
$DIMZIN
 70
     0
  9
$DIMBLK
  1

  9
$DIMASO
 70
     1
  9
$DIMSHO
 70
     1
  9
$DIMPOST
  1

  9
$DIMAPOST
  1

  9
$DIMALT
 70
     0
  9
$DIMALTD
 70
     2
  9
$DIMALTF
 40
25.4
  9
$DIMLFAC
 40
1.0
  9
$DIMTOFL
 70
     0
  9
$DIMTVP
 40
0.0
  9
$DIMTIX
 70
     0
  9
$DIMSOXD
 70
     0
  9
$DIMSAH
 70
     0
  9
$DIMBLK1
  1

  9
$DIMBLK2
  1

  9
$LUNITS
 70
     2
  9
$LUPREC
 70
     4
  9
$SKETCHINC
 40
0.1
  9
$FILLETRAD
 40
0.5
  9
$AUNITS
 70
     0
  9
$AUPREC
 70
     0
  9
$MENU
  1
.
  9
$ELEVATION
 40
0.0
  9
$THICKNESS
 40
0.0
  9
$LIMCHECK
 70
     0
  9
$CHAMFERA
 40
0.0
  9
$CHAMFERB
 40
0.0
  9
$SKPOLY
 70
     0
  9
$TDCREATE
 40
2447893.125
  9
$TDUPDATE
 40
2460791.476752431
  9
$TDINDWG
 40
0.0
  9
$TDUSRTIMER
 40
0.0
  9
$USRTIMER
 70
     1
  9
$ANGBASE
 50
0.0
  9
$ANGDIR
 70
     0
  9
$PDMODE
 70
     0
  9
$PDSIZE
 40
0.0
  9
$PLINEWID
 40
0.0
  9
$COORDS
 70
     1
  9
$SPLFRAME
 70
     0
  9
$SPLINETYPE
 70
     6
  9
$SPLINESEGS
 70
     8
  9
$ATTDIA
 70
     0
  9
$ATTREQ
 70
     1
  9
$HANDLING
 70
     1
  9
$HANDSEED
  5
3D9
  9
$SURFTAB1
 70
     6
  9
$SURFTAB2
 70
     6
  9
$SURFTYPE
 70
     6
  9
$SURFU
 70
     6
  9
$SURFV
 70
     6
  9
$UCSNAME
  2

  9
$UCSORG
 10
0.0
 20
0.0
 30
0.0
  9
$UCSXDIR
 10
1.0
 20
0.0
 30
0.0
  9
$UCSYDIR
 10
0.0
 20
1.0
 30
0.0
  9
$USERI1
 70
     0
  9
$USERI2
 70
     0
  9
$USERI3
 70
     0
  9
$USERI4
 70
     0
  9
$USERI5
 70
     0
  9
$USERR1
 40
0.0
  9
$USERR2
 40
0.0
  9
$USERR3
 40
0.0
  9
$USERR4
 40
0.0
  9
$USERR5
 40
0.0
  9
$WORLDVIEW
 70
     1
  0
ENDSEC
  0
SECTION
  2
TABLES
  0
TABLE
  2
VPORT
 70
     1
  0
VPORT
  2
*ACTIVE
 70
     0
 10
0.0
 20
0.0
 11
1.0
 21
1.0
 12
1831.26408968
 22
-741.9738826
 13
0.0
 23
0.0
 14
1.0
 24
1.0
 15
0.0
 25
0.0
 16
0.0
 26
0.0
 36
1.0
 17
0.0
 27
0.0
 37
0.0
 40
413.060561647
 41
2.170447994
 42
50.0
 43
0.0
 44
0.0
 50
0.0
 51
0.0
 71
     0
 72
   100
 73
     1
 74
     1
 75
     0
 76
     0
 77
     0
 78
     0
  0
ENDTAB
  0
TABLE
  2
LTYPE
 70
    19
  0
LTYPE
  2
CONTINUOUS
 70
     0
  3
Solid line
 72
    65
 73
     0
 40
0.0
  0
LTYPE
  2
DOT
 70
     0
  3
..............
 72
    65
 73
     2
 40
2.0
 49
0.5
 49
-1.5
  0
LTYPE
  2
HIDDEN
 70
     0
  3
-- -- -- -- --
 72
    65
 73
     2
 40
7.0
 49
4.0
 49
-3.0
  0
LTYPE
  2
DASHDOT
 70
     0
  3
--.--.--.--.--
 72
    65
 73
     4
 40
8.5
 49
4.0
 49
-2.0
 49
0.5
 49
-2.0
  0
LTYPE
  2
STRICHPUNKT2
 70
     0
  3
--.--.--.--.--
 72
    65
 73
     4
 40
18.5
 49
10.0
 49
-4.0
 49
0.5
 49
-4.0
  0
LTYPE
  2
STRICHPUNKT3
 70
     0
  3
--.--.--.--.--
 72
    65
 73
     4
 40
35.5
 49
25.0
 49
-5.0
 49
0.5
 49
-5.0
  0
LTYPE
  2
PHANTOM
 70
     0
  3
--..--..--..--
 72
    65
 73
     6
 40
23.0
 49
10.0
 49
-4.0
 49
0.5
 49
-4.0
 49
0.5
 49
-4.0
  0
LTYPE
  2
PHANTOM2
 70
     0
  3
--..--..--..--
 72
    65
 73
     6
 40
33.0
 49
20.0
 49
-4.0
 49
0.5
 49
-4.0
 49
0.5
 49
-4.0
  0
LTYPE
  2
PHANTOM3
 70
     0
  3
--..--..--..--
 72
    65
 73
     6
 40
50.0
 49
37.0
 49
-4.0
 49
0.5
 49
-4.0
 49
0.5
 49
-4.0
  0
LTYPE
  2
STR3PKT
 70
     0
  3
--...--...--...
 72
    65
 73
     8
 40
31.5
 49
20.0
 49
-2.5
 49
0.5
 49
-2.5
 49
0.5
 49
-2.5
 49
0.5
 49
-2.5
  0
LTYPE
  2
2STRPKT
 70
     0
  3
--.--.--.--.--
 72
    65
 73
     6
 40
28.0
 49
10.0
 49
-2.5
 49
10.0
 49
-2.5
 49
0.5
 49
-2.5
  0
LTYPE
  2
GESTRICHELT2
 70
     0
  3
-- -- -- -- --
 72
    65
 73
     2
 40
25.0
 49
10.0
 49
-15.0
  0
LTYPE
  2
2STR2PKT
 70
     0
  3
--..--..--..--
 72
    65
 73
     8
 40
31.0
 49
10.0
 49
-2.5
 49
10.0
 49
-2.5
 49
0.5
 49
-2.5
 49
0.5
 49
-2.5
  0
LTYPE
  2
STR3PKT2
 70
     0
  3
--...--...--...
 72
    65
 73
     8
 40
21.0
 49
10.0
 49
-2.5
 49
0.5
 49
-2.5
 49
0.5
 49
-2.5
 49
0.5
 49
-2.0
  0
LTYPE
  2
2STR3PKT
 70
     0
  3
--...--...--...
 72
    65
 73
    10
 40
34.0
 49
10.0
 49
-2.5
 49
10.0
 49
-2.5
 49
0.5
 49
-2.5
 49
0.5
 49
-2.5
 49
0.5
 49
-2.5
  0
LTYPE
  2
STRKSTR
 70
     0
  3
-- - -- - -- -
 72
    65
 73
     4
 40
30.0
 49
20.0
 49
-2.5
 49
5.0
 49
-2.5
  0
LTYPE
  2
STRKSTR2
 70
     0
  3
-- - -- - -- -
 72
    65
 73
     6
 40
37.5
 49
20.0
 49
-2.5
 49
5.0
 49
-2.5
 49
5.0
 49
-2.5
  0
LTYPE
  2
STRKSTR3
 70
     0
  3
-- - -- - -- -
 72
    65
 73
     8
 40
45.0
 49
20.0
 49
-2.5
 49
5.0
 49
-2.5
 49
5.0
 49
-2.5
 49
5.0
 49
-2.5
  0
LTYPE
  2
PUNKT2
 70
     0
  3
..............
 72
    65
 73
     2
 40
3.5
 49
0.5
 49
-3.0
  0
ENDTAB
  0
TABLE
  2
LAYER
 70
    17
  0
LAYER
  2
0
 70
     0
 62
     7
  6
CONTINUOUS
  0
LAYER
  2
LE_GREEN
 70
     0
 62
     3
  6
CONTINUOUS
  0
LAYER
  2
LE_RED
 70
     0
 62
     1
  6
CONTINUOUS
  0
LAYER
  2
LE_ALL
 70
     0
 62
     7
  6
CONTINUOUS
  0
LAYER
  2
LE_HIDDEN1
 70
     0
 62
     3
  6
HIDDEN
  0
LAYER
  2
LE_HIDDEN
 70
     0
 62
     7
  6
CONTINUOUS
  0
LAYER
  2
LE_MIDDLE
 70
     0
 62
     7
  6
CONTINUOUS
  0
LAYER
  2
TXT_YELLOW
 70
     0
 62
     2
  6
CONTINUOUS
  0
LAYER
  2
TXT_DIM49
 70
     0
 62
     2
  6
CONTINUOUS
  0
LAYER
  2
TXT_ALL
 70
     0
 62
     7
  6
CONTINUOUS
  0
LAYER
  2
DIM49
 70
     0
 62
     4
  6
CONTINUOUS
  0
LAYER
  2
HATCH
 70
     0
 62
     3
  6
CONTINUOUS
  0
LAYER
  2
APPLE
 70
     0
 62
     7
  6
CONTINUOUS
  0
LAYER
  2
10
 70
     0
 62
     7
  6
CONTINUOUS
  0
LAYER
  2
20
 70
     0
 62
     7
  6
CONTINUOUS
  0
LAYER
  2
47
 70
     0
 62
     7
  6
CONTINUOUS
  0
LAYER
  2
49
 70
     0
 62
     7
  6
CONTINUOUS
  0
ENDTAB
  0
TABLE
  2
STYLE
 70
     5
  0
STYLE
  2
MONOTXT
 70
     0
 40
0.0
 41
1.0
 50
0.0
 71
     0
 42
1.0
  3
monotxt.shx
  4

  0
STYLE
  2
STANDARD
 70
     0
 40
0.0
 41
1.0
 50
0.0
 71
     0
 42
1.0
  3
txt
  4

  0
STYLE
  2
ARIAL
 70
     0
 40
0.0
 41
1.0
 50
0.0
 71
     0
 42
1.0
  3
arial.ttf
  4

  0
STYLE
  2
ARIAL_NARROW
 70
     0
 40
0.0
 41
1.0
 50
0.0
 71
     0
 42
1.0
  3
ArialN.ttf
  4

  0
STYLE
  2
ISOCPEUR
 70
     0
 40
0.0
 41
1.0
 50
0.0
 71
     0
 42
1.0
  3
ISOCPEUR.ttf
  4

  0
ENDTAB
  0
TABLE
  2
VIEW
 70
     0
  0
ENDTAB
  0
TABLE
  2
UCS
 70
     0
  0
ENDTAB
  0
ENDSEC
  0
SECTION
  2
BLOCKS
  0
ENDSEC
  0
SECTION
  2
ENTITIES
  0
POLYLINE
  5
16E
  8
0
 66
     1
 10
0.0
 20
0.0
 30
0.0
 70
     1
  0
VERTEX
  5
16F
  8
0
 10
1642.72754349
 20
-869.42833564
 30
0.0
  0
VERTEX
  5
170
  8
0
 10
2062.72754349
 20
-869.42833564
 30
0.0
  0
VERTEX
  5
171
  8
0
 10
2062.72754349
 20
-572.42833564
 30
0.0
  0
VERTEX
  5
172
  8
0
 10
1642.72754349
 20
-572.42833564
 30
0.0
  0
SEQEND
  5
173
  8
0
  0
POLYLINE
  5
174
  8
0
 66
     1
 10
0.0
 20
0.0
 30
0.0
 70
     1
  0
VERTEX
  5
175
  8
0
 10
1647.72754349
 20
-864.42833564
 30
0.0
  0
VERTEX
  5
176
  8
0
 10
2057.72754349
 20
-864.42833564
 30
0.0
  0
VERTEX
  5
177
  8
0
 10
2057.72754349
 20
-577.42833564
 30
0.0
  0
VERTEX
  5
178
  8
0
 10
1647.72754349
 20
-577.42833564
 30
0.0
  0
SEQEND
  5
179
  8
0
  0
LINE
  5
17A
  8
0
 10
1872.72754349
 20
-864.42833564
 30
0.0
 11
1872.72754349
 21
-869.42833564
 31
0.0
  0
LINE
  5
17B
  8
0
 10
1872.72754349
 20
-577.42833564
 30
0.0
 11
1872.72754349
 21
-572.42833564
 31
0.0
  0
LINE
  5
17C
  8
0
 10
1662.72754349
 20
-864.42833564
 30
0.0
 11
1662.72754349
 21
-869.42833564
 31
0.0
  0
LINE
  5
17D
  8
0
 10
1662.72754349
 20
-577.42833564
 30
0.0
 11
1662.72754349
 21
-572.42833564
 31
0.0
  0
TEXT
  5
17E
  8
TXT_ALL
 62
     4
 10
2061.72754349
 20
-868.42833564
 30
0.0
 40
2.5
  1

 50
90.00020741
  0
POLYLINE
  5
17F
  8
0
 66
     1
 10
0.0
 20
0.0
 30
0.0
  0
VERTEX
  5
180
  8
0
 10
2057.72754349
 20
-587.42833564
 30
0.0
  0
VERTEX
  5
181
  8
0
 10
1988.73424349
 20
-587.42833564
 30
0.0
  0
VERTEX
  5
182
  8
0
 10
1988.73424349
 20
-577.42833564
 30
0.0
  0
SEQEND
  5
183
  8
0
  0
LINE
  5
184
  8
0
 10
1990.63754349
 20
-844.92833564
 30
0.0
 11
1850.74754349
 21
-844.92833564
 31
0.0
  0
LINE
  5
185
  8
0
 10
1850.74754349
 20
-854.67833564
 30
0.0
 11
1990.63754349
 21
-854.67833564
 31
0.0
  0
POLYLINE
  5
186
  8
0
 66
     1
 10
0.0
 20
0.0
 30
0.0
  0
VERTEX
  5
187
  8
0
 10
1850.74754349
 20
-844.92833564
 30
0.0
  0
VERTEX
  5
188
  8
0
 10
1850.74754349
 20
-854.67833564
 30
0.0
  0
VERTEX
  5
189
  8
0
 10
1850.74754349
 20
-864.42833564
 30
0.0
  0
SEQEND
  5
18A
  8
0
  0
POLYLINE
  5
18B
  8
0
 66
     1
 10
0.0
 20
0.0
 30
0.0
  0
VERTEX
  5
18C
  8
0
 10
1920.69254349
 20
-844.92833564
 30
0.0
  0
VERTEX
  5
18D
  8
0
 10
1920.69254349
 20
-854.67833564
 30
0.0
  0
VERTEX
  5
18E
  8
0
 10
1920.69254349
 20
-864.42833564
 30
0.0
  0
SEQEND
  5
18F
  8
0
  0
TEXT
  5
190
  8
TXT_ALL
 10
1651.16950374
 20
-583.67833564
 30
0.0
 40
2.5
  1
Art. nr. 91002318
  7
ARIAL
  0
TEXT
  5
191
  8
TXT_ALL
 10
1693.90754056
 20
-583.67833564
 30
0.0
 40
2.5
  1
Omschrijving: H1504-anker 150x60 50x8
  7
ARIAL
  0
LINE
  5
192
  8
0
 10
2057.72754349
 20
-587.42833564
 30
0.0
 11
1647.72754349
 21
-587.42833564
 31
0.0
  0
LINE
  5
193
  8
0
 10
1690.74754349
 20
-587.42833564
 30
0.0
 11
1690.74754349
 21
-577.42833564
 31
0.0
  0
LINE
  5
194
  8
0
 10
1850.74754349
 20
-587.42833564
 30
0.0
 11
1850.74754349
 21
-577.42833564
 31
0.0
  0
TEXT
  5
195
  8
TXT_ALL
 10
1921.74124349
 20
-583.67833564
 30
0.0
 40
2.5
  1
Behandeling: Thermisch Verzinkt
  7
ARIAL
  0
LINE
  5
196
  8
0
 10
1990.63754349
 20
-844.92833564
 30
0.0
 11
2057.72754349
 21
-844.92833564
 31
0.0
  0
LINE
  5
197
  8
0
 10
1990.63754349
 20
-864.42833564
 30
0.0
 11
1990.63754349
 21
-844.92833564
 31
0.0
  0
LINE
  5
198
  8
0
 10
1990.63754349
 20
-864.42833564
 30
0.0
 11
1990.63754349
 21
-844.92833564
 31
0.0
  0
TEXT
  5
199
  8
TXT_ALL
 10
1785.09274158
 20
-863.27380223
 30
0.0
 40
2.5
  1

  0
TEXT
  5
19A
  8
TXT_ALL
 10
1906.22792455
 20
-853.17833564
 30
0.0
 40
2.5
  1

  0
POLYLINE
  5
19B
  8
0
 66
     1
 10
0.0
 20
0.0
 30
0.0
  0
VERTEX
  5
19C
  8
0
 10
1988.73424349
 20
-587.42833564
 30
0.0
  0
VERTEX
  5
19D
  8
0
 10
1919.74124349
 20
-587.42833564
 30
0.0
  0
VERTEX
  5
19E
  8
0
 10
1919.74124349
 20
-577.42833564
 30
0.0
  0
SEQEND
  5
19F
  8
0
  0
TEXT
  5
1A0
  8
TXT_ALL
 10
1990.73424349
 20
-583.67833564
 30
0.0
 40
2.5
  1
Verpakkingshoeveelheid: 1 st.
  7
ARIAL
  0
TEXT
  5
1A1
  8
TXT_ALL
 10
1852.74754349
 20
-583.67833564
 30
0.0
 40
2.5
  1
Materiaal: S355
  7
ARIAL
  0
POLYLINE
  5
1A2
  8
0
 66
     1
 10
0.0
 20
0.0
 30
0.0
  0
VERTEX
  5
327
  8
0
 10
1687.02579415
 20
-787.0595963
 30
0.0
  0
VERTEX
  5
328
  8
0
 10
1687.360403643276
 20
-787.0049200488836
 30
0.0
  0
VERTEX
  5
329
  8
0
 10
1687.706172680847
 20
-786.7617048399287
 30
0.0
  0
VERTEX
  5
32A
  8
0
 10
1688.049813552539
 20
-786.3392972971973
 30
0.0
  0
VERTEX
  5
32B
  8
0
 10
1688.3781203324
 20
-785.7539303056307
 30
0.0
  0
VERTEX
  5
32C
  8
0
 10
1688.678476375024
 20
-785.028099190386
 30
0.0
  0
VERTEX
  5
32D
  8
0
 10
1688.93933916616
 20
-784.1896972341077
 30
0.0
  0
VERTEX
  5
32E
  8
0
 10
1689.150683895063
 20
-783.2709437537211
 30
0.0
  0
VERTEX
  5
32F
  8
0
 10
1689.304388702342
 20
-782.307145930154
 30
0.0
  0
VERTEX
  5
330
  8
0
 10
1689.394546798466
 20
-781.3353419731777
 30
0.0
  0
VERTEX
  5
331
  8
0
 10
1689.41769345837
 20
-780.3928777637798
 30
0.0
  0
VERTEX
  5
332
  8
0
 10
1689.372939168896
 20
-779.515971672905
 30
0.0
  0
VERTEX
  5
333
  8
0
 10
1689.262003812287
 20
-778.7383227097741
 30
0.0
  0
VERTEX
  5
334
  8
0
 10
1689.089150572074
 20
-778.0898154878616
 30
0.0
  0
VERTEX
  5
335
  8
0
 10
1688.861022101327
 20
-777.5953717759619
 30
0.0
  0
VERTEX
  5
336
  8
0
 10
1688.586385249219
 20
-777.2739927685928
 30
0.0
  0
VERTEX
  5
337
  8
0
 10
1688.275794155936
 20
-777.1380288807478
 30
0.0
  0
SEQEND
  5
3CC
  8
0
  0
POLYLINE
  5
1A3
  8
0
 66
     1
 10
0.0
 20
0.0
 30
0.0
  0
VERTEX
  5
338
  8
0
 10
1688.275794155936
 20
-777.1380288807478
 30
0.0
  0
VERTEX
  5
339
  8
0
 10
1687.941184662201
 20
-777.1927051287182
 30
0.0
  0
VERTEX
  5
33A
  8
0
 10
1687.59541562391
 20
-777.4359203354784
 30
0.0
  0
VERTEX
  5
33B
  8
0
 10
1687.251774751324
 20
-777.8583278770078
 30
0.0
  0
VERTEX
  5
33C
  8
0
 10
1686.923467970492
 20
-778.4436948683376
 30
0.0
  0
VERTEX
  5
33D
  8
0
 10
1686.623111926913
 20
-779.1695259842171
 30
0.0
  0
VERTEX
  5
33E
  8
0
 10
1686.362249134926
 20
-780.0079279418505
 30
0.0
  0
VERTEX
  5
33F
  8
0
 10
1686.150904405357
 20
-780.9266814241137
 30
0.0
  0
VERTEX
  5
340
  8
0
 10
1685.997199597658
 20
-781.890479249846
 30
0.0
  0
VERTEX
  5
341
  8
0
 10
1685.907041501403
 20
-782.8622832090236
 30
0.0
  0
VERTEX
  5
342
  8
0
 10
1685.88389484168
 20
-783.8047474204047
 30
0.0
  0
VERTEX
  5
343
  8
0
 10
1685.928649131641
 20
-784.6816535128035
 30
0.0
  0
VERTEX
  5
344
  8
0
 10
1686.039584489018
 20
-785.4593024767863
 30
0.0
  0
VERTEX
  5
345
  8
0
 10
1686.212437730231
 20
-786.1078096987104
 30
0.0
  0
VERTEX
  5
346
  8
0
 10
1686.440566202142
 20
-786.6022534096674
 30
0.0
  0
VERTEX
  5
347
  8
0
 10
1686.715203055492
 20
-786.923632415089
 30
0.0
  0
VERTEX
  5
348
  8
0
 10
1687.02579415
 20
-787.0595963
 30
0.0
  0
SEQEND
  5
3CD
  8
0
  0
POLYLINE
  5
1A4
  8
0
 66
     1
 10
0.0
 20
0.0
 30
0.0
  0
VERTEX
  5
349
  8
0
 10
1681.04617655
 20
-778.66607098
 30
0.0
  0
VERTEX
  5
34A
  8
0
 10
1681.506264603173
 20
-778.5908911347391
 30
0.0
  0
VERTEX
  5
34B
  8
0
 10
1681.981697029756
 20
-778.2564702224971
 30
0.0
  0
VERTEX
  5
34C
  8
0
 10
1682.45420322826
 20
-777.6756598513568
 30
0.0
  0
VERTEX
  5
34D
  8
0
 10
1682.905625050505
 20
-776.8707802381083
 30
0.0
  0
VERTEX
  5
34E
  8
0
 10
1683.318614609061
 20
-775.8727624548363
 30
0.0
  0
VERTEX
  5
34F
  8
0
 10
1683.677300946835
 20
-774.7199597651698
 30
0.0
  0
VERTEX
  5
350
  8
0
 10
1683.967899949053
 20
-773.4566737298727
 30
0.0
  0
VERTEX
  5
351
  8
0
 10
1684.179244059054
 20
-772.131451722712
 30
0.0
  0
VERTEX
  5
352
  8
0
 10
1684.303211441232
 20
-770.7952212821134
 30
0.0
  0
VERTEX
  5
353
  8
0
 10
1684.335038098624
 20
-769.4993329944257
 30
0.0
  0
VERTEX
  5
354
  8
0
 10
1684.273500950636
 20
-768.2935871196888
 30
0.0
  0
VERTEX
  5
355
  8
0
 10
1684.12096483535
 20
-767.2243197955734
 30
0.0
  0
VERTEX
  5
356
  8
0
 10
1683.883291630121
 20
-766.3326223655991
 30
0.0
  0
VERTEX
  5
357
  8
0
 10
1683.569614982915
 20
-765.6527622618526
 30
0.0
  0
VERTEX
  5
358
  8
0
 10
1683.191989311345
 20
-765.2108661267911
 30
0.0
  0
VERTEX
  5
359
  8
0
 10
1682.764926558162
 20
-765.0239157810283
 30
0.0
  0
SEQEND
  5
3CE
  8
0
  0
POLYLINE
  5
1A5
  8
0
 66
     1
 10
0.0
 20
0.0
 30
0.0
  0
VERTEX
  5
35A
  8
0
 10
1682.764926558162
 20
-765.0239157810283
 30
0.0
  0
VERTEX
  5
35B
  8
0
 10
1682.304838504358
 20
-765.0990956219634
 30
0.0
  0
VERTEX
  5
35C
  8
0
 10
1681.829406076785
 20
-765.4335165311876
 30
0.0
  0
VERTEX
  5
35D
  8
0
 10
1681.356899877052
 20
-766.0143269006751
 30
0.0
  0
VERTEX
  5
35E
  8
0
 10
1680.905478053471
 20
-766.819206513598
 30
0.0
  0
VERTEX
  5
35F
  8
0
 10
1680.492488493601
 20
-767.8172242977431
 30
0.0
  0
VERTEX
  5
360
  8
0
 10
1680.133802154658
 20
-768.9700269892729
 30
0.0
  0
VERTEX
  5
361
  8
0
 10
1679.843203151524
 20
-770.2333130271503
 30
0.0
  0
VERTEX
  5
362
  8
0
 10
1679.631859040946
 20
-771.558535037288
 30
0.0
  0
VERTEX
  5
363
  8
0
 10
1679.507891658589
 20
-772.8947654809137
 30
0.0
  0
VERTEX
  5
364
  8
0
 10
1679.476065001444
 20
-774.1906537713282
 30
0.0
  0
VERTEX
  5
365
  8
0
 10
1679.537602150102
 20
-775.3963996481602
 30
0.0
  0
VERTEX
  5
366
  8
0
 10
1679.690138266445
 20
-776.4656669734475
 30
0.0
  0
VERTEX
  5
367
  8
0
 10
1679.927811473049
 20
-777.3573644034376
 30
0.0
  0
VERTEX
  5
368
  8
0
 10
1680.241488121855
 20
-778.0372245058878
 30
0.0
  0
VERTEX
  5
369
  8
0
 10
1680.619113795133
 20
-778.4791206382713
 30
0.0
  0
VERTEX
  5
36A
  8
0
 10
1681.04617655
 20
-778.66607098
 30
0.0
  0
SEQEND
  5
3CF
  8
0
  0
POLYLINE
  5
1A6
  8
0
 66
     1
 10
0.0
 20
0.0
 30
0.0
  0
VERTEX
  5
36B
  8
0
 10
1675.53530895
 20
-766.55195787
 30
0.0
  0
VERTEX
  5
36C
  8
0
 10
1675.869918443276
 20
-766.4972816188837
 30
0.0
  0
VERTEX
  5
36D
  8
0
 10
1676.215687480847
 20
-766.2540664099288
 30
0.0
  0
VERTEX
  5
36E
  8
0
 10
1676.55932835254
 20
-765.8316588671973
 30
0.0
  0
VERTEX
  5
36F
  8
0
 10
1676.8876351324
 20
-765.2462918756307
 30
0.0
  0
VERTEX
  5
370
  8
0
 10
1677.187991175024
 20
-764.5204607603861
 30
0.0
  0
VERTEX
  5
371
  8
0
 10
1677.44885396616
 20
-763.6820588041078
 30
0.0
  0
VERTEX
  5
372
  8
0
 10
1677.660198695063
 20
-762.7633053237212
 30
0.0
  0
VERTEX
  5
373
  8
0
 10
1677.813903502342
 20
-761.799507500154
 30
0.0
  0
VERTEX
  5
374
  8
0
 10
1677.904061598466
 20
-760.8277035431778
 30
0.0
  0
VERTEX
  5
375
  8
0
 10
1677.92720825837
 20
-759.8852393337799
 30
0.0
  0
VERTEX
  5
376
  8
0
 10
1677.882453968896
 20
-759.0083332429051
 30
0.0
  0
VERTEX
  5
377
  8
0
 10
1677.771518612287
 20
-758.2306842797742
 30
0.0
  0
VERTEX
  5
378
  8
0
 10
1677.598665372074
 20
-757.5821770578617
 30
0.0
  0
VERTEX
  5
379
  8
0
 10
1677.370536901327
 20
-757.087733345962
 30
0.0
  0
VERTEX
  5
37A
  8
0
 10
1677.095900049219
 20
-756.7663543385929
 30
0.0
  0
VERTEX
  5
37B
  8
0
 10
1676.785308955936
 20
-756.6303904507479
 30
0.0
  0
SEQEND
  5
3D0
  8
0
  0
POLYLINE
  5
1A7
  8
0
 66
     1
 10
0.0
 20
0.0
 30
0.0
  0
VERTEX
  5
37C
  8
0
 10
1676.785308955936
 20
-756.6303904507479
 30
0.0
  0
VERTEX
  5
37D
  8
0
 10
1676.450699462201
 20
-756.6850666987183
 30
0.0
  0
VERTEX
  5
37E
  8
0
 10
1676.10493042391
 20
-756.9282819054785
 30
0.0
  0
VERTEX
  5
37F
  8
0
 10
1675.761289551324
 20
-757.3506894470079
 30
0.0
  0
VERTEX
  5
380
  8
0
 10
1675.432982770492
 20
-757.9360564383377
 30
0.0
  0
VERTEX
  5
381
  8
0
 10
1675.132626726913
 20
-758.6618875542172
 30
0.0
  0
VERTEX
  5
382
  8
0
 10
1674.871763934926
 20
-759.5002895118506
 30
0.0
  0
VERTEX
  5
383
  8
0
 10
1674.660419205357
 20
-760.4190429941137
 30
0.0
  0
VERTEX
  5
384
  8
0
 10
1674.506714397658
 20
-761.382840819846
 30
0.0
  0
VERTEX
  5
385
  8
0
 10
1674.416556301403
 20
-762.3546447790237
 30
0.0
  0
VERTEX
  5
386
  8
0
 10
1674.39340964168
 20
-763.2971089904048
 30
0.0
  0
VERTEX
  5
387
  8
0
 10
1674.438163931641
 20
-764.1740150828035
 30
0.0
  0
VERTEX
  5
388
  8
0
 10
1674.549099289018
 20
-764.9516640467864
 30
0.0
  0
VERTEX
  5
389
  8
0
 10
1674.721952530231
 20
-765.6001712687105
 30
0.0
  0
VERTEX
  5
38A
  8
0
 10
1674.950081002142
 20
-766.0946149796674
 30
0.0
  0
VERTEX
  5
38B
  8
0
 10
1675.224717855492
 20
-766.415993985089
 30
0.0
  0
VERTEX
  5
38C
  8
0
 10
1675.53530895
 20
-766.55195787
 30
0.0
  0
SEQEND
  5
3D1
  8
0
  0
POLYLINE
  5
1A8
  8
0
 66
     1
 10
0.0
 20
0.0
 30
0.0
  0
VERTEX
  5
1A9
  8
0
 10
1692.95409501
 20
-732.63831138
 30
0.0
  0
VERTEX
  5
1AA
  8
0
 10
1670.8570081
 20
-752.12611027
 30
0.0
  0
VERTEX
  5
1AB
  8
0
 10
1661.50286463
 20
-750.94759897
 30
0.0
  0
SEQEND
  5
1AC
  8
0
  0
LINE
  5
1AD
  8
0
 10
1683.59995154
 20
-731.45980008
 30
0.0
 11
1661.50286463
 21
-750.94759897
 31
0.0
  0
LINE
  5
1AE
  8
0
 10
1692.95409501
 20
-732.63831138
 30
0.0
 11
1683.59995154
 21
-731.45980008
 31
0.0
  0
POLYLINE
  5
1AF
  8
0
 66
     1
 10
0.0
 20
0.0
 30
0.0
  0
VERTEX
  5
1B0
  8
0
 10
1692.95409501
 20
-732.63831138
 30
0.0
  0
VERTEX
  5
1B1
  8
0
 10
1692.95409501
 20
-784.49280867
 30
0.0
  0
VERTEX
  5
1B2
  8
0
 10
1670.8570081
 20
-803.98060756
 30
0.0
  0
VERTEX
  5
1B3
  8
0
 10
1670.8570081
 20
-752.12611027
 30
0.0
  0
SEQEND
  5
1B4
  8
0
  0
POLYLINE
  5
1B5
  8
0
 66
     1
 10
0.0
 20
0.0
 30
0.0
  0
VERTEX
  5
1B6
  8
0
 10
1670.8570081
 20
-803.98060756
 30
0.0
  0
VERTEX
  5
1B7
  8
0
 10
1661.50286463
 20
-802.80209626
 30
0.0
  0
VERTEX
  5
1B8
  8
0
 10
1661.50286463
 20
-750.94759897
 30
0.0
  0
SEQEND
  5
1B9
  8
0
  0
LINE
  5
1BA
  8
0
  6
STRICHPUNKT2
 62
     1
 10
1674.50671438
 20
-761.38284083
 30
0.0
 11
1678.49884482
 21
-761.88580199
 31
0.0
  0
LINE
  5
1BB
  8
0
  6
STRICHPUNKT2
 62
     1
 10
1676.16030895
 20
-761.59117416
 30
0.0
 11
1678.81195938
 21
-759.2526383
 31
0.0
  0
LINE
  5
1BC
  8
0
  6
STRICHPUNKT2
 62
     1
 10
1676.16030895
 20
-761.59117416
 30
0.0
 11
1673.50865852
 21
-763.92971003
 31
0.0
  0
LINE
  5
1BD
  8
0
  6
STRICHPUNKT2
 62
     1
 10
1676.16030895
 20
-761.59117416
 30
0.0
 11
1676.16030895
 21
-768.66224197
 31
0.0
  0
LINE
  5
1BE
  8
0
  6
STRICHPUNKT2
 62
     1
 10
1676.16030895
 20
-761.59117416
 30
0.0
 11
1676.16030895
 21
-754.52010635
 31
0.0
  0
LINE
  5
1BF
  8
0
  6
STRICHPUNKT2
 62
     1
 10
1679.63185902
 20
-771.55853504
 30
0.0
 11
1685.12103837
 21
-772.25010664
 31
0.0
  0
LINE
  5
1C0
  8
0
  6
STRICHPUNKT2
 62
     1
 10
1681.90555155
 20
-771.84499338
 30
0.0
 11
1685.55157089
 21
-768.62950656
 31
0.0
  0
LINE
  5
1C1
  8
0
  6
STRICHPUNKT2
 62
     1
 10
1681.90555155
 20
-771.84499338
 30
0.0
 11
1678.25953221
 21
-775.06048019
 31
0.0
  0
LINE
  5
1C2
  8
0
  6
STRICHPUNKT2
 62
     1
 10
1681.90555155
 20
-771.84499338
 30
0.0
 11
1681.90555155
 21
-781.56771162
 31
0.0
  0
LINE
  5
1C3
  8
0
  6
STRICHPUNKT2
 62
     1
 10
1681.90555155
 20
-771.84499338
 30
0.0
 11
1681.90555155
 21
-762.12227514
 31
0.0
  0
LINE
  5
1C4
  8
0
  6
STRICHPUNKT2
 62
     1
 10
1685.99719958
 20
-781.89047926
 30
0.0
 11
1689.98933002
 21
-782.39344042
 31
0.0
  0
LINE
  5
1C5
  8
0
  6
STRICHPUNKT2
 62
     1
 10
1687.65079415
 20
-782.09881259
 30
0.0
 11
1690.30244458
 21
-779.76027672
 31
0.0
  0
LINE
  5
1C6
  8
0
  6
STRICHPUNKT2
 62
     1
 10
1687.65079415
 20
-782.09881259
 30
0.0
 11
1684.99914372
 21
-784.43734846
 31
0.0
  0
LINE
  5
1C7
  8
0
  6
STRICHPUNKT2
 62
     1
 10
1687.65079415
 20
-782.09881259
 30
0.0
 11
1687.65079415
 21
-789.1698804
 31
0.0
  0
LINE
  5
1C8
  8
0
  6
STRICHPUNKT2
 62
     1
 10
1687.65079415
 20
-782.09881259
 30
0.0
 11
1687.65079415
 21
-775.02774478
 31
0.0
  0
POLYLINE
  5
1C9
  8
0
 66
     1
 10
0.0
 20
0.0
 30
0.0
  0
VERTEX
  5
1CA
  8
0
 10
1692.95409501
 20
-784.49280867
 30
0.0
  0
VERTEX
  5
1CB
  8
0
 10
1670.8570081
 20
-803.98060756
 30
0.0
  0
VERTEX
  5
1CC
  8
0
 10
1661.50286463
 20
-802.80209626
 30
0.0
  0
SEQEND
  5
1CD
  8
0
  0
POLYLINE
  5
1CE
  8
0
 66
     1
 10
0.0
 20
0.0
 30
0.0
  0
VERTEX
  5
38D
  8
0
 10
1692.954095020971
 20
-784.4928086806353
 30
0.0
  0
VERTEX
  5
38E
  8
0
 10
1693.133832272499
 20
-786.3547826293844
 30
0.0
  0
VERTEX
  5
38F
  8
0
 10
1693.66613680609
 20
-788.1904914916499
 30
0.0
  0
VERTEX
  5
390
  8
0
 10
1694.530552457214
 20
-789.9293900059412
 30
0.0
  0
VERTEX
  5
391
  8
0
 10
1695.693860217455
 20
-791.5046532781155
 30
0.0
  0
VERTEX
  5
392
  8
0
 10
1697.111354822365
 20
-792.8557448245631
 30
0.0
  0
VERTEX
  5
393
  8
0
 10
1698.728562749684
 20
-793.9307429553027
 30
0.0
  0
VERTEX
  5
394
  8
0
 10
1700.483335606243
 20
-794.688336095392
 30
0.0
  0
VERTEX
  5
395
  8
0
 10
1702.308238455835
 20
-795.0994103655718
 30
0.0
  0
SEQEND
  5
3D2
  8
0
  0
POLYLINE
  5
1CF
  8
0
 66
     1
 10
0.0
 20
0.0
 30
0.0
  0
VERTEX
  5
1D0
  8
0
 10
1702.30823847
 20
-795.09941039
 30
0.0
  0
VERTEX
  5
1D1
  8
0
 10
1680.21115156
 20
-814.58720928
 30
0.0
  0
SEQEND
  5
1D2
  8
0
  0
POLYLINE
  5
1D3
  8
0
 66
     1
 10
0.0
 20
0.0
 30
0.0
  0
VERTEX
  5
396
  8
0
 10
1670.857008110971
 20
-803.9806075706354
 30
0.0
  0
VERTEX
  5
397
  8
0
 10
1671.036745362499
 20
-805.8425815193845
 30
0.0
  0
VERTEX
  5
398
  8
0
 10
1671.569049896089
 20
-807.67829038165
 30
0.0
  0
VERTEX
  5
399
  8
0
 10
1672.433465547214
 20
-809.4171888959412
 30
0.0
  0
VERTEX
  5
39A
  8
0
 10
1673.596773307455
 20
-810.9924521681155
 30
0.0
  0
VERTEX
  5
39B
  8
0
 10
1675.014267912364
 20
-812.3435437145631
 30
0.0
  0
VERTEX
  5
39C
  8
0
 10
1676.631475839684
 20
-813.4185418453027
 30
0.0
  0
VERTEX
  5
39D
  8
0
 10
1678.386248696243
 20
-814.176134985392
 30
0.0
  0
VERTEX
  5
39E
  8
0
 10
1680.211151545835
 20
-814.5872092555718
 30
0.0
  0
SEQEND
  5
3D3
  8
0
  0
POLYLINE
  5
1D4
  8
0
 66
     1
 10
0.0
 20
0.0
 30
0.0
  0
VERTEX
  5
1D5
  8
0
 10
1680.21115156
 20
-814.58720928
 30
0.0
  0
VERTEX
  5
1D6
  8
0
 10
1680.21115156
 20
-824.01529969
 30
0.0
  0
SEQEND
  5
1D7
  8
0
  0
POLYLINE
  5
1D8
  8
0
 66
     1
 10
0.0
 20
0.0
 30
0.0
  0
VERTEX
  5
39F
  8
0
 10
1661.502864661942
 20
-802.8020962812707
 30
0.0
  0
VERTEX
  5
3A0
  8
0
 10
1661.862339164998
 20
-806.5260441787688
 30
0.0
  0
VERTEX
  5
3A1
  8
0
 10
1662.926948232179
 20
-810.1974619033001
 30
0.0
  0
VERTEX
  5
3A2
  8
0
 10
1664.655779534428
 20
-813.6752589318824
 30
0.0
  0
VERTEX
  5
3A3
  8
0
 10
1666.982395054911
 20
-816.8257854762309
 30
0.0
  0
VERTEX
  5
3A4
  8
0
 10
1669.817384264729
 20
-819.5279685691261
 30
0.0
  0
VERTEX
  5
3A5
  8
0
 10
1673.051800119367
 20
-821.6779648306052
 30
0.0
  0
VERTEX
  5
3A6
  8
0
 10
1676.561345832486
 20
-823.193151110784
 30
0.0
  0
VERTEX
  5
3A7
  8
0
 10
1680.211151531669
 20
-824.0152996511434
 30
0.0
  0
SEQEND
  5
3D4
  8
0
  0
POLYLINE
  5
1D9
  8
0
 66
     1
 10
0.0
 20
0.0
 30
0.0
  0
VERTEX
  5
3A8
  8
0
 10
1813.42868455
 20
-819.13275937
 30
0.0
  0
VERTEX
  5
3A9
  8
0
 10
1813.251524632195
 20
-818.5488156071311
 30
0.0
  0
VERTEX
  5
3AA
  8
0
 10
1812.727218738544
 20
-817.988517885184
 30
0.0
  0
VERTEX
  5
3AB
  8
0
 10
1811.876997952254
 20
-817.4745547294997
 30
0.0
  0
VERTEX
  5
3AC
  8
0
 10
1810.735290854951
 20
-817.0277384076018
 30
0.0
  0
VERTEX
  5
3AD
  8
0
 10
1809.348329386182
 20
-816.6661621635731
 30
0.0
  0
VERTEX
  5
3AE
  8
0
 10
1807.772276741331
 20
-816.4044675557386
 30
0.0
  0
SEQEND
  5
3D5
  8
0
  0
POLYLINE
  5
1DA
  8
0
 66
     1
 10
0.0
 20
0.0
 30
0.0
  0
VERTEX
  5
3AF
  8
0
 10
1801.585092411136
 20
-821.8610511908716
 30
0.0
  0
VERTEX
  5
3B0
  8
0
 10
1803.214288981859
 20
-822.0082891594794
 30
0.0
  0
VERTEX
  5
3B1
  8
0
 10
1804.8979853137
 20
-822.0485098098002
 30
0.0
  0
VERTEX
  5
3B2
  8
0
 10
1806.573520026171
 20
-821.9802162677091
 30
0.0
  0
VERTEX
  5
3B3
  8
0
 10
1808.178535486156
 20
-821.8059501837076
 30
0.0
  0
VERTEX
  5
3B4
  8
0
 10
1809.653298544319
 20
-821.5321971414423
 30
0.0
  0
VERTEX
  5
3B5
  8
0
 10
1810.942923597258
 20
-821.1691452866119
 30
0.0
  0
VERTEX
  5
3B6
  8
0
 10
1811.999415240695
 20
-820.7303061592619
 30
0.0
  0
VERTEX
  5
3B7
  8
0
 10
1812.783454493172
 20
-820.232011840785
 30
0.0
  0
VERTEX
  5
3B8
  8
0
 10
1813.265862113168
 20
-819.6928071300827
 30
0.0
  0
VERTEX
  5
3B9
  8
0
 10
1813.42868455
 20
-819.13275937
 30
0.0
  0
SEQEND
  5
3D6
  8
0
  0
POLYLINE
  5
1DB
  8
0
 66
     1
 10
0.0
 20
0.0
 30
0.0
  0
VERTEX
  5
1DC
  8
0
 10
1801.58509239
 20
-821.86105121
 30
0.0
  0
VERTEX
  5
1DD
  8
0
 10
1747.79876745
 20
-815.08461123
 30
0.0
  0
SEQEND
  5
1DE
  8
0
  0
POLYLINE
  5
1DF
  8
0
 66
     1
 10
0.0
 20
0.0
 30
0.0
  0
VERTEX
  5
3BA
  8
0
 10
1742.14235962
 20
-812.3563193695297
 30
0.0
  0
VERTEX
  5
3BB
  8
0
 10
1742.319519534436
 20
-812.9402631373733
 30
0.0
  0
VERTEX
  5
3BC
  8
0
 10
1742.843825430576
 20
-813.5005608641279
 30
0.0
  0
VERTEX
  5
3BD
  8
0
 10
1743.694046224761
 20
-814.0145240238841
 30
0.0
  0
VERTEX
  5
3BE
  8
0
 10
1744.835753334479
 20
-814.46134034861
 30
0.0
  0
VERTEX
  5
3BF
  8
0
 10
1746.222714818919
 20
-814.8229165938105
 30
0.0
  0
VERTEX
  5
3C0
  8
0
 10
1747.798767481136
 20
-815.0846112008716
 30
0.0
  0
SEQEND
  5
3D7
  8
0
  0
POLYLINE
  5
1E0
  8
0
 66
     1
 10
0.0
 20
0.0
 30
0.0
  0
VERTEX
  5
3C1
  8
0
 10
1753.985951811331
 20
-809.6280275657385
 30
0.0
  0
VERTEX
  5
3C2
  8
0
 10
1752.356755241006
 20
-809.480789593512
 30
0.0
  0
VERTEX
  5
3C3
  8
0
 10
1750.673058907437
 20
-809.4405689397724
 30
0.0
  0
VERTEX
  5
3C4
  8
0
 10
1748.997524191359
 20
-809.5088624787765
 30
0.0
  0
VERTEX
  5
3C5
  8
0
 10
1747.392508726204
 20
-809.6831285601302
 30
0.0
  0
VERTEX
  5
3C6
  8
0
 10
1745.917745661673
 20
-809.9568816002667
 30
0.0
  0
VERTEX
  5
3C7
  8
0
 10
1744.628120601565
 20
-810.3199334535367
 30
0.0
  0
VERTEX
  5
3C8
  8
0
 10
1743.571628950565
 20
-810.7587725799133
 30
0.0
  0
VERTEX
  5
3C9
  8
0
 10
1742.787589690526
 20
-811.2570668979928
 30
0.0
  0
VERTEX
  5
3CA
  8
0
 10
1742.305182063337
 20
-811.7962716088346
 30
0.0
  0
VERTEX
  5
3CB
  8
0
 10
1742.14235962
 20
-812.3563193695297
 30
0.0
  0
SEQEND
  5
3D8
  8
0
  0
LINE
  5
1E1
  8
0
 10
1753.98595179
 20
-809.62802754
 30
0.0
 11
1807.77227672
 21
-816.40446752
 31
0.0
  0
LINE
  5
1E2
  8
0
 10
1836.89305463
 20
-834.32727358
 30
0.0
 11
1680.21115156
 21
-814.58720928
 31
0.0
  0
LINE
  5
1E3
  8
0
 10
1702.30823847
 20
-795.09941039
 30
0.0
 11
1680.21115156
 21
-814.58720928
 31
0.0
  0
POLYLINE
  5
1E4
  8
0
 66
     1
 10
0.0
 20
0.0
 30
0.0
  0
VERTEX
  5
1E5
  8
0
 10
1702.30823847
 20
-795.09941039
 30
0.0
  0
VERTEX
  5
1E6
  8
0
 10
1858.99014155
 20
-814.8394747
 30
0.0
  0
VERTEX
  5
1E7
  8
0
 10
1836.89305463
 20
-834.32727358
 30
0.0
  0
VERTEX
  5
1E8
  8
0
 10
1836.89305463
 20
-843.755364
 30
0.0
  0
VERTEX
  5
1E9
  8
0
 10
1680.21115156
 20
-824.01529969
 30
0.0
  0
SEQEND
  5
1EA
  8
0
  0
LINE
  5
1EB
  8
0
 10
1680.21115156
 20
-814.58720928
 30
0.0
 11
1680.21115156
 21
-824.01529969
 31
0.0
  0
LINE
  5
1EC
  8
0
 10
1858.99014155
 20
-824.26756511
 30
0.0
 11
1836.89305463
 21
-843.755364
 31
0.0
  0
LINE
  5
1ED
  8
0
 10
1858.99014155
 20
-814.8394747
 30
0.0
 11
1858.99014155
 21
-824.26756511
 31
0.0
  0
LINE
  5
1EE
  8
0
  6
STRICHPUNKT2
 62
     1
 10
1804.67868455
 20
-815.00796981
 30
0.0
 11
1804.67868455
 21
-822.04942604
 31
0.0
  0
LINE
  5
1EF
  8
0
  6
STRICHPUNKT2
 62
     1
 10
1750.89235962
 20
-808.23152983
 30
0.0
 11
1750.89235962
 21
-815.4743672
 31
0.0
  0
LINE
  5
1F0
  8
0
  6
STRICHPUNKT2
 62
     1
 10
1816.95599786
 20
-820.67955545
 30
0.0
 11
1738.61504632
 21
-810.8095233
 31
0.0
  0
LINE
  5
1F1
  8
0
  6
STRICHPUNKT2
 62
     1
 10
1809.31907281
 20
-815.0403216
 30
0.0
 11
1800.0382963
 21
-823.22519714
 31
0.0
  0
LINE
  5
1F2
  8
0
  6
STRICHPUNKT2
 62
     1
 10
1755.53274787
 20
-808.26388162
 30
0.0
 11
1746.25197137
 21
-816.44875715
 31
0.0
  0
POLYLINE
  5
1F3
  8
0
 66
     1
 10
0.0
 20
0.0
 30
0.0
  0
VERTEX
  5
1F4
  8
0
 10
1845.08681128
 20
-668.19406786
 30
0.0
  0
VERTEX
  5
1F5
  8
0
 10
1845.08681128
 20
-613.19406786
 30
0.0
  0
VERTEX
  5
1F6
  8
0
 10
1835.08681128
 20
-613.19406786
 30
0.0
  0
SEQEND
  5
1F7
  8
0
  0
LINE
  5
1F8
  8
0
 10
1835.08681128
 20
-668.19406786
 30
0.0
 11
1835.08681128
 21
-613.19406786
 31
0.0
  0
LINE
  5
1F9
  8
0
 10
1845.08681128
 20
-668.19406786
 30
0.0
 11
1835.08681128
 21
-668.19406786
 31
0.0
  0
LINE
  5
1FA
  8
0
  6
STRICHPUNKT2
 62
     1
 10
1845.08681128
 20
-628.19406786
 30
0.0
 11
1847.58681128
 21
-628.19406786
 31
0.0
  0
LINE
  5
1FB
  8
0
  6
STRICHPUNKT2
 62
     1
 10
1832.58681128
 20
-628.19406786
 30
0.0
 11
1835.08681128
 21
-628.19406786
 31
0.0
  0
LINE
  5
1FC
  8
0
  6
STRICHPUNKT2
 62
     1
 10
1845.08681128
 20
-660.69406786
 30
0.0
 11
1847.58681128
 21
-660.69406786
 31
0.0
  0
LINE
  5
1FD
  8
0
  6
STRICHPUNKT2
 62
     1
 10
1832.58681128
 20
-660.69406786
 30
0.0
 11
1835.08681128
 21
-660.69406786
 31
0.0
  0
LINE
  5
1FE
  8
0
  6
STRICHPUNKT2
 62
     1
 10
1845.08681128
 20
-644.44406786
 30
0.0
 11
1848.52431128
 21
-644.44406786
 31
0.0
  0
LINE
  5
1FF
  8
0
  6
STRICHPUNKT2
 62
     1
 10
1831.64931128
 20
-644.44406786
 30
0.0
 11
1835.08681128
 21
-644.44406786
 31
0.0
  0
POLYLINE
  5
200
  8
0
 66
     1
 10
0.0
 20
0.0
 30
0.0
  0
VERTEX
  5
201
  8
0
 10
1855.08681128
 20
-678.19406786
 30
0.0
 42
-0.414213562
  0
VERTEX
  5
202
  8
0
 10
1845.08681128
 20
-668.19406786
 30
0.0
  0
VERTEX
  5
203
  8
0
 10
1835.08681128
 20
-668.19406786
 30
0.0
  0
SEQEND
  5
204
  8
0
  0
ARC
  5
205
  8
0
 10
1855.08681128
 20
-668.19406786
 30
0.0
 40
20.0
 50
180.0
 51
-90.0
  0
LINE
  5
206
  8
0
 10
1855.08681128
 20
-678.19406786
 30
0.0
 11
1855.08681128
 21
-688.19406786
 31
0.0
  0
POLYLINE
  5
207
  8
0
 66
     1
 10
0.0
 20
0.0
 30
0.0
  0
VERTEX
  5
208
  8
0
 10
2022.58681128
 20
-678.19406786
 30
0.0
  0
VERTEX
  5
209
  8
0
 10
1855.08681128
 20
-678.19406786
 30
0.0
  0
VERTEX
  5
20A
  8
0
 10
1855.08681128
 20
-688.19406786
 30
0.0
  0
SEQEND
  5
20B
  8
0
  0
LINE
  5
20C
  8
0
 10
2022.58681128
 20
-688.19406786
 30
0.0
 11
1855.08681128
 21
-688.19406786
 31
0.0
  0
LINE
  5
20D
  8
0
 10
2022.58681128
 20
-678.19406786
 30
0.0
 11
2022.58681128
 21
-688.19406786
 31
0.0
  0
LINE
  5
20E
  8
0
  6
STRICHPUNKT2
 62
     1
 10
1976.33681128
 20
-688.19406786
 30
0.0
 11
1976.33681128
 21
-692.56906786
 31
0.0
  0
LINE
  5
20F
  8
0
  6
STRICHPUNKT2
 62
     1
 10
1976.33681128
 20
-673.81906786
 30
0.0
 11
1976.33681128
 21
-678.19406786
 31
0.0
  0
LINE
  5
210
  8
0
  6
STRICHPUNKT2
 62
     1
 10
1918.83681128
 20
-688.19406786
 30
0.0
 11
1918.83681128
 21
-692.56906786
 31
0.0
  0
LINE
  5
211
  8
0
  6
STRICHPUNKT2
 62
     1
 10
1918.83681128
 20
-673.81906786
 30
0.0
 11
1918.83681128
 21
-678.19406786
 31
0.0
  0
CIRCLE
  5
212
  8
0
 10
1739.88855091
 20
-660.69406786
 30
0.0
 40
5.0
  0
CIRCLE
  5
213
  8
0
 10
1756.13855091
 20
-644.44406786
 30
0.0
 40
6.875
  0
CIRCLE
  5
214
  8
0
 10
1772.38855091
 20
-628.19406786
 30
0.0
 40
5.0
  0
LINE
  5
215
  8
0
 10
1724.88855091
 20
-613.19406786
 30
0.0
 11
1787.38855091
 21
-613.19406786
 31
0.0
  0
LINE
  5
216
  8
0
 10
1787.38855091
 20
-668.19406786
 30
0.0
 11
1787.38855091
 21
-613.19406786
 31
0.0
  0
LINE
  5
217
  8
0
 10
1724.88855091
 20
-668.19406786
 30
0.0
 11
1787.38855091
 21
-668.19406786
 31
0.0
  0
LINE
  5
218
  8
0
 10
1724.88855091
 20
-613.19406786
 30
0.0
 11
1724.88855091
 21
-668.19406786
 31
0.0
  0
LINE
  5
219
  8
0
  6
STRICHPUNKT2
 62
     1
 10
1772.38855091
 20
-628.19406786
 30
0.0
 11
1764.88855091
 21
-628.19406786
 31
0.0
  0
LINE
  5
21A
  8
0
  6
STRICHPUNKT2
 62
     1
 10
1772.38855091
 20
-628.19406786
 30
0.0
 11
1779.88855091
 21
-628.19406786
 31
0.0
  0
LINE
  5
21B
  8
0
  6
STRICHPUNKT2
 62
     1
 10
1772.38855091
 20
-628.19406786
 30
0.0
 11
1772.38855091
 21
-635.69406786
 31
0.0
  0
LINE
  5
21C
  8
0
  6
STRICHPUNKT2
 62
     1
 10
1772.38855091
 20
-628.19406786
 30
0.0
 11
1772.38855091
 21
-620.69406786
 31
0.0
  0
LINE
  5
21D
  8
0
  6
STRICHPUNKT2
 62
     1
 10
1756.13855091
 20
-644.44406786
 30
0.0
 11
1745.82605091
 21
-644.44406786
 31
0.0
  0
LINE
  5
21E
  8
0
  6
STRICHPUNKT2
 62
     1
 10
1756.13855091
 20
-644.44406786
 30
0.0
 11
1766.45105091
 21
-644.44406786
 31
0.0
  0
LINE
  5
21F
  8
0
  6
STRICHPUNKT2
 62
     1
 10
1756.13855091
 20
-644.44406786
 30
0.0
 11
1756.13855091
 21
-654.75656786
 31
0.0
  0
LINE
  5
220
  8
0
  6
STRICHPUNKT2
 62
     1
 10
1756.13855091
 20
-644.44406786
 30
0.0
 11
1756.13855091
 21
-634.13156786
 31
0.0
  0
LINE
  5
221
  8
0
  6
STRICHPUNKT2
 62
     1
 10
1739.88855091
 20
-660.69406786
 30
0.0
 11
1732.38855091
 21
-660.69406786
 31
0.0
  0
LINE
  5
222
  8
0
  6
STRICHPUNKT2
 62
     1
 10
1739.88855091
 20
-660.69406786
 30
0.0
 11
1747.38855091
 21
-660.69406786
 31
0.0
  0
LINE
  5
223
  8
0
  6
STRICHPUNKT2
 62
     1
 10
1739.88855091
 20
-660.69406786
 30
0.0
 11
1739.88855091
 21
-668.19406786
 31
0.0
  0
LINE
  5
224
  8
0
  6
STRICHPUNKT2
 62
     1
 10
1739.88855091
 20
-660.69406786
 30
0.0
 11
1739.88855091
 21
-653.19406786
 31
0.0
  0
LINE
  5
225
  8
0
 10
1724.88855091
 20
-668.19406786
 30
0.0
 11
1787.38855091
 21
-668.19406786
 31
0.0
  0
LINE
  5
226
  8
0
 10
1787.38855091
 20
-688.19406786
 30
0.0
 11
1787.38855091
 21
-668.19406786
 31
0.0
  0
LINE
  5
227
  8
0
 10
1724.88855091
 20
-688.19406786
 30
0.0
 11
1787.38855091
 21
-688.19406786
 31
0.0
  0
LINE
  5
228
  8
0
 10
1724.88855091
 20
-668.19406786
 30
0.0
 11
1724.88855091
 21
-688.19406786
 31
0.0
  0
LINE
  5
229
  8
0
 10
1724.88855091
 20
-688.19406786
 30
0.0
 11
1787.38855091
 21
-688.19406786
 31
0.0
  0
LINE
  5
22A
  8
0
  6
STRICHPUNKT2
 62
     1
 10
1756.13855091
 20
-688.19406786
 30
0.0
 11
1756.13855091
 21
-692.56906786
 31
0.0
  0
POLYLINE
  5
22B
  8
0
 66
     1
 10
0.0
 20
0.0
 30
0.0
  0
VERTEX
  5
22C
  8
0
 10
1845.08681128
 20
-731.45980008
 30
0.0
  0
VERTEX
  5
22D
  8
0
 10
1845.08681128
 20
-793.95980008
 30
0.0
  0
VERTEX
  5
22E
  8
0
 10
1835.08681128
 20
-793.95980008
 30
0.0
  0
SEQEND
  5
22F
  8
0
  0
LINE
  5
230
  8
0
 10
1835.08681128
 20
-731.45980008
 30
0.0
 11
1835.08681128
 21
-793.95980008
 31
0.0
  0
LINE
  5
231
  8
0
 10
1845.08681128
 20
-731.45980008
 30
0.0
 11
1835.08681128
 21
-731.45980008
 31
0.0
  0
LINE
  5
232
  8
0
  6
STRICHPUNKT2
 62
     1
 10
1845.08681128
 20
-778.95980008
 30
0.0
 11
1847.58681128
 21
-778.95980008
 31
0.0
  0
LINE
  5
233
  8
0
  6
STRICHPUNKT2
 62
     1
 10
1832.58681128
 20
-778.95980008
 30
0.0
 11
1835.08681128
 21
-778.95980008
 31
0.0
  0
LINE
  5
234
  8
0
  6
STRICHPUNKT2
 62
     1
 10
1845.08681128
 20
-746.45980008
 30
0.0
 11
1847.58681128
 21
-746.45980008
 31
0.0
  0
LINE
  5
235
  8
0
  6
STRICHPUNKT2
 62
     1
 10
1832.58681128
 20
-746.45980008
 30
0.0
 11
1835.08681128
 21
-746.45980008
 31
0.0
  0
LINE
  5
236
  8
0
  6
STRICHPUNKT2
 62
     1
 10
1845.08681128
 20
-762.70980008
 30
0.0
 11
1848.52431128
 21
-762.70980008
 31
0.0
  0
LINE
  5
237
  8
0
  6
STRICHPUNKT2
 62
     1
 10
1831.64931128
 20
-762.70980008
 30
0.0
 11
1835.08681128
 21
-762.70980008
 31
0.0
  0
POLYLINE
  5
238
  8
0
 66
     1
 10
0.0
 20
0.0
 30
0.0
  0
VERTEX
  5
239
  8
0
 10
1845.08681128
 20
-731.45980008
 30
0.0
  0
VERTEX
  5
23A
  8
0
 10
1855.08681128
 20
-731.45980008
 30
0.0
  0
VERTEX
  5
23B
  8
0
 10
1855.08681128
 20
-793.95980008
 30
0.0
  0
VERTEX
  5
23C
  8
0
 10
1845.08681128
 20
-793.95980008
 30
0.0
  0
SEQEND
  5
23D
  8
0
  0
POLYLINE
  5
23E
  8
0
 66
     1
 10
0.0
 20
0.0
 30
0.0
 70
     1
  0
VERTEX
  5
23F
  8
0
 10
1976.33681128
 20
-753.95980008
 30
0.0
 42
-1.0
  0
VERTEX
  5
240
  8
0
 10
1976.33681128
 20
-771.45980008
 30
0.0
  0
VERTEX
  5
241
  8
0
 10
1918.83681128
 20
-771.45980008
 30
0.0
 42
-1.0
  0
VERTEX
  5
242
  8
0
 10
1918.83681128
 20
-753.95980008
 30
0.0
  0
SEQEND
  5
243
  8
0
  0
LINE
  5
244
  8
0
 10
2022.58681128
 20
-793.95980008
 30
0.0
 11
1855.08681128
 21
-793.95980008
 31
0.0
  0
LINE
  5
245
  8
0
 10
1855.08681128
 20
-731.45980008
 30
0.0
 11
1855.08681128
 21
-793.95980008
 31
0.0
  0
POLYLINE
  5
246
  8
0
 66
     1
 10
0.0
 20
0.0
 30
0.0
  0
VERTEX
  5
247
  8
0
 10
1855.08681128
 20
-731.45980008
 30
0.0
  0
VERTEX
  5
248
  8
0
 10
2022.58681128
 20
-731.45980008
 30
0.0
  0
VERTEX
  5
249
  8
0
 10
2022.58681128
 20
-793.95980008
 30
0.0
  0
SEQEND
  5
24A
  8
0
  0
LINE
  5
24B
  8
0
  6
STRICHPUNKT2
 62
     1
 10
1989.46181128
 20
-762.70980008
 30
0.0
 11
1905.71181128
 21
-762.70980008
 31
0.0
  0
LINE
  5
24C
  8
0
  6
STRICHPUNKT2
 62
     1
 10
1976.33681128
 20
-749.58480008
 30
0.0
 11
1976.33681128
 21
-775.83480008
 31
0.0
  0
LINE
  5
24D
  8
0
  6
STRICHPUNKT2
 62
     1
 10
1918.83681128
 20
-749.58480008
 30
0.0
 11
1918.83681128
 21
-775.83480008
 31
0.0
  0
TEXT
  5
24E
  8
TXT_DIM49
 10
1817.69383489
 20
-655.33134404
 30
0.0
 40
6.25
  1
60
 50
90.00020741
  7
ARIAL
  0
LINE
  5
24F
  8
0
 62
     4
 10
1823.94383489
 20
-615.69406786
 30
0.0
 11
1818.94383489
 21
-610.69406786
 31
0.0
  0
LINE
  5
250
  8
0
 62
     4
 10
1819.56883489
 20
-686.31906786
 30
0.0
 11
1823.31883489
 21
-690.06906786
 31
0.0
  0
LINE
  5
251
  8
0
 62
     4
 10
1821.44383489
 20
-613.19406786
 30
0.0
 11
1821.44383489
 21
-688.19406786
 31
0.0
  0
LINE
  5
252
  8
0
 62
     4
 10
1826.44383489
 20
-613.19406786
 30
0.0
 11
1816.44383489
 21
-613.19406786
 31
0.0
  0
LINE
  5
253
  8
0
 62
     4
 10
1826.44383489
 20
-688.19406786
 30
0.0
 11
1816.44383489
 21
-688.19406786
 31
0.0
  0
TEXT
  5
254
  8
TXT_DIM49
 10
1921.88089678
 20
-699.12193493
 30
0.0
 40
6.25
  1
150
  7
ARIAL
  0
LINE
  5
255
  8
0
 62
     4
 10
1837.58681128
 20
-700.37193493
 30
0.0
 11
1832.58681128
 21
-705.37193493
 31
0.0
  0
LINE
  5
256
  8
0
 62
     4
 10
2020.71181128
 20
-704.74693493
 30
0.0
 11
2024.46181128
 21
-700.99693493
 31
0.0
  0
LINE
  5
257
  8
0
 62
     4
 10
1835.08681128
 20
-702.87193493
 30
0.0
 11
2022.58681128
 21
-702.87193493
 31
0.0
  0
LINE
  5
258
  8
0
 62
     4
 10
1835.08681128
 20
-697.87193493
 30
0.0
 11
1835.08681128
 21
-707.87193493
 31
0.0
  0
LINE
  5
259
  8
0
 62
     4
 10
2022.58681128
 20
-697.87193493
 30
0.0
 11
2022.58681128
 21
-707.87193493
 31
0.0
  0
TEXT
  5
25A
  8
TXT_DIM49
 10
2032.61312597
 20
-685.51261797
 30
0.0
 40
6.25
  1
8
 50
90.00020741
  7
ARIAL
  0
LINE
  5
25B
  8
0
 62
     4
 10
2038.86312597
 20
-680.69406786
 30
0.0
 11
2033.86312597
 21
-675.69406786
 31
0.0
  0
LINE
  5
25C
  8
0
 62
     4
 10
2034.48812597
 20
-686.31906786
 30
0.0
 11
2038.23812597
 21
-690.06906786
 31
0.0
  0
LINE
  5
25D
  8
0
 62
     4
 10
2036.36312597
 20
-678.19406786
 30
0.0
 11
2036.36312597
 21
-688.19406786
 31
0.0
  0
LINE
  5
25E
  8
0
 62
     4
 10
2031.36312597
 20
-678.19406786
 30
0.0
 11
2041.36312597
 21
-678.19406786
 31
0.0
  0
LINE
  5
25F
  8
0
 62
     4
 10
2031.36312597
 20
-688.19406786
 30
0.0
 11
2041.36312597
 21
-688.19406786
 31
0.0
  0
TEXT
  5
260
  8
TXT_DIM49
 10
1837.76826117
 20
-600.48735039
 30
0.0
 40
6.25
  1
8
  7
ARIAL
  0
LINE
  5
261
  8
0
 62
     4
 10
1837.58681128
 20
-601.73735039
 30
0.0
 11
1832.58681128
 21
-606.73735039
 31
0.0
  0
LINE
  5
262
  8
0
 62
     4
 10
1843.21181128
 20
-606.11235039
 30
0.0
 11
1846.96181128
 21
-602.36235039
 31
0.0
  0
LINE
  5
263
  8
0
 62
     4
 10
1835.08681128
 20
-604.23735039
 30
0.0
 11
1845.08681128
 21
-604.23735039
 31
0.0
  0
LINE
  5
264
  8
0
 62
     4
 10
1835.08681128
 20
-609.23735039
 30
0.0
 11
1835.08681128
 21
-599.23735039
 31
0.0
  0
LINE
  5
265
  8
0
 62
     4
 10
1845.08681128
 20
-609.23735039
 30
0.0
 11
1845.08681128
 21
-599.23735039
 31
0.0
  0
LINE
  5
266
  8
0
 62
     5
 10
1767.38855091
 20
-628.19406786
 30
0.0
 11
1713.68119184
 21
-617.5204766
 31
0.0
  0
TEXT
  5
267
  8
TXT_DIM49
 10
1702.58305786
 20
-620.6454766
 30
0.0
 40
6.25
  1
Ø8
  7
ARIAL
  0
LINE
  5
268
  8
0
 62
     5
 10
1749.26355091
 20
-644.44406786
 30
0.0
 11
1717.84212305
 21
-636.00018148
 31
0.0
  0
TEXT
  5
269
  8
TXT_DIM49
 10
1702.13301877
 20
-639.12518148
 30
0.0
 40
6.25
  1
Ø11
  7
ARIAL
  0
LINE
  5
26A
  8
0
 62
     5
 10
1734.88855091
 20
-660.69406786
 30
0.0
 11
1713.82320164
 21
-657.64756684
 31
0.0
  0
TEXT
  5
26B
  8
TXT_DIM49
 10
1702.72506765
 20
-660.77256684
 30
0.0
 40
6.25
  1
Ø8
  7
ARIAL
  0
TEXT
  5
26C
  8
TXT_DIM49
 10
1775.25127473
 20
-602.6483007
 30
0.0
 40
6.25
  1
12
  7
ARIAL
  0
LINE
  5
26D
  8
0
 62
     4
 10
1784.88855091
 20
-608.8983007
 30
0.0
 11
1789.88855091
 21
-603.8983007
 31
0.0
  0
LINE
  5
26E
  8
0
 62
     4
 10
1774.26355091
 20
-604.5233007
 30
0.0
 11
1770.51355091
 21
-608.2733007
 31
0.0
  0
LINE
  5
26F
  8
0
 62
     4
 10
1787.38855091
 20
-606.3983007
 30
0.0
 11
1772.38855091
 21
-606.3983007
 31
0.0
  0
LINE
  5
270
  8
0
 62
     4
 10
1787.38855091
 20
-611.3983007
 30
0.0
 11
1787.38855091
 21
-601.3983007
 31
0.0
  0
LINE
  5
271
  8
0
 62
     4
 10
1772.38855091
 20
-611.3983007
 30
0.0
 11
1772.38855091
 21
-601.3983007
 31
0.0
  0
TEXT
  5
272
  8
TXT_DIM49
 10
1759.62627473
 20
-602.6483007
 30
0.0
 40
6.25
  1
13
  7
ARIAL
  0
LINE
  5
273
  8
0
 62
     4
 10
1769.88855091
 20
-608.8983007
 30
0.0
 11
1774.88855091
 21
-603.8983007
 31
0.0
  0
LINE
  5
274
  8
0
 62
     4
 10
1758.01355091
 20
-604.5233007
 30
0.0
 11
1754.26355091
 21
-608.2733007
 31
0.0
  0
LINE
  5
275
  8
0
 62
     4
 10
1772.38855091
 20
-606.3983007
 30
0.0
 11
1756.13855091
 21
-606.3983007
 31
0.0
  0
LINE
  5
276
  8
0
 62
     4
 10
1772.38855091
 20
-611.3983007
 30
0.0
 11
1772.38855091
 21
-601.3983007
 31
0.0
  0
LINE
  5
277
  8
0
 62
     4
 10
1756.13855091
 20
-611.3983007
 30
0.0
 11
1756.13855091
 21
-601.3983007
 31
0.0
  0
TEXT
  5
278
  8
TXT_DIM49
 10
1743.37627473
 20
-602.6483007
 30
0.0
 40
6.25
  1
13
  7
ARIAL
  0
LINE
  5
279
  8
0
 62
     4
 10
1753.63855091
 20
-608.8983007
 30
0.0
 11
1758.63855091
 21
-603.8983007
 31
0.0
  0
LINE
  5
27A
  8
0
 62
     4
 10
1741.76355091
 20
-604.5233007
 30
0.0
 11
1738.01355091
 21
-608.2733007
 31
0.0
  0
LINE
  5
27B
  8
0
 62
     4
 10
1756.13855091
 20
-606.3983007
 30
0.0
 11
1739.88855091
 21
-606.3983007
 31
0.0
  0
LINE
  5
27C
  8
0
 62
     4
 10
1756.13855091
 20
-611.3983007
 30
0.0
 11
1756.13855091
 21
-601.3983007
 31
0.0
  0
LINE
  5
27D
  8
0
 62
     4
 10
1739.88855091
 20
-611.3983007
 30
0.0
 11
1739.88855091
 21
-601.3983007
 31
0.0
  0
TEXT
  5
27E
  8
TXT_DIM49
 10
1727.75127473
 20
-602.6483007
 30
0.0
 40
6.25
  1
12
  7
ARIAL
  0
LINE
  5
27F
  8
0
 62
     4
 10
1737.38855091
 20
-608.8983007
 30
0.0
 11
1742.38855091
 21
-603.8983007
 31
0.0
  0
LINE
  5
280
  8
0
 62
     4
 10
1726.76355091
 20
-604.5233007
 30
0.0
 11
1723.01355091
 21
-608.2733007
 31
0.0
  0
LINE
  5
281
  8
0
 62
     4
 10
1739.88855091
 20
-606.3983007
 30
0.0
 11
1724.88855091
 21
-606.3983007
 31
0.0
  0
LINE
  5
282
  8
0
 62
     4
 10
1739.88855091
 20
-611.3983007
 30
0.0
 11
1739.88855091
 21
-601.3983007
 31
0.0
  0
LINE
  5
283
  8
0
 62
     4
 10
1724.88855091
 20
-611.3983007
 30
0.0
 11
1724.88855091
 21
-601.3983007
 31
0.0
  0
TEXT
  5
284
  8
TXT_DIM49
 10
1796.93662483
 20
-625.33134404
 30
0.0
 40
6.25
  1
12
 50
90.00020741
  7
ARIAL
  0
LINE
  5
285
  8
0
 62
     4
 10
1803.18662483
 20
-615.69406786
 30
0.0
 11
1798.18662483
 21
-610.69406786
 31
0.0
  0
LINE
  5
286
  8
0
 62
     4
 10
1798.81162483
 20
-626.31906786
 30
0.0
 11
1802.56162483
 21
-630.06906786
 31
0.0
  0
LINE
  5
287
  8
0
 62
     4
 10
1800.68662483
 20
-613.19406786
 30
0.0
 11
1800.68662483
 21
-628.19406786
 31
0.0
  0
LINE
  5
288
  8
0
 62
     4
 10
1795.68662483
 20
-613.19406786
 30
0.0
 11
1805.68662483
 21
-613.19406786
 31
0.0
  0
LINE
  5
289
  8
0
 62
     4
 10
1795.68662483
 20
-628.19406786
 30
0.0
 11
1805.68662483
 21
-628.19406786
 31
0.0
  0
TEXT
  5
28A
  8
TXT_DIM49
 10
1796.93662483
 20
-640.95634404
 30
0.0
 40
6.25
  1
13
 50
90.00020741
  7
ARIAL
  0
LINE
  5
28B
  8
0
 62
     4
 10
1803.18662483
 20
-630.69406786
 30
0.0
 11
1798.18662483
 21
-625.69406786
 31
0.0
  0
LINE
  5
28C
  8
0
 62
     4
 10
1798.81162483
 20
-642.56906786
 30
0.0
 11
1802.56162483
 21
-646.31906786
 31
0.0
  0
LINE
  5
28D
  8
0
 62
     4
 10
1800.68662483
 20
-628.19406786
 30
0.0
 11
1800.68662483
 21
-644.44406786
 31
0.0
  0
LINE
  5
28E
  8
0
 62
     4
 10
1795.68662483
 20
-628.19406786
 30
0.0
 11
1805.68662483
 21
-628.19406786
 31
0.0
  0
LINE
  5
28F
  8
0
 62
     4
 10
1795.68662483
 20
-644.44406786
 30
0.0
 11
1805.68662483
 21
-644.44406786
 31
0.0
  0
TEXT
  5
290
  8
TXT_DIM49
 10
1796.93662483
 20
-657.20634404
 30
0.0
 40
6.25
  1
13
 50
90.00020741
  7
ARIAL
  0
LINE
  5
291
  8
0
 62
     4
 10
1803.18662483
 20
-646.94406786
 30
0.0
 11
1798.18662483
 21
-641.94406786
 31
0.0
  0
LINE
  5
292
  8
0
 62
     4
 10
1798.81162483
 20
-658.81906786
 30
0.0
 11
1802.56162483
 21
-662.56906786
 31
0.0
  0
LINE
  5
293
  8
0
 62
     4
 10
1800.68662483
 20
-644.44406786
 30
0.0
 11
1800.68662483
 21
-660.69406786
 31
0.0
  0
LINE
  5
294
  8
0
 62
     4
 10
1795.68662483
 20
-644.44406786
 30
0.0
 11
1805.68662483
 21
-644.44406786
 31
0.0
  0
LINE
  5
295
  8
0
 62
     4
 10
1795.68662483
 20
-660.69406786
 30
0.0
 11
1805.68662483
 21
-660.69406786
 31
0.0
  0
TEXT
  5
296
  8
TXT_DIM49
 10
1796.93662483
 20
-679.08134404
 30
0.0
 40
6.25
  1
22
 50
90.00020741
  7
ARIAL
  0
LINE
  5
297
  8
0
 62
     4
 10
1803.18662483
 20
-663.19406786
 30
0.0
 11
1798.18662483
 21
-658.19406786
 31
0.0
  0
LINE
  5
298
  8
0
 62
     4
 10
1798.81162483
 20
-686.31906786
 30
0.0
 11
1802.56162483
 21
-690.06906786
 31
0.0
  0
LINE
  5
299
  8
0
 62
     4
 10
1800.68662483
 20
-660.69406786
 30
0.0
 11
1800.68662483
 21
-688.19406786
 31
0.0
  0
LINE
  5
29A
  8
0
 62
     4
 10
1795.68662483
 20
-660.69406786
 30
0.0
 11
1805.68662483
 21
-660.69406786
 31
0.0
  0
LINE
  5
29B
  8
0
 62
     4
 10
1795.68662483
 20
-688.19406786
 30
0.0
 11
1805.68662483
 21
-688.19406786
 31
0.0
  0
TEXT
  5
29C
  8
TXT_DIM49
 10
1751.50127473
 20
-702.6483007
 30
0.0
 40
6.25
  1
50
  7
ARIAL
  0
LINE
  5
29D
  8
0
 62
     4
 10
1727.38855091
 20
-703.8983007
 30
0.0
 11
1722.38855091
 21
-708.8983007
 31
0.0
  0
LINE
  5
29E
  8
0
 62
     4
 10
1785.51355091
 20
-708.2733007
 30
0.0
 11
1789.26355091
 21
-704.5233007
 31
0.0
  0
LINE
  5
29F
  8
0
 62
     4
 10
1724.88855091
 20
-706.3983007
 30
0.0
 11
1787.38855091
 21
-706.3983007
 31
0.0
  0
LINE
  5
2A0
  8
0
 62
     4
 10
1724.88855091
 20
-701.3983007
 30
0.0
 11
1724.88855091
 21
-711.3983007
 31
0.0
  0
LINE
  5
2A1
  8
0
 62
     4
 10
1787.38855091
 20
-701.3983007
 30
0.0
 11
1787.38855091
 21
-711.3983007
 31
0.0
  0
LINE
  5
2A2
  8
0
 62
     5
 10
1947.58681128
 20
-771.45980008
 30
0.0
 11
1932.60139395
 21
-782.57991449
 31
0.0
  0
TEXT
  5
2A3
  8
TXT_DIM49
 10
1874.92282317
 20
-785.70491449
 30
0.0
 40
6.25
  1
Slobgat 14 x 60
  7
ARIAL
  0
TEXT
  5
2A4
  8
TXT_DIM49
 10
1994.8245351
 20
-719.49092155
 30
0.0
 40
6.25
  1
37
  7
ARIAL
  0
LINE
  5
2A5
  8
0
 62
     4
 10
2020.08681128
 20
-725.74092155
 30
0.0
 11
2025.08681128
 21
-720.74092155
 31
0.0
  0
LINE
  5
2A6
  8
0
 62
     4
 10
1978.21181128
 20
-721.36592155
 30
0.0
 11
1974.46181128
 21
-725.11592155
 31
0.0
  0
LINE
  5
2A7
  8
0
 62
     4
 10
2022.58681128
 20
-723.24092155
 30
0.0
 11
1976.33681128
 21
-723.24092155
 31
0.0
  0
LINE
  5
2A8
  8
0
 62
     4
 10
2022.58681128
 20
-728.24092155
 30
0.0
 11
2022.58681128
 21
-718.24092155
 31
0.0
  0
LINE
  5
2A9
  8
0
 62
     4
 10
1976.33681128
 20
-728.24092155
 30
0.0
 11
1976.33681128
 21
-718.24092155
 31
0.0
  0
TEXT
  5
2AA
  8
TXT_DIM49
 10
1942.9495351
 20
-719.49092155
 30
0.0
 40
6.25
  1
46
  7
ARIAL
  0
LINE
  5
2AB
  8
0
 62
     4
 10
1973.83681128
 20
-725.74092155
 30
0.0
 11
1978.83681128
 21
-720.74092155
 31
0.0
  0
LINE
  5
2AC
  8
0
 62
     4
 10
1920.71181128
 20
-721.36592155
 30
0.0
 11
1916.96181128
 21
-725.11592155
 31
0.0
  0
LINE
  5
2AD
  8
0
 62
     4
 10
1976.33681128
 20
-723.24092155
 30
0.0
 11
1918.83681128
 21
-723.24092155
 31
0.0
  0
LINE
  5
2AE
  8
0
 62
     4
 10
1976.33681128
 20
-728.24092155
 30
0.0
 11
1976.33681128
 21
-718.24092155
 31
0.0
  0
LINE
  5
2AF
  8
0
 62
     4
 10
1918.83681128
 20
-728.24092155
 30
0.0
 11
1918.83681128
 21
-718.24092155
 31
0.0
  0
TEXT
  5
2B0
  8
TXT_DIM49
 10
1872.3245351
 20
-719.49092155
 30
0.0
 40
6.25
  1
67
  7
ARIAL
  0
LINE
  5
2B1
  8
0
 62
     4
 10
1916.33681128
 20
-725.74092155
 30
0.0
 11
1921.33681128
 21
-720.74092155
 31
0.0
  0
LINE
  5
2B2
  8
0
 62
     4
 10
1836.96181128
 20
-721.36592155
 30
0.0
 11
1833.21181128
 21
-725.11592155
 31
0.0
  0
LINE
  5
2B3
  8
0
 62
     4
 10
1918.83681128
 20
-723.24092155
 30
0.0
 11
1835.08681128
 21
-723.24092155
 31
0.0
  0
LINE
  5
2B4
  8
0
 62
     4
 10
1918.83681128
 20
-728.24092155
 30
0.0
 11
1918.83681128
 21
-718.24092155
 31
0.0
  0
LINE
  5
2B5
  8
0
 62
     4
 10
1835.08681128
 20
-728.24092155
 30
0.0
 11
1835.08681128
 21
-718.24092155
 31
0.0
  0
TEXT
  5
2B6
  8
TXT_DIM49
 10
2030.47936439
 20
-751.72207625
 30
0.0
 40
6.25
  1
25
 50
90.00020741
  7
ARIAL
  0
LINE
  5
2B7
  8
0
 62
     4
 10
2036.72936439
 20
-733.95980008
 30
0.0
 11
2031.72936439
 21
-728.95980008
 31
0.0
  0
LINE
  5
2B8
  8
0
 62
     4
 10
2032.35436439
 20
-760.83480008
 30
0.0
 11
2036.10436439
 21
-764.58480008
 31
0.0
  0
LINE
  5
2B9
  8
0
 62
     4
 10
2034.22936439
 20
-731.45980008
 30
0.0
 11
2034.22936439
 21
-762.70980008
 31
0.0
  0
LINE
  5
2BA
  8
0
 62
     4
 10
2029.22936439
 20
-731.45980008
 30
0.0
 11
2039.22936439
 21
-731.45980008
 31
0.0
  0
LINE
  5
2BB
  8
0
 62
     4
 10
2029.22936439
 20
-762.70980008
 30
0.0
 11
2039.22936439
 21
-762.70980008
 31
0.0
  0
TEXT
  5
2BC
  8
TXT_DIM49
 10
2030.47936439
 20
-782.97207625
 30
0.0
 40
6.25
  1
25
 50
90.00020741
  7
ARIAL
  0
LINE
  5
2BD
  8
0
 62
     4
 10
2036.72936439
 20
-765.20980008
 30
0.0
 11
2031.72936439
 21
-760.20980008
 31
0.0
  0
LINE
  5
2BE
  8
0
 62
     4
 10
2032.35436439
 20
-792.08480008
 30
0.0
 11
2036.10436439
 21
-795.83480008
 31
0.0
  0
LINE
  5
2BF
  8
0
 62
     4
 10
2034.22936439
 20
-762.70980008
 30
0.0
 11
2034.22936439
 21
-793.95980008
 31
0.0
  0
LINE
  5
2C0
  8
0
 62
     4
 10
2029.22936439
 20
-762.70980008
 30
0.0
 11
2039.22936439
 21
-762.70980008
 31
0.0
  0
LINE
  5
2C1
  8
0
 62
     4
 10
2029.22936439
 20
-793.95980008
 30
0.0
 11
2039.22936439
 21
-793.95980008
 31
0.0
  0
ENDSEC
  0
EOF
