  0
SECTION
  2
HEADER
  9
$ACADVER
  1
AC1006
  9
$DWGCODEPAGE
  3
ansi_1252
  9
$INSBASE
 10
0.0
 20
0.0
 30
0.0
  9
$EXTMIN
 10
556.3829568
 20
-972.00628812
  9
$EXTMAX
 10
1452.39741132
 20
-559.18162842
  9
$LIMMIN
 10
556.3829568
 20
-972.00628812
  9
$LIMMAX
 10
1452.39741132
 20
-559.18162842
  9
$ORTHOMODE
 70
     0
  9
$REGENMODE
 70
     1
  9
$FILLMODE
 70
     1
  9
$QTEXTMODE
 70
     0
  9
$MIRRTEXT
 70
     1
  9
$DRAGMODE
 70
     2
  9
$LTSCALE
 40
1.0
  9
$OSMODE
 70
    37
  9
$ATTMODE
 70
     1
  9
$TEXTSIZE
 40
1.0
  9
$TRACEWID
 40
0.05
  9
$TEXTSTYLE
  7
STANDARD
  9
$CLAYER
  8
0
  9
$CELTYPE
  6
BYBLOCK
  9
$CECOLOR
 62
   256
  9
$DIMSCALE
 40
1.0
  9
$DIMASZ
 40
0.18
  9
$DIMEXO
 40
0.0625
  9
$DIMDLI
 40
0.38
  9
$DIMRND
 40
0.0
  9
$DIMDLE
 40
0.0
  9
$DIMEXE
 40
0.18
  9
$DIMTP
 40
0.0
  9
$DIMTM
 40
0.0
  9
$DIMTXT
 40
0.18
  9
$DIMCEN
 40
0.09
  9
$DIMTSZ
 40
0.0
  9
$DIMTOL
 70
     0
  9
$DIMLIM
 70
     0
  9
$DIMTIH
 70
     1
  9
$DIMTOH
 70
     1
  9
$DIMSE1
 70
     0
  9
$DIMSE2
 70
     0
  9
$DIMTAD
 70
     0
  9
$DIMZIN
 70
     0
  9
$DIMBLK
  1

  9
$DIMASO
 70
     1
  9
$DIMSHO
 70
     1
  9
$DIMPOST
  1

  9
$DIMAPOST
  1

  9
$DIMALT
 70
     0
  9
$DIMALTD
 70
     2
  9
$DIMALTF
 40
25.4
  9
$DIMLFAC
 40
1.0
  9
$DIMTOFL
 70
     0
  9
$DIMTVP
 40
0.0
  9
$DIMTIX
 70
     0
  9
$DIMSOXD
 70
     0
  9
$DIMSAH
 70
     0
  9
$DIMBLK1
  1

  9
$DIMBLK2
  1

  9
$LUNITS
 70
     2
  9
$LUPREC
 70
     4
  9
$SKETCHINC
 40
0.1
  9
$FILLETRAD
 40
0.5
  9
$AUNITS
 70
     0
  9
$AUPREC
 70
     0
  9
$MENU
  1
.
  9
$ELEVATION
 40
0.0
  9
$THICKNESS
 40
0.0
  9
$LIMCHECK
 70
     0
  9
$CHAMFERA
 40
0.0
  9
$CHAMFERB
 40
0.0
  9
$SKPOLY
 70
     0
  9
$TDCREATE
 40
2447893.125
  9
$TDUPDATE
 40
2460791.485993866
  9
$TDINDWG
 40
0.0
  9
$TDUSRTIMER
 40
0.0
  9
$USRTIMER
 70
     1
  9
$ANGBASE
 50
0.0
  9
$ANGDIR
 70
     0
  9
$PDMODE
 70
     0
  9
$PDSIZE
 40
0.0
  9
$PLINEWID
 40
0.0
  9
$COORDS
 70
     1
  9
$SPLFRAME
 70
     0
  9
$SPLINETYPE
 70
     6
  9
$SPLINESEGS
 70
     8
  9
$ATTDIA
 70
     0
  9
$ATTREQ
 70
     1
  9
$HANDLING
 70
     1
  9
$HANDSEED
  5
2F0
  9
$SURFTAB1
 70
     6
  9
$SURFTAB2
 70
     6
  9
$SURFTYPE
 70
     6
  9
$SURFU
 70
     6
  9
$SURFV
 70
     6
  9
$UCSNAME
  2

  9
$UCSORG
 10
0.0
 20
0.0
 30
0.0
  9
$UCSXDIR
 10
1.0
 20
0.0
 30
0.0
  9
$UCSYDIR
 10
0.0
 20
1.0
 30
0.0
  9
$USERI1
 70
     0
  9
$USERI2
 70
     0
  9
$USERI3
 70
     0
  9
$USERI4
 70
     0
  9
$USERI5
 70
     0
  9
$USERR1
 40
0.0
  9
$USERR2
 40
0.0
  9
$USERR3
 40
0.0
  9
$USERR4
 40
0.0
  9
$USERR5
 40
0.0
  9
$WORLDVIEW
 70
     1
  0
ENDSEC
  0
SECTION
  2
TABLES
  0
TABLE
  2
VPORT
 70
     1
  0
VPORT
  2
*ACTIVE
 70
     0
 10
0.0
 20
0.0
 11
1.0
 21
1.0
 12
1004.39018406
 22
-765.59395827
 13
0.0
 23
0.0
 14
1.0
 24
1.0
 15
0.0
 25
0.0
 16
0.0
 26
0.0
 36
1.0
 17
0.0
 27
0.0
 37
0.0
 40
412.824659699
 41
2.170447994
 42
50.0
 43
0.0
 44
0.0
 50
0.0
 51
0.0
 71
     0
 72
   100
 73
     1
 74
     1
 75
     0
 76
     0
 77
     0
 78
     0
  0
ENDTAB
  0
TABLE
  2
LTYPE
 70
    19
  0
LTYPE
  2
CONTINUOUS
 70
     0
  3
Solid line
 72
    65
 73
     0
 40
0.0
  0
LTYPE
  2
DOT
 70
     0
  3
..............
 72
    65
 73
     2
 40
2.0
 49
0.5
 49
-1.5
  0
LTYPE
  2
HIDDEN
 70
     0
  3
-- -- -- -- --
 72
    65
 73
     2
 40
7.0
 49
4.0
 49
-3.0
  0
LTYPE
  2
DASHDOT
 70
     0
  3
--.--.--.--.--
 72
    65
 73
     4
 40
8.5
 49
4.0
 49
-2.0
 49
0.5
 49
-2.0
  0
LTYPE
  2
STRICHPUNKT2
 70
     0
  3
--.--.--.--.--
 72
    65
 73
     4
 40
18.5
 49
10.0
 49
-4.0
 49
0.5
 49
-4.0
  0
LTYPE
  2
STRICHPUNKT3
 70
     0
  3
--.--.--.--.--
 72
    65
 73
     4
 40
35.5
 49
25.0
 49
-5.0
 49
0.5
 49
-5.0
  0
LTYPE
  2
PHANTOM
 70
     0
  3
--..--..--..--
 72
    65
 73
     6
 40
23.0
 49
10.0
 49
-4.0
 49
0.5
 49
-4.0
 49
0.5
 49
-4.0
  0
LTYPE
  2
PHANTOM2
 70
     0
  3
--..--..--..--
 72
    65
 73
     6
 40
33.0
 49
20.0
 49
-4.0
 49
0.5
 49
-4.0
 49
0.5
 49
-4.0
  0
LTYPE
  2
PHANTOM3
 70
     0
  3
--..--..--..--
 72
    65
 73
     6
 40
50.0
 49
37.0
 49
-4.0
 49
0.5
 49
-4.0
 49
0.5
 49
-4.0
  0
LTYPE
  2
STR3PKT
 70
     0
  3
--...--...--...
 72
    65
 73
     8
 40
31.5
 49
20.0
 49
-2.5
 49
0.5
 49
-2.5
 49
0.5
 49
-2.5
 49
0.5
 49
-2.5
  0
LTYPE
  2
2STRPKT
 70
     0
  3
--.--.--.--.--
 72
    65
 73
     6
 40
28.0
 49
10.0
 49
-2.5
 49
10.0
 49
-2.5
 49
0.5
 49
-2.5
  0
LTYPE
  2
GESTRICHELT2
 70
     0
  3
-- -- -- -- --
 72
    65
 73
     2
 40
25.0
 49
10.0
 49
-15.0
  0
LTYPE
  2
2STR2PKT
 70
     0
  3
--..--..--..--
 72
    65
 73
     8
 40
31.0
 49
10.0
 49
-2.5
 49
10.0
 49
-2.5
 49
0.5
 49
-2.5
 49
0.5
 49
-2.5
  0
LTYPE
  2
STR3PKT2
 70
     0
  3
--...--...--...
 72
    65
 73
     8
 40
21.0
 49
10.0
 49
-2.5
 49
0.5
 49
-2.5
 49
0.5
 49
-2.5
 49
0.5
 49
-2.0
  0
LTYPE
  2
2STR3PKT
 70
     0
  3
--...--...--...
 72
    65
 73
    10
 40
34.0
 49
10.0
 49
-2.5
 49
10.0
 49
-2.5
 49
0.5
 49
-2.5
 49
0.5
 49
-2.5
 49
0.5
 49
-2.5
  0
LTYPE
  2
STRKSTR
 70
     0
  3
-- - -- - -- -
 72
    65
 73
     4
 40
30.0
 49
20.0
 49
-2.5
 49
5.0
 49
-2.5
  0
LTYPE
  2
STRKSTR2
 70
     0
  3
-- - -- - -- -
 72
    65
 73
     6
 40
37.5
 49
20.0
 49
-2.5
 49
5.0
 49
-2.5
 49
5.0
 49
-2.5
  0
LTYPE
  2
STRKSTR3
 70
     0
  3
-- - -- - -- -
 72
    65
 73
     8
 40
45.0
 49
20.0
 49
-2.5
 49
5.0
 49
-2.5
 49
5.0
 49
-2.5
 49
5.0
 49
-2.5
  0
LTYPE
  2
PUNKT2
 70
     0
  3
..............
 72
    65
 73
     2
 40
3.5
 49
0.5
 49
-3.0
  0
ENDTAB
  0
TABLE
  2
LAYER
 70
    16
  0
LAYER
  2
0
 70
     0
 62
     7
  6
CONTINUOUS
  0
LAYER
  2
LE_GREEN
 70
     0
 62
     3
  6
CONTINUOUS
  0
LAYER
  2
LE_RED
 70
     0
 62
     1
  6
CONTINUOUS
  0
LAYER
  2
LE_ALL
 70
     0
 62
     7
  6
CONTINUOUS
  0
LAYER
  2
LE_HIDDEN1
 70
     0
 62
     3
  6
HIDDEN
  0
LAYER
  2
LE_HIDDEN
 70
     0
 62
     7
  6
CONTINUOUS
  0
LAYER
  2
LE_MIDDLE
 70
     0
 62
     7
  6
CONTINUOUS
  0
LAYER
  2
TXT_YELLOW
 70
     0
 62
     2
  6
CONTINUOUS
  0
LAYER
  2
TXT_DIM49
 70
     0
 62
     2
  6
CONTINUOUS
  0
LAYER
  2
TXT_ALL
 70
     0
 62
     7
  6
CONTINUOUS
  0
LAYER
  2
DIM49
 70
     0
 62
     4
  6
CONTINUOUS
  0
LAYER
  2
HATCH
 70
     0
 62
     3
  6
CONTINUOUS
  0
LAYER
  2
APPLE
 70
     0
 62
     7
  6
CONTINUOUS
  0
LAYER
  2
10
 70
     0
 62
     7
  6
CONTINUOUS
  0
LAYER
  2
20
 70
     0
 62
     7
  6
CONTINUOUS
  0
LAYER
  2
49
 70
     0
 62
     7
  6
CONTINUOUS
  0
ENDTAB
  0
TABLE
  2
STYLE
 70
     5
  0
STYLE
  2
MONOTXT
 70
     0
 40
0.0
 41
1.0
 50
0.0
 71
     0
 42
1.0
  3
monotxt.shx
  4

  0
STYLE
  2
STANDARD
 70
     0
 40
0.0
 41
1.0
 50
0.0
 71
     0
 42
1.0
  3
txt
  4

  0
STYLE
  2
ARIAL
 70
     0
 40
0.0
 41
1.0
 50
0.0
 71
     0
 42
1.0
  3
arial.ttf
  4

  0
STYLE
  2
ARIAL_NARROW
 70
     0
 40
0.0
 41
1.0
 50
0.0
 71
     0
 42
1.0
  3
ArialN.ttf
  4

  0
STYLE
  2
ISOCPEUR
 70
     0
 40
0.0
 41
1.0
 50
0.0
 71
     0
 42
1.0
  3
ISOCPEUR.ttf
  4

  0
ENDTAB
  0
TABLE
  2
VIEW
 70
     0
  0
ENDTAB
  0
TABLE
  2
UCS
 70
     0
  0
ENDTAB
  0
ENDSEC
  0
SECTION
  2
BLOCKS
  0
ENDSEC
  0
SECTION
  2
ENTITIES
  0
POLYLINE
  5
16D
  8
0
 66
     1
 10
0.0
 20
0.0
 30
0.0
 70
     1
  0
VERTEX
  5
16E
  8
0
 10
816.81851507
 20
-936.21935507
 30
0.0
  0
VERTEX
  5
16F
  8
0
 10
1236.81851507
 20
-936.21935507
 30
0.0
  0
VERTEX
  5
170
  8
0
 10
1236.81851507
 20
-639.21935507
 30
0.0
  0
VERTEX
  5
171
  8
0
 10
816.81851507
 20
-639.21935507
 30
0.0
  0
SEQEND
  5
172
  8
0
  0
POLYLINE
  5
173
  8
0
 66
     1
 10
0.0
 20
0.0
 30
0.0
 70
     1
  0
VERTEX
  5
174
  8
0
 10
821.81851507
 20
-931.21935507
 30
0.0
  0
VERTEX
  5
175
  8
0
 10
1231.81851507
 20
-931.21935507
 30
0.0
  0
VERTEX
  5
176
  8
0
 10
1231.81851507
 20
-644.21935507
 30
0.0
  0
VERTEX
  5
177
  8
0
 10
821.81851507
 20
-644.21935507
 30
0.0
  0
SEQEND
  5
178
  8
0
  0
LINE
  5
179
  8
0
 10
1046.81851507
 20
-931.21935507
 30
0.0
 11
1046.81851507
 21
-936.21935507
 31
0.0
  0
LINE
  5
17A
  8
0
 10
1046.81851507
 20
-644.21935507
 30
0.0
 11
1046.81851507
 21
-639.21935507
 31
0.0
  0
LINE
  5
17B
  8
0
 10
836.81851507
 20
-931.21935507
 30
0.0
 11
836.81851507
 21
-936.21935507
 31
0.0
  0
LINE
  5
17C
  8
0
 10
836.81851507
 20
-644.21935507
 30
0.0
 11
836.81851507
 21
-639.21935507
 31
0.0
  0
TEXT
  5
17D
  8
TXT_ALL
 62
     4
 10
1235.81851507
 20
-935.21935507
 30
0.0
 40
2.5
  1

 50
90.00020741
  0
POLYLINE
  5
17E
  8
0
 66
     1
 10
0.0
 20
0.0
 30
0.0
  0
VERTEX
  5
17F
  8
0
 10
1231.81851507
 20
-654.21935507
 30
0.0
  0
VERTEX
  5
180
  8
0
 10
1162.82521507
 20
-654.21935507
 30
0.0
  0
VERTEX
  5
181
  8
0
 10
1162.82521507
 20
-644.21935507
 30
0.0
  0
SEQEND
  5
182
  8
0
  0
LINE
  5
183
  8
0
 10
1164.72851507
 20
-911.71935507
 30
0.0
 11
1024.83851507
 21
-911.71935507
 31
0.0
  0
LINE
  5
184
  8
0
 10
1024.83851507
 20
-921.46935507
 30
0.0
 11
1164.72851507
 21
-921.46935507
 31
0.0
  0
POLYLINE
  5
185
  8
0
 66
     1
 10
0.0
 20
0.0
 30
0.0
  0
VERTEX
  5
186
  8
0
 10
1024.83851507
 20
-911.71935507
 30
0.0
  0
VERTEX
  5
187
  8
0
 10
1024.83851507
 20
-921.46935507
 30
0.0
  0
VERTEX
  5
188
  8
0
 10
1024.83851507
 20
-931.21935507
 30
0.0
  0
SEQEND
  5
189
  8
0
  0
POLYLINE
  5
18A
  8
0
 66
     1
 10
0.0
 20
0.0
 30
0.0
  0
VERTEX
  5
18B
  8
0
 10
1094.78351507
 20
-911.71935507
 30
0.0
  0
VERTEX
  5
18C
  8
0
 10
1094.78351507
 20
-921.46935507
 30
0.0
  0
VERTEX
  5
18D
  8
0
 10
1094.78351507
 20
-931.21935507
 30
0.0
  0
SEQEND
  5
18E
  8
0
  0
TEXT
  5
18F
  8
TXT_ALL
 10
1026.83851507
 20
-917.89435502
 30
0.0
 40
2.5999999
  1
E-mail: verkoop@jonkers-bouwmetaal.nl
  7
ARIAL
  0
TEXT
  5
190
  8
TXT_ALL
 10
1026.83851507
 20
-927.64435502
 30
0.0
 40
2.5999999
  1
Telefoon: 0527-685156
  7
ARIAL
  0
TEXT
  5
191
  8
TXT_ALL
 10
1096.78351507
 20
-927.64435502
 30
0.0
 40
2.5999999
  1
Website: www.jonkers-bouwmetaal.nl
  7
ARIAL
  0
TEXT
  5
192
  8
TXT_ALL
 10
1096.78351507
 20
-917.89435502
 30
0.0
 40
2.5999999
  1
Adres: Hoornse Hop 10, 8321 WX Urk
  7
ARIAL
  0
TEXT
  5
193
  8
TXT_ALL
 10
825.26047533
 20
-650.46935507
 30
0.0
 40
2.5
  1
Art. nr. 91002299
  7
ARIAL
  0
TEXT
  5
194
  8
TXT_ALL
 10
867.99851214
 20
-650.46935507
 30
0.0
 40
2.5
  1
Omschrijving: J04-Anker 170x25 60x8
  7
ARIAL
  0
LINE
  5
195
  8
0
 10
1231.81851507
 20
-654.21935507
 30
0.0
 11
821.81851507
 21
-654.21935507
 31
0.0
  0
LINE
  5
196
  8
0
 10
864.83851507
 20
-654.21935507
 30
0.0
 11
864.83851507
 21
-644.21935507
 31
0.0
  0
LINE
  5
197
  8
0
 10
1024.83851507
 20
-654.21935507
 30
0.0
 11
1024.83851507
 21
-644.21935507
 31
0.0
  0
TEXT
  5
198
  8
TXT_ALL
 10
1095.83221507
 20
-650.46935507
 30
0.0
 40
2.5
  1
Behandeling: Thermisch Verzinkt
  7
ARIAL
  0
LINE
  5
199
  8
0
 10
1164.72851507
 20
-911.71935507
 30
0.0
 11
1231.81851507
 21
-911.71935507
 31
0.0
  0
LINE
  5
19A
  8
0
 10
1164.72851507
 20
-931.21935507
 30
0.0
 11
1164.72851507
 21
-911.71935507
 31
0.0
  0
LINE
  5
19B
  8
0
 10
1164.72851507
 20
-931.21935507
 30
0.0
 11
1164.72851507
 21
-911.71935507
 31
0.0
  0
TEXT
  5
19C
  8
TXT_ALL
 10
959.18371317
 20
-930.06482166
 30
0.0
 40
2.5
  1

  0
TEXT
  5
19D
  8
TXT_ALL
 10
1080.31889613
 20
-919.96935507
 30
0.0
 40
2.5
  1

  0
POLYLINE
  5
19E
  8
0
 66
     1
 10
0.0
 20
0.0
 30
0.0
  0
VERTEX
  5
19F
  8
0
 10
1162.82521507
 20
-654.21935507
 30
0.0
  0
VERTEX
  5
1A0
  8
0
 10
1093.83221507
 20
-654.21935507
 30
0.0
  0
VERTEX
  5
1A1
  8
0
 10
1093.83221507
 20
-644.21935507
 30
0.0
  0
SEQEND
  5
1A2
  8
0
  0
TEXT
  5
1A3
  8
TXT_ALL
 10
1164.82521507
 20
-650.46935507
 30
0.0
 40
2.5
  1
Verpakkingshoeveelheid: 1 st.
  7
ARIAL
  0
TEXT
  5
1A4
  8
TXT_ALL
 10
1026.83851507
 20
-650.46935507
 30
0.0
 40
2.5
  1
Materiaal: S355
  7
ARIAL
  0
TEXT
  5
1A5
  8
TXT_ALL
 10
1199.31093799
 20
-934.46886492
 30
0.0
 40
1.5
  1
Onderdeel van
  7
ARIAL
  0
POLYLINE
  5
1A6
  8
0
 66
     1
 10
0.0
 20
0.0
 30
0.0
  0
VERTEX
  5
2AA
  8
0
 10
1016.57824964
 20
-865.62557632
 30
0.0
  0
VERTEX
  5
2AB
  8
0
 10
1016.436521705756
 20
-865.1584213097049
 30
0.0
  0
VERTEX
  5
2AC
  8
0
 10
1016.017076990835
 20
-864.7101831321472
 30
0.0
  0
VERTEX
  5
2AD
  8
0
 10
1015.336900361803
 20
-864.2990126075997
 30
0.0
  0
VERTEX
  5
2AE
  8
0
 10
1014.423534683961
 20
-863.9415595500815
 30
0.0
  0
VERTEX
  5
2AF
  8
0
 10
1013.313965508946
 20
-863.6522985548585
 30
0.0
  0
VERTEX
  5
2B0
  8
0
 10
1012.053123393064
 20
-863.4429428685909
 30
0.0
  0
SEQEND
  5
2E9
  8
0
  0
POLYLINE
  5
1A7
  8
0
 66
     1
 10
0.0
 20
0.0
 30
0.0
  0
VERTEX
  5
2B1
  8
0
 10
1007.103375928909
 20
-867.8082097766974
 30
0.0
  0
VERTEX
  5
2B2
  8
0
 10
1008.406733185487
 20
-867.9260001515836
 30
0.0
  0
VERTEX
  5
2B3
  8
0
 10
1009.75369025096
 20
-867.9581766718402
 30
0.0
  0
VERTEX
  5
2B4
  8
0
 10
1011.094118020937
 20
-867.9035418381674
 30
0.0
  0
VERTEX
  5
2B5
  8
0
 10
1012.378130388925
 20
-867.7641289709661
 30
0.0
  0
VERTEX
  5
2B6
  8
0
 10
1013.557940835455
 20
-867.5451265371539
 30
0.0
  0
VERTEX
  5
2B7
  8
0
 10
1014.589640877806
 20
-867.2546850532896
 30
0.0
  0
VERTEX
  5
2B8
  8
0
 10
1015.434834192556
 20
-866.9036137514096
 30
0.0
  0
VERTEX
  5
2B9
  8
0
 10
1016.062065594538
 20
-866.5049782966281
 30
0.0
  0
VERTEX
  5
2BA
  8
0
 10
1016.447991690535
 20
-866.0736145280662
 30
0.0
  0
VERTEX
  5
2BB
  8
0
 10
1016.57824964
 20
-865.62557632
 30
0.0
  0
SEQEND
  5
2EA
  8
0
  0
POLYLINE
  5
1A8
  8
0
 66
     1
 10
0.0
 20
0.0
 30
0.0
  0
VERTEX
  5
1A9
  8
0
 10
1007.1033759
 20
-867.8082098
 30
0.0
  0
VERTEX
  5
1AA
  8
0
 10
964.07431595
 20
-862.38705781
 30
0.0
  0
SEQEND
  5
1AB
  8
0
  0
POLYLINE
  5
1AC
  8
0
 66
     1
 10
0.0
 20
0.0
 30
0.0
  0
VERTEX
  5
2BC
  8
0
 10
959.54918969
 20
-860.2044243216238
 30
0.0
  0
VERTEX
  5
2BD
  8
0
 10
959.6909176215493
 20
-860.6715793358987
 30
0.0
  0
VERTEX
  5
2BE
  8
0
 10
960.1103623384605
 20
-861.1198175173024
 30
0.0
  0
VERTEX
  5
2BF
  8
0
 10
960.7905389738089
 20
-861.5309880451073
 30
0.0
  0
VERTEX
  5
2C0
  8
0
 10
961.7039046615836
 20
-861.8884411048881
 30
0.0
  0
VERTEX
  5
2C1
  8
0
 10
962.8134738491354
 20
-862.1777021010485
 30
0.0
  0
VERTEX
  5
2C2
  8
0
 10
964.074315978909
 20
-862.3870577866974
 30
0.0
  0
SEQEND
  5
2EB
  8
0
  0
POLYLINE
  5
1AD
  8
0
 66
     1
 10
0.0
 20
0.0
 30
0.0
  0
VERTEX
  5
2C3
  8
0
 10
969.0240634430645
 20
-858.0217908785909
 30
0.0
  0
VERTEX
  5
2C4
  8
0
 10
967.7207061868047
 20
-857.9040005008096
 30
0.0
  0
VERTEX
  5
2C5
  8
0
 10
966.3737491199498
 20
-857.871823977818
 30
0.0
  0
VERTEX
  5
2C6
  8
0
 10
965.0333213470875
 20
-857.9264588090213
 30
0.0
  0
VERTEX
  5
2C7
  8
0
 10
963.749308974963
 20
-858.0658716741043
 30
0.0
  0
VERTEX
  5
2C8
  8
0
 10
962.5694985233384
 20
-858.2848741062134
 30
0.0
  0
VERTEX
  5
2C9
  8
0
 10
961.5377984752521
 20
-858.5753155888294
 30
0.0
  0
VERTEX
  5
2CA
  8
0
 10
960.6926051544519
 20
-858.9263868899308
 30
0.0
  0
VERTEX
  5
2CB
  8
0
 10
960.0653737464208
 20
-859.3250223443944
 30
0.0
  0
VERTEX
  5
2CC
  8
0
 10
959.6794476446696
 20
-859.7563861130677
 30
0.0
  0
VERTEX
  5
2CD
  8
0
 10
959.54918969
 20
-860.2044243216238
 30
0.0
  0
SEQEND
  5
2EC
  8
0
  0
LINE
  5
1AE
  8
0
 10
969.02406342
 20
-858.02179086
 30
0.0
 11
1012.05312337
 21
-863.44294284
 31
0.0
  0
LINE
  5
1AF
  8
0
 10
1031.81421179
 20
-880.89923552
 30
0.0
 11
859.697972
 21
-859.21462756
 31
0.0
  0
LINE
  5
1B0
  8
0
 10
884.44670934
 20
-837.3882928
 30
0.0
 11
859.697972
 21
-859.21462756
 31
0.0
  0
POLYLINE
  5
1B1
  8
0
 66
     1
 10
0.0
 20
0.0
 30
0.0
  0
VERTEX
  5
1B2
  8
0
 10
884.44670934
 20
-837.3882928
 30
0.0
  0
VERTEX
  5
1B3
  8
0
 10
1056.56294913
 20
-859.07290076
 30
0.0
  0
VERTEX
  5
1B4
  8
0
 10
1031.81421179
 20
-880.89923552
 30
0.0
  0
VERTEX
  5
1B5
  8
0
 10
1031.81421179
 20
-888.44170785
 30
0.0
  0
VERTEX
  5
1B6
  8
0
 10
859.697972
 20
-866.75709989
 30
0.0
  0
SEQEND
  5
1B7
  8
0
  0
LINE
  5
1B8
  8
0
 10
859.697972
 20
-859.21462756
 30
0.0
 11
859.697972
 21
-866.75709989
 31
0.0
  0
LINE
  5
1B9
  8
0
 10
1056.56294913
 20
-866.61537309
 30
0.0
 11
1031.81421179
 21
-888.44170785
 31
0.0
  0
LINE
  5
1BA
  8
0
 10
1056.56294913
 20
-859.07290076
 30
0.0
 11
1056.56294913
 21
-866.61537309
 31
0.0
  0
LINE
  5
1BB
  8
0
  6
STRICHPUNKT2
 62
     1
 10
1009.57824964
 20
-862.32574467
 30
0.0
 11
1009.57824964
 21
-876.4678803
 31
0.0
  0
LINE
  5
1BC
  8
0
  6
STRICHPUNKT2
 62
     1
 10
966.54918969
 20
-856.90459269
 30
0.0
 11
966.54918969
 21
-871.04672831
 31
0.0
  0
LINE
  5
1BD
  8
0
  6
STRICHPUNKT2
 62
     1
 10
1019.40010028
 20
-866.86301319
 30
0.0
 11
956.72733905
 21
-858.96698746
 31
0.0
  0
LINE
  5
1BE
  8
0
  6
STRICHPUNKT2
 62
     1
 10
1013.29056024
 20
-862.35162611
 30
0.0
 11
1005.86593904
 21
-868.89952653
 31
0.0
  0
LINE
  5
1BF
  8
0
  6
STRICHPUNKT2
 62
     1
 10
970.26150029
 20
-856.93047412
 30
0.0
 11
962.83687909
 21
-863.47837454
 31
0.0
  0
LINE
  5
1C0
  8
0
  6
STRICHPUNKT2
 62
     1
 10
1019.40010028
 20
-874.40548552
 30
0.0
 11
956.72733905
 21
-866.5094598
 31
0.0
  0
LINE
  5
1C1
  8
0
  6
STRICHPUNKT2
 62
     1
 10
1013.29056024
 20
-869.89409844
 30
0.0
 11
1005.86593904
 21
-876.44199887
 31
0.0
  0
LINE
  5
1C2
  8
0
  6
STRICHPUNKT2
 62
     1
 10
970.26150029
 20
-864.47294645
 30
0.0
 11
962.83687909
 21
-871.02084688
 31
0.0
  0
POLYLINE
  5
1C3
  8
0
 66
     1
 10
0.0
 20
0.0
 30
0.0
  0
VERTEX
  5
1C4
  8
0
 10
876.96339457
 20
-828.90301143
 30
0.0
  0
VERTEX
  5
1C5
  8
0
 10
852.21465723
 20
-850.72934618
 30
0.0
  0
VERTEX
  5
1C6
  8
0
 10
844.73134245
 20
-849.78653714
 30
0.0
  0
SEQEND
  5
1C7
  8
0
  0
POLYLINE
  5
1C8
  8
0
 66
     1
 10
0.0
 20
0.0
 30
0.0
  0
VERTEX
  5
2CE
  8
0
 10
876.9633945836053
 20
-828.9030114360138
 30
0.0
  0
VERTEX
  5
2CF
  8
0
 10
877.1071843842212
 20
-830.3925905945744
 30
0.0
  0
VERTEX
  5
2D0
  8
0
 10
877.5330280104023
 20
-831.8611576840609
 30
0.0
  0
VERTEX
  5
2D1
  8
0
 10
878.2245605305515
 20
-833.252276495293
 30
0.0
  0
VERTEX
  5
2D2
  8
0
 10
879.1552067379645
 20
-834.5124871129647
 30
0.0
  0
VERTEX
  5
2D3
  8
0
 10
880.2892024211111
 20
-835.5933603501906
 30
0.0
  0
VERTEX
  5
2D4
  8
0
 10
881.5829687622161
 20
-836.4533588549829
 30
0.0
  0
VERTEX
  5
2D5
  8
0
 10
882.9867870467722
 20
-837.0594333673805
 30
0.0
  0
VERTEX
  5
2D6
  8
0
 10
884.4467093258393
 20
-837.3882927839629
 30
0.0
  0
SEQEND
  5
2ED
  8
0
  0
POLYLINE
  5
1C9
  8
0
 66
     1
 10
0.0
 20
0.0
 30
0.0
  0
VERTEX
  5
1CA
  8
0
 10
884.44670934
 20
-837.3882928
 30
0.0
  0
VERTEX
  5
1CB
  8
0
 10
859.697972
 20
-859.21462756
 30
0.0
  0
SEQEND
  5
1CC
  8
0
  0
POLYLINE
  5
1CD
  8
0
 66
     1
 10
0.0
 20
0.0
 30
0.0
  0
VERTEX
  5
2D7
  8
0
 10
852.2146572436054
 20
-850.7293461960138
 30
0.0
  0
VERTEX
  5
2D8
  8
0
 10
852.3584470442213
 20
-852.2189253545744
 30
0.0
  0
VERTEX
  5
2D9
  8
0
 10
852.7842906704024
 20
-853.6874924440609
 30
0.0
  0
VERTEX
  5
2DA
  8
0
 10
853.4758231905515
 20
-855.078611255293
 30
0.0
  0
VERTEX
  5
2DB
  8
0
 10
854.4064693979645
 20
-856.3388218729647
 30
0.0
  0
VERTEX
  5
2DC
  8
0
 10
855.5404650811112
 20
-857.4196951101906
 30
0.0
  0
VERTEX
  5
2DD
  8
0
 10
856.8342314222161
 20
-858.2796936149829
 30
0.0
  0
VERTEX
  5
2DE
  8
0
 10
858.2380497067722
 20
-858.8857681273805
 30
0.0
  0
VERTEX
  5
2DF
  8
0
 10
859.6979719858393
 20
-859.2146275439629
 30
0.0
  0
SEQEND
  5
2EE
  8
0
  0
POLYLINE
  5
1CE
  8
0
 66
     1
 10
0.0
 20
0.0
 30
0.0
  0
VERTEX
  5
1CF
  8
0
 10
859.697972
 20
-859.21462756
 30
0.0
  0
VERTEX
  5
1D0
  8
0
 10
859.697972
 20
-866.75709989
 30
0.0
  0
SEQEND
  5
1D1
  8
0
  0
POLYLINE
  5
1D2
  8
0
 66
     1
 10
0.0
 20
0.0
 30
0.0
  0
VERTEX
  5
2E0
  8
0
 10
844.7313424872108
 20
-849.7865371620277
 30
0.0
  0
VERTEX
  5
2E1
  8
0
 10
845.0189220884425
 20
-852.7656954791487
 30
0.0
  0
VERTEX
  5
2E2
  8
0
 10
845.8706093408047
 20
-855.7028296581217
 30
0.0
  0
VERTEX
  5
2E3
  8
0
 10
847.2536743811029
 20
-858.4850672805861
 30
0.0
  0
VERTEX
  5
2E4
  8
0
 10
849.1149667959289
 20
-861.0054885159294
 30
0.0
  0
VERTEX
  5
2E5
  8
0
 10
851.3829581622223
 20
-863.1672349903811
 30
0.0
  0
VERTEX
  5
2E6
  8
0
 10
853.9704908444323
 20
-864.8872319999659
 30
0.0
  0
VERTEX
  5
2E7
  8
0
 10
856.7781274135443
 20
-866.099381024761
 30
0.0
  0
VERTEX
  5
2E8
  8
0
 10
859.6979719716784
 20
-866.7570998579259
 30
0.0
  0
SEQEND
  5
2EF
  8
0
  0
POLYLINE
  5
1D3
  8
0
 66
     1
 10
0.0
 20
0.0
 30
0.0
  0
VERTEX
  5
1D4
  8
0
 10
876.96339457
 20
-820.41773005
 30
0.0
  0
VERTEX
  5
1D5
  8
0
 10
852.21465723
 20
-842.24406481
 30
0.0
  0
VERTEX
  5
1D6
  8
0
 10
844.73134245
 20
-841.30125577
 30
0.0
  0
SEQEND
  5
1D7
  8
0
  0
LINE
  5
1D8
  8
0
 10
869.4800798
 20
-819.47492101
 30
0.0
 11
844.73134245
 21
-841.30125577
 31
0.0
  0
LINE
  5
1D9
  8
0
 10
876.96339457
 20
-820.41773005
 30
0.0
 11
869.4800798
 21
-819.47492101
 31
0.0
  0
POLYLINE
  5
1DA
  8
0
 66
     1
 10
0.0
 20
0.0
 30
0.0
  0
VERTEX
  5
1DB
  8
0
 10
876.96339457
 20
-820.41773005
 30
0.0
  0
VERTEX
  5
1DC
  8
0
 10
876.96339457
 20
-828.90301143
 30
0.0
  0
VERTEX
  5
1DD
  8
0
 10
852.21465723
 20
-850.72934618
 30
0.0
  0
VERTEX
  5
1DE
  8
0
 10
852.21465723
 20
-842.24406481
 30
0.0
  0
SEQEND
  5
1DF
  8
0
  0
POLYLINE
  5
1E0
  8
0
 66
     1
 10
0.0
 20
0.0
 30
0.0
  0
VERTEX
  5
1E1
  8
0
 10
852.21465723
 20
-850.72934618
 30
0.0
  0
VERTEX
  5
1E2
  8
0
 10
844.73134245
 20
-849.78653714
 30
0.0
  0
VERTEX
  5
1E3
  8
0
 10
844.73134245
 20
-841.30125577
 30
0.0
  0
SEQEND
  5
1E4
  8
0
  0
POLYLINE
  5
1E5
  8
0
 66
     1
 10
0.0
 20
0.0
 30
0.0
  0
VERTEX
  5
1E6
  8
0
 10
1176.16638834
 20
-716.87148181
 30
0.0
  0
VERTEX
  5
1E7
  8
0
 10
992.16638834
 20
-716.87148181
 30
0.0
  0
VERTEX
  5
1E8
  8
0
 10
992.16638834
 20
-724.87148181
 30
0.0
  0
SEQEND
  5
1E9
  8
0
  0
LINE
  5
1EA
  8
0
 10
1176.16638834
 20
-724.87148181
 30
0.0
 11
992.16638834
 21
-724.87148181
 31
0.0
  0
LINE
  5
1EB
  8
0
 10
1176.16638834
 20
-716.87148181
 30
0.0
 11
1176.16638834
 21
-724.87148181
 31
0.0
  0
LINE
  5
1EC
  8
0
  6
STRICHPUNKT2
 62
     1
 10
1139.16638834
 20
-713.37148181
 30
0.0
 11
1139.16638834
 21
-728.37148181
 31
0.0
  0
LINE
  5
1ED
  8
0
  6
STRICHPUNKT2
 62
     1
 10
1093.16638834
 20
-713.37148181
 30
0.0
 11
1093.16638834
 21
-728.37148181
 31
0.0
  0
POLYLINE
  5
1EE
  8
0
 66
     1
 10
0.0
 20
0.0
 30
0.0
  0
VERTEX
  5
1EF
  8
0
 10
992.16638834
 20
-716.87148181
 30
0.0
 42
-0.414213562
  0
VERTEX
  5
1F0
  8
0
 10
984.16638834
 20
-708.87148181
 30
0.0
  0
VERTEX
  5
1F1
  8
0
 10
976.16638834
 20
-708.87148181
 30
0.0
  0
SEQEND
  5
1F2
  8
0
  0
ARC
  5
1F3
  8
0
 10
992.16638834
 20
-708.87148181
 30
0.0
 40
16.0
 50
-180.0
 51
-90.0
  0
LINE
  5
1F4
  8
0
 10
992.16638834
 20
-716.87148181
 30
0.0
 11
992.16638834
 21
-724.87148181
 31
0.0
  0
POLYLINE
  5
1F5
  8
0
 66
     1
 10
0.0
 20
0.0
 30
0.0
  0
VERTEX
  5
1F6
  8
0
 10
984.16638834
 20
-708.87148181
 30
0.0
  0
VERTEX
  5
1F7
  8
0
 10
984.16638834
 20
-699.87148181
 30
0.0
  0
VERTEX
  5
1F8
  8
0
 10
976.16638834
 20
-699.87148181
 30
0.0
  0
SEQEND
  5
1F9
  8
0
  0
LINE
  5
1FA
  8
0
 10
976.16638834
 20
-708.87148181
 30
0.0
 11
976.16638834
 21
-699.87148181
 31
0.0
  0
LINE
  5
1FB
  8
0
 10
984.16638834
 20
-708.87148181
 30
0.0
 11
976.16638834
 21
-708.87148181
 31
0.0
  0
LINE
  5
1FC
  8
0
 10
860.10987874
 20
-724.87148181
 30
0.0
 11
930.10987874
 21
-724.87148181
 31
0.0
  0
LINE
  5
1FD
  8
0
  6
STRICHPUNKT2
 62
     1
 10
895.10987874
 20
-713.37148181
 30
0.0
 11
895.10987874
 21
-728.37148181
 31
0.0
  0
LINE
  5
1FE
  8
0
  6
STRICHPUNKT2
 62
     1
 10
895.10987874
 20
-713.37148181
 30
0.0
 11
895.10987874
 21
-728.37148181
 31
0.0
  0
LINE
  5
1FF
  8
0
 10
860.10987874
 20
-708.87148181
 30
0.0
 11
930.10987874
 21
-708.87148181
 31
0.0
  0
LINE
  5
200
  8
0
 10
930.10987874
 20
-724.87148181
 30
0.0
 11
930.10987874
 21
-708.87148181
 31
0.0
  0
LINE
  5
201
  8
0
 10
860.10987874
 20
-724.87148181
 30
0.0
 11
930.10987874
 21
-724.87148181
 31
0.0
  0
LINE
  5
202
  8
0
 10
860.10987874
 20
-708.87148181
 30
0.0
 11
860.10987874
 21
-724.87148181
 31
0.0
  0
LINE
  5
203
  8
0
 10
860.10987874
 20
-699.87148181
 30
0.0
 11
930.10987874
 21
-699.87148181
 31
0.0
  0
LINE
  5
204
  8
0
 10
930.10987874
 20
-708.87148181
 30
0.0
 11
930.10987874
 21
-699.87148181
 31
0.0
  0
LINE
  5
205
  8
0
 10
860.10987874
 20
-708.87148181
 30
0.0
 11
930.10987874
 21
-708.87148181
 31
0.0
  0
LINE
  5
206
  8
0
 10
860.10987874
 20
-699.87148181
 30
0.0
 11
860.10987874
 21
-708.87148181
 31
0.0
  0
POLYLINE
  5
207
  8
0
 66
     1
 10
0.0
 20
0.0
 30
0.0
 70
     1
  0
VERTEX
  5
208
  8
0
 10
1139.16638834
 20
-781.03036784
 30
0.0
 42
-1.0
  0
VERTEX
  5
209
  8
0
 10
1139.16638834
 20
-795.03036784
 30
0.0
  0
VERTEX
  5
20A
  8
0
 10
1093.16638834
 20
-795.03036784
 30
0.0
 42
-1.0
  0
VERTEX
  5
20B
  8
0
 10
1093.16638834
 20
-781.03036784
 30
0.0
  0
SEQEND
  5
20C
  8
0
  0
LINE
  5
20D
  8
0
 10
1176.16638834
 20
-823.03036784
 30
0.0
 11
992.16638834
 21
-823.03036784
 31
0.0
  0
LINE
  5
20E
  8
0
 10
992.16638834
 20
-753.03036784
 30
0.0
 11
992.16638834
 21
-823.03036784
 31
0.0
  0
POLYLINE
  5
20F
  8
0
 66
     1
 10
0.0
 20
0.0
 30
0.0
  0
VERTEX
  5
210
  8
0
 10
992.16638834
 20
-753.03036784
 30
0.0
  0
VERTEX
  5
211
  8
0
 10
1176.16638834
 20
-753.03036784
 30
0.0
  0
VERTEX
  5
212
  8
0
 10
1176.16638834
 20
-823.03036784
 30
0.0
  0
SEQEND
  5
213
  8
0
  0
LINE
  5
214
  8
0
  6
STRICHPUNKT2
 62
     1
 10
1149.66638834
 20
-788.03036784
 30
0.0
 11
1082.66638834
 21
-788.03036784
 31
0.0
  0
LINE
  5
215
  8
0
  6
STRICHPUNKT2
 62
     1
 10
1139.16638834
 20
-777.53036784
 30
0.0
 11
1139.16638834
 21
-798.53036784
 31
0.0
  0
LINE
  5
216
  8
0
  6
STRICHPUNKT2
 62
     1
 10
1093.16638834
 20
-777.53036784
 30
0.0
 11
1093.16638834
 21
-798.53036784
 31
0.0
  0
LINE
  5
217
  8
0
  6
STRICHPUNKT2
 62
     1
 10
1149.66638834
 20
-788.03036784
 30
0.0
 11
1082.66638834
 21
-788.03036784
 31
0.0
  0
LINE
  5
218
  8
0
  6
STRICHPUNKT2
 62
     1
 10
1139.16638834
 20
-777.53036784
 30
0.0
 11
1139.16638834
 21
-798.53036784
 31
0.0
  0
LINE
  5
219
  8
0
  6
STRICHPUNKT2
 62
     1
 10
1093.16638834
 20
-777.53036784
 30
0.0
 11
1093.16638834
 21
-798.53036784
 31
0.0
  0
POLYLINE
  5
21A
  8
0
 66
     1
 10
0.0
 20
0.0
 30
0.0
  0
VERTEX
  5
21B
  8
0
 10
984.16638834
 20
-753.03036784
 30
0.0
  0
VERTEX
  5
21C
  8
0
 10
992.16638834
 20
-753.03036784
 30
0.0
  0
VERTEX
  5
21D
  8
0
 10
992.16638834
 20
-823.03036784
 30
0.0
  0
VERTEX
  5
21E
  8
0
 10
984.16638834
 20
-823.03036784
 30
0.0
  0
SEQEND
  5
21F
  8
0
  0
POLYLINE
  5
220
  8
0
 66
     1
 10
0.0
 20
0.0
 30
0.0
  0
VERTEX
  5
221
  8
0
 10
984.16638834
 20
-753.03036784
 30
0.0
  0
VERTEX
  5
222
  8
0
 10
984.16638834
 20
-823.03036784
 30
0.0
  0
VERTEX
  5
223
  8
0
 10
976.16638834
 20
-823.03036784
 30
0.0
  0
SEQEND
  5
224
  8
0
  0
LINE
  5
225
  8
0
 10
976.16638834
 20
-753.03036784
 30
0.0
 11
976.16638834
 21
-823.03036784
 31
0.0
  0
LINE
  5
226
  8
0
 10
984.16638834
 20
-753.03036784
 30
0.0
 11
976.16638834
 21
-753.03036784
 31
0.0
  0
TEXT
  5
227
  8
TXT_DIM49
 10
1073.3841284
 20
-733.9071823
 30
0.0
 40
2.5
  1
200
  7
ARIAL
  0
LINE
  5
228
  8
0
 62
     4
 10
977.16638834
 20
-734.4071823
 30
0.0
 11
975.16638834
 21
-736.4071823
 31
0.0
  0
LINE
  5
229
  8
0
 62
     4
 10
1175.41638834
 20
-736.1571823
 30
0.0
 11
1176.91638834
 21
-734.6571823
 31
0.0
  0
LINE
  5
22A
  8
0
 62
     4
 10
976.16638834
 20
-735.4071823
 30
0.0
 11
1176.16638834
 21
-735.4071823
 31
0.0
  0
LINE
  5
22B
  8
0
 62
     4
 10
976.16638834
 20
-733.4071823
 30
0.0
 11
976.16638834
 21
-737.4071823
 31
0.0
  0
LINE
  5
22C
  8
0
 62
     4
 10
1176.16638834
 20
-733.4071823
 30
0.0
 11
1176.16638834
 21
-737.4071823
 31
0.0
  0
TEXT
  5
22D
  8
TXT_DIM49
 10
848.60987874
 20
-714.22632185
 30
0.0
 40
2.5
  1
25
 50
90.00020741
  7
ARIAL
  0
LINE
  5
22E
  8
0
 62
     4
 10
851.10987874
 20
-700.87148181
 30
0.0
 11
849.10987874
 21
-698.87148181
 31
0.0
  0
LINE
  5
22F
  8
0
 62
     4
 10
849.35987874
 20
-724.12148181
 30
0.0
 11
850.85987874
 21
-725.62148181
 31
0.0
  0
LINE
  5
230
  8
0
 62
     4
 10
850.10987874
 20
-699.87148181
 30
0.0
 11
850.10987874
 21
-724.87148181
 31
0.0
  0
LINE
  5
231
  8
0
 62
     4
 10
852.10987874
 20
-699.87148181
 30
0.0
 11
848.10987874
 21
-699.87148181
 31
0.0
  0
LINE
  5
232
  8
0
 62
     4
 10
852.10987874
 20
-724.87148181
 30
0.0
 11
848.10987874
 21
-724.87148181
 31
0.0
  0
TEXT
  5
233
  8
TXT_DIM49
 10
893.2550387
 20
-688.37148181
 30
0.0
 40
2.5
  1
70
  7
ARIAL
  0
LINE
  5
234
  8
0
 62
     4
 10
861.10987874
 20
-688.87148181
 30
0.0
 11
859.10987874
 21
-690.87148181
 31
0.0
  0
LINE
  5
235
  8
0
 62
     4
 10
929.35987874
 20
-690.62148181
 30
0.0
 11
930.85987874
 21
-689.12148181
 31
0.0
  0
LINE
  5
236
  8
0
 62
     4
 10
860.10987874
 20
-689.87148181
 30
0.0
 11
930.10987874
 21
-689.87148181
 31
0.0
  0
LINE
  5
237
  8
0
 62
     4
 10
860.10987874
 20
-691.87148181
 30
0.0
 11
860.10987874
 21
-687.87148181
 31
0.0
  0
LINE
  5
238
  8
0
 62
     4
 10
930.10987874
 20
-691.87148181
 30
0.0
 11
930.10987874
 21
-687.87148181
 31
0.0
  0
TEXT
  5
239
  8
TXT_DIM49
 10
1190.10175996
 20
-772.38520788
 30
0.0
 40
2.5
  1
35
 50
90.00020741
  7
ARIAL
  0
LINE
  5
23A
  8
0
 62
     4
 10
1192.60175996
 20
-754.03036784
 30
0.0
 11
1190.60175996
 21
-752.03036784
 31
0.0
  0
LINE
  5
23B
  8
0
 62
     4
 10
1190.85175996
 20
-787.28036784
 30
0.0
 11
1192.35175996
 21
-788.78036784
 31
0.0
  0
LINE
  5
23C
  8
0
 62
     4
 10
1191.60175996
 20
-753.03036784
 30
0.0
 11
1191.60175996
 21
-788.03036784
 31
0.0
  0
LINE
  5
23D
  8
0
 62
     4
 10
1189.60175996
 20
-753.03036784
 30
0.0
 11
1193.60175996
 21
-753.03036784
 31
0.0
  0
LINE
  5
23E
  8
0
 62
     4
 10
1189.60175996
 20
-788.03036784
 30
0.0
 11
1193.60175996
 21
-788.03036784
 31
0.0
  0
TEXT
  5
23F
  8
TXT_DIM49
 10
1190.19774406
 20
-807.38520788
 30
0.0
 40
2.5
  1
35
 50
90.00020741
  7
ARIAL
  0
LINE
  5
240
  8
0
 62
     4
 10
1192.69774406
 20
-789.03036784
 30
0.0
 11
1190.69774406
 21
-787.03036784
 31
0.0
  0
LINE
  5
241
  8
0
 62
     4
 10
1190.94774406
 20
-822.28036784
 30
0.0
 11
1192.44774406
 21
-823.78036784
 31
0.0
  0
LINE
  5
242
  8
0
 62
     4
 10
1191.69774406
 20
-788.03036784
 30
0.0
 11
1191.69774406
 21
-823.03036784
 31
0.0
  0
LINE
  5
243
  8
0
 62
     4
 10
1189.69774406
 20
-788.03036784
 30
0.0
 11
1193.69774406
 21
-788.03036784
 31
0.0
  0
LINE
  5
244
  8
0
 62
     4
 10
1189.69774406
 20
-823.03036784
 30
0.0
 11
1193.69774406
 21
-823.03036784
 31
0.0
  0
TEXT
  5
245
  8
TXT_DIM49
 10
1144.3115483
 20
-741.53036784
 30
0.0
 40
2.5
  1
60
  7
ARIAL
  0
LINE
  5
246
  8
0
 62
     4
 10
1175.16638834
 20
-744.03036784
 30
0.0
 11
1177.16638834
 21
-742.03036784
 31
0.0
  0
LINE
  5
247
  8
0
 62
     4
 10
1116.91638834
 20
-742.28036784
 30
0.0
 11
1115.41638834
 21
-743.78036784
 31
0.0
  0
LINE
  5
248
  8
0
 62
     4
 10
1176.16638834
 20
-743.03036784
 30
0.0
 11
1116.16638834
 21
-743.03036784
 31
0.0
  0
LINE
  5
249
  8
0
 62
     4
 10
1176.16638834
 20
-745.03036784
 30
0.0
 11
1176.16638834
 21
-741.03036784
 31
0.0
  0
LINE
  5
24A
  8
0
 62
     4
 10
1116.16638834
 20
-745.03036784
 30
0.0
 11
1116.16638834
 21
-741.03036784
 31
0.0
  0
TEXT
  5
24B
  8
TXT_DIM49
 10
1155.8115483
 20
-771.53036784
 30
0.0
 40
2.5
  1
37
  7
ARIAL
  0
LINE
  5
24C
  8
0
 62
     4
 10
1175.16638834
 20
-774.03036784
 30
0.0
 11
1177.16638834
 21
-772.03036784
 31
0.0
  0
LINE
  5
24D
  8
0
 62
     4
 10
1139.91638834
 20
-772.28036784
 30
0.0
 11
1138.41638834
 21
-773.78036784
 31
0.0
  0
LINE
  5
24E
  8
0
 62
     4
 10
1176.16638834
 20
-773.03036784
 30
0.0
 11
1139.16638834
 21
-773.03036784
 31
0.0
  0
LINE
  5
24F
  8
0
 62
     4
 10
1176.16638834
 20
-771.03036784
 30
0.0
 11
1176.16638834
 21
-775.03036784
 31
0.0
  0
LINE
  5
250
  8
0
 62
     4
 10
1139.16638834
 20
-775.03036784
 30
0.0
 11
1139.16638834
 21
-771.03036784
 31
0.0
  0
LINE
  5
251
  8
0
 62
     5
 10
1116.16638834
 20
-795.03036784
 30
0.0
 11
1105.46609842
 21
-805.92125743
 31
0.0
  0
TEXT
  5
252
  8
TXT_DIM49
 10
1082.39482874
 20
-807.17125743
 30
0.0
 40
2.5
  1
Slobgat 14 x 60
  7
ARIAL
  0
ENDSEC
  0
EOF
