  0
SECTION
  2
HEADER
  9
$ACADVER
  1
AC1006
  9
$DWGCODEPAGE
  3
ansi_1252
  9
$INSBASE
 10
0.0
 20
0.0
 30
0.0
  9
$EXTMIN
 10
1507.74875585
 20
-894.8810172
  9
$EXTMAX
 10
2329.64314999
 20
-516.2060172
  9
$LIMMIN
 10
1507.74875585
 20
-894.8810172
  9
$LIMMAX
 10
2329.64314999
 20
-516.2060172
  9
$ORTHOMODE
 70
     0
  9
$REGENMODE
 70
     1
  9
$FILLMODE
 70
     1
  9
$QTEXTMODE
 70
     0
  9
$MIRRTEXT
 70
     1
  9
$DRAGMODE
 70
     2
  9
$LTSCALE
 40
1.0
  9
$OSMODE
 70
    37
  9
$ATTMODE
 70
     1
  9
$TEXTSIZE
 40
1.0
  9
$TRACEWID
 40
0.05
  9
$TEXTSTYLE
  7
STANDARD
  9
$CLAYER
  8
0
  9
$CELTYPE
  6
BYBLOCK
  9
$CECOLOR
 62
   256
  9
$DIMSCALE
 40
1.0
  9
$DIMASZ
 40
0.18
  9
$DIMEXO
 40
0.0625
  9
$DIMDLI
 40
0.38
  9
$DIMRND
 40
0.0
  9
$DIMDLE
 40
0.0
  9
$DIMEXE
 40
0.18
  9
$DIMTP
 40
0.0
  9
$DIMTM
 40
0.0
  9
$DIMTXT
 40
0.18
  9
$DIMCEN
 40
0.09
  9
$DIMTSZ
 40
0.0
  9
$DIMTOL
 70
     0
  9
$DIMLIM
 70
     0
  9
$DIMTIH
 70
     1
  9
$DIMTOH
 70
     1
  9
$DIMSE1
 70
     0
  9
$DIMSE2
 70
     0
  9
$DIMTAD
 70
     0
  9
$DIMZIN
 70
     0
  9
$DIMBLK
  1

  9
$DIMASO
 70
     1
  9
$DIMSHO
 70
     1
  9
$DIMPOST
  1

  9
$DIMAPOST
  1

  9
$DIMALT
 70
     0
  9
$DIMALTD
 70
     2
  9
$DIMALTF
 40
25.4
  9
$DIMLFAC
 40
1.0
  9
$DIMTOFL
 70
     0
  9
$DIMTVP
 40
0.0
  9
$DIMTIX
 70
     0
  9
$DIMSOXD
 70
     0
  9
$DIMSAH
 70
     0
  9
$DIMBLK1
  1

  9
$DIMBLK2
  1

  9
$LUNITS
 70
     2
  9
$LUPREC
 70
     4
  9
$SKETCHINC
 40
0.1
  9
$FILLETRAD
 40
0.5
  9
$AUNITS
 70
     0
  9
$AUPREC
 70
     0
  9
$MENU
  1
.
  9
$ELEVATION
 40
0.0
  9
$THICKNESS
 40
0.0
  9
$LIMCHECK
 70
     0
  9
$CHAMFERA
 40
0.0
  9
$CHAMFERB
 40
0.0
  9
$SKPOLY
 70
     0
  9
$TDCREATE
 40
2447893.125
  9
$TDUPDATE
 40
2460791.47665515
  9
$TDINDWG
 40
0.0
  9
$TDUSRTIMER
 40
0.0
  9
$USRTIMER
 70
     1
  9
$ANGBASE
 50
0.0
  9
$ANGDIR
 70
     0
  9
$PDMODE
 70
     0
  9
$PDSIZE
 40
0.0
  9
$PLINEWID
 40
0.0
  9
$COORDS
 70
     1
  9
$SPLFRAME
 70
     0
  9
$SPLINETYPE
 70
     6
  9
$SPLINESEGS
 70
     8
  9
$ATTDIA
 70
     0
  9
$ATTREQ
 70
     1
  9
$HANDLING
 70
     1
  9
$HANDSEED
  5
3DE
  9
$SURFTAB1
 70
     6
  9
$SURFTAB2
 70
     6
  9
$SURFTYPE
 70
     6
  9
$SURFU
 70
     6
  9
$SURFV
 70
     6
  9
$UCSNAME
  2

  9
$UCSORG
 10
0.0
 20
0.0
 30
0.0
  9
$UCSXDIR
 10
1.0
 20
0.0
 30
0.0
  9
$UCSYDIR
 10
0.0
 20
1.0
 30
0.0
  9
$USERI1
 70
     0
  9
$USERI2
 70
     0
  9
$USERI3
 70
     0
  9
$USERI4
 70
     0
  9
$USERI5
 70
     0
  9
$USERR1
 40
0.0
  9
$USERR2
 40
0.0
  9
$USERR3
 40
0.0
  9
$USERR4
 40
0.0
  9
$USERR5
 40
0.0
  9
$WORLDVIEW
 70
     1
  0
ENDSEC
  0
SECTION
  2
TABLES
  0
TABLE
  2
VPORT
 70
     1
  0
VPORT
  2
*ACTIVE
 70
     0
 10
0.0
 20
0.0
 11
1.0
 21
1.0
 12
1918.69595292
 22
-705.5435172
 13
0.0
 23
0.0
 14
1.0
 24
1.0
 15
0.0
 25
0.0
 16
0.0
 26
0.0
 36
1.0
 17
0.0
 27
0.0
 37
0.0
 40
378.675
 41
2.170447994
 42
50.0
 43
0.0
 44
0.0
 50
0.0
 51
0.0
 71
     0
 72
   100
 73
     1
 74
     1
 75
     0
 76
     0
 77
     0
 78
     0
  0
ENDTAB
  0
TABLE
  2
LTYPE
 70
    19
  0
LTYPE
  2
CONTINUOUS
 70
     0
  3
Solid line
 72
    65
 73
     0
 40
0.0
  0
LTYPE
  2
DOT
 70
     0
  3
..............
 72
    65
 73
     2
 40
2.0
 49
0.5
 49
-1.5
  0
LTYPE
  2
HIDDEN
 70
     0
  3
-- -- -- -- --
 72
    65
 73
     2
 40
7.0
 49
4.0
 49
-3.0
  0
LTYPE
  2
DASHDOT
 70
     0
  3
--.--.--.--.--
 72
    65
 73
     4
 40
8.5
 49
4.0
 49
-2.0
 49
0.5
 49
-2.0
  0
LTYPE
  2
STRICHPUNKT2
 70
     0
  3
--.--.--.--.--
 72
    65
 73
     4
 40
18.5
 49
10.0
 49
-4.0
 49
0.5
 49
-4.0
  0
LTYPE
  2
STRICHPUNKT3
 70
     0
  3
--.--.--.--.--
 72
    65
 73
     4
 40
35.5
 49
25.0
 49
-5.0
 49
0.5
 49
-5.0
  0
LTYPE
  2
PHANTOM
 70
     0
  3
--..--..--..--
 72
    65
 73
     6
 40
23.0
 49
10.0
 49
-4.0
 49
0.5
 49
-4.0
 49
0.5
 49
-4.0
  0
LTYPE
  2
PHANTOM2
 70
     0
  3
--..--..--..--
 72
    65
 73
     6
 40
33.0
 49
20.0
 49
-4.0
 49
0.5
 49
-4.0
 49
0.5
 49
-4.0
  0
LTYPE
  2
PHANTOM3
 70
     0
  3
--..--..--..--
 72
    65
 73
     6
 40
50.0
 49
37.0
 49
-4.0
 49
0.5
 49
-4.0
 49
0.5
 49
-4.0
  0
LTYPE
  2
STR3PKT
 70
     0
  3
--...--...--...
 72
    65
 73
     8
 40
31.5
 49
20.0
 49
-2.5
 49
0.5
 49
-2.5
 49
0.5
 49
-2.5
 49
0.5
 49
-2.5
  0
LTYPE
  2
2STRPKT
 70
     0
  3
--.--.--.--.--
 72
    65
 73
     6
 40
28.0
 49
10.0
 49
-2.5
 49
10.0
 49
-2.5
 49
0.5
 49
-2.5
  0
LTYPE
  2
GESTRICHELT2
 70
     0
  3
-- -- -- -- --
 72
    65
 73
     2
 40
25.0
 49
10.0
 49
-15.0
  0
LTYPE
  2
2STR2PKT
 70
     0
  3
--..--..--..--
 72
    65
 73
     8
 40
31.0
 49
10.0
 49
-2.5
 49
10.0
 49
-2.5
 49
0.5
 49
-2.5
 49
0.5
 49
-2.5
  0
LTYPE
  2
STR3PKT2
 70
     0
  3
--...--...--...
 72
    65
 73
     8
 40
21.0
 49
10.0
 49
-2.5
 49
0.5
 49
-2.5
 49
0.5
 49
-2.5
 49
0.5
 49
-2.0
  0
LTYPE
  2
2STR3PKT
 70
     0
  3
--...--...--...
 72
    65
 73
    10
 40
34.0
 49
10.0
 49
-2.5
 49
10.0
 49
-2.5
 49
0.5
 49
-2.5
 49
0.5
 49
-2.5
 49
0.5
 49
-2.5
  0
LTYPE
  2
STRKSTR
 70
     0
  3
-- - -- - -- -
 72
    65
 73
     4
 40
30.0
 49
20.0
 49
-2.5
 49
5.0
 49
-2.5
  0
LTYPE
  2
STRKSTR2
 70
     0
  3
-- - -- - -- -
 72
    65
 73
     6
 40
37.5
 49
20.0
 49
-2.5
 49
5.0
 49
-2.5
 49
5.0
 49
-2.5
  0
LTYPE
  2
STRKSTR3
 70
     0
  3
-- - -- - -- -
 72
    65
 73
     8
 40
45.0
 49
20.0
 49
-2.5
 49
5.0
 49
-2.5
 49
5.0
 49
-2.5
 49
5.0
 49
-2.5
  0
LTYPE
  2
PUNKT2
 70
     0
  3
..............
 72
    65
 73
     2
 40
3.5
 49
0.5
 49
-3.0
  0
ENDTAB
  0
TABLE
  2
LAYER
 70
    17
  0
LAYER
  2
0
 70
     0
 62
     7
  6
CONTINUOUS
  0
LAYER
  2
LE_GREEN
 70
     0
 62
     3
  6
CONTINUOUS
  0
LAYER
  2
LE_RED
 70
     0
 62
     1
  6
CONTINUOUS
  0
LAYER
  2
LE_ALL
 70
     0
 62
     7
  6
CONTINUOUS
  0
LAYER
  2
LE_HIDDEN1
 70
     0
 62
     3
  6
HIDDEN
  0
LAYER
  2
LE_HIDDEN
 70
     0
 62
     7
  6
CONTINUOUS
  0
LAYER
  2
LE_MIDDLE
 70
     0
 62
     7
  6
CONTINUOUS
  0
LAYER
  2
TXT_YELLOW
 70
     0
 62
     2
  6
CONTINUOUS
  0
LAYER
  2
TXT_DIM49
 70
     0
 62
     2
  6
CONTINUOUS
  0
LAYER
  2
TXT_ALL
 70
     0
 62
     7
  6
CONTINUOUS
  0
LAYER
  2
DIM49
 70
     0
 62
     4
  6
CONTINUOUS
  0
LAYER
  2
HATCH
 70
     0
 62
     3
  6
CONTINUOUS
  0
LAYER
  2
APPLE
 70
     0
 62
     7
  6
CONTINUOUS
  0
LAYER
  2
10
 70
     0
 62
     7
  6
CONTINUOUS
  0
LAYER
  2
20
 70
     0
 62
     7
  6
CONTINUOUS
  0
LAYER
  2
47
 70
     0
 62
     7
  6
CONTINUOUS
  0
LAYER
  2
49
 70
     0
 62
     7
  6
CONTINUOUS
  0
ENDTAB
  0
TABLE
  2
STYLE
 70
     5
  0
STYLE
  2
MONOTXT
 70
     0
 40
0.0
 41
1.0
 50
0.0
 71
     0
 42
1.0
  3
monotxt.shx
  4

  0
STYLE
  2
STANDARD
 70
     0
 40
0.0
 41
1.0
 50
0.0
 71
     0
 42
1.0
  3
txt
  4

  0
STYLE
  2
ARIAL
 70
     0
 40
0.0
 41
1.0
 50
0.0
 71
     0
 42
1.0
  3
arial.ttf
  4

  0
STYLE
  2
ARIAL_NARROW
 70
     0
 40
0.0
 41
1.0
 50
0.0
 71
     0
 42
1.0
  3
ArialN.ttf
  4

  0
STYLE
  2
ISOCPEUR
 70
     0
 40
0.0
 41
1.0
 50
0.0
 71
     0
 42
1.0
  3
ISOCPEUR.ttf
  4

  0
ENDTAB
  0
TABLE
  2
VIEW
 70
     0
  0
ENDTAB
  0
TABLE
  2
UCS
 70
     0
  0
ENDTAB
  0
ENDSEC
  0
SECTION
  2
BLOCKS
  0
ENDSEC
  0
SECTION
  2
ENTITIES
  0
POLYLINE
  5
16E
  8
0
 66
     1
 10
0.0
 20
0.0
 30
0.0
 70
     1
  0
VERTEX
  5
16F
  8
0
 10
1639.77957992
 20
-865.93461168
 30
0.0
  0
VERTEX
  5
170
  8
0
 10
2059.77957992
 20
-865.93461168
 30
0.0
  0
VERTEX
  5
171
  8
0
 10
2059.77957992
 20
-568.93461168
 30
0.0
  0
VERTEX
  5
172
  8
0
 10
1639.77957992
 20
-568.93461168
 30
0.0
  0
SEQEND
  5
173
  8
0
  0
POLYLINE
  5
174
  8
0
 66
     1
 10
0.0
 20
0.0
 30
0.0
 70
     1
  0
VERTEX
  5
175
  8
0
 10
1644.77957992
 20
-860.93461168
 30
0.0
  0
VERTEX
  5
176
  8
0
 10
2054.77957992
 20
-860.93461168
 30
0.0
  0
VERTEX
  5
177
  8
0
 10
2054.77957992
 20
-573.93461168
 30
0.0
  0
VERTEX
  5
178
  8
0
 10
1644.77957992
 20
-573.93461168
 30
0.0
  0
SEQEND
  5
179
  8
0
  0
LINE
  5
17A
  8
0
 10
1869.77957992
 20
-860.93461168
 30
0.0
 11
1869.77957992
 21
-865.93461168
 31
0.0
  0
LINE
  5
17B
  8
0
 10
1869.77957992
 20
-573.93461168
 30
0.0
 11
1869.77957992
 21
-568.93461168
 31
0.0
  0
LINE
  5
17C
  8
0
 10
1659.77957992
 20
-860.93461168
 30
0.0
 11
1659.77957992
 21
-865.93461168
 31
0.0
  0
LINE
  5
17D
  8
0
 10
1659.77957992
 20
-573.93461168
 30
0.0
 11
1659.77957992
 21
-568.93461168
 31
0.0
  0
TEXT
  5
17E
  8
TXT_ALL
 62
     4
 10
2058.77957992
 20
-864.93461168
 30
0.0
 40
2.50000005
  1

 50
90.00020741
  0
POLYLINE
  5
17F
  8
0
 66
     1
 10
0.0
 20
0.0
 30
0.0
  0
VERTEX
  5
180
  8
0
 10
2054.77957992
 20
-583.93461168
 30
0.0
  0
VERTEX
  5
181
  8
0
 10
1985.78627992
 20
-583.93461168
 30
0.0
  0
VERTEX
  5
182
  8
0
 10
1985.78627992
 20
-573.93461168
 30
0.0
  0
SEQEND
  5
183
  8
0
  0
LINE
  5
184
  8
0
 10
1987.68957992
 20
-841.43461168
 30
0.0
 11
1847.79957992
 21
-841.43461168
 31
0.0
  0
LINE
  5
185
  8
0
 10
1847.79957992
 20
-851.18461168
 30
0.0
 11
1987.68957992
 21
-851.18461168
 31
0.0
  0
POLYLINE
  5
186
  8
0
 66
     1
 10
0.0
 20
0.0
 30
0.0
  0
VERTEX
  5
187
  8
0
 10
1847.79957992
 20
-841.43461168
 30
0.0
  0
VERTEX
  5
188
  8
0
 10
1847.79957992
 20
-851.18461168
 30
0.0
  0
VERTEX
  5
189
  8
0
 10
1847.79957992
 20
-860.93461168
 30
0.0
  0
SEQEND
  5
18A
  8
0
  0
POLYLINE
  5
18B
  8
0
 66
     1
 10
0.0
 20
0.0
 30
0.0
  0
VERTEX
  5
18C
  8
0
 10
1917.74457992
 20
-841.43461168
 30
0.0
  0
VERTEX
  5
18D
  8
0
 10
1917.74457992
 20
-851.18461168
 30
0.0
  0
VERTEX
  5
18E
  8
0
 10
1917.74457992
 20
-860.93461168
 30
0.0
  0
SEQEND
  5
18F
  8
0
  0
TEXT
  5
190
  8
TXT_ALL
 10
1849.79899739
 20
-843.679757265
 30
0.0
 40
2.52427175
  1
E-mail: verkoop@jonkers-bouwmetaal.nl
  7
ARIAL
  0
TEXT
  5
191
  8
TXT_ALL
 10
1849.79899739
 20
-853.145776675
 30
0.0
 40
2.52427175
  1
Telefoon: 0527-685156
  7
ARIAL
  0
TEXT
  5
192
  8
TXT_ALL
 10
1917.70676438
 20
-853.145776675
 30
0.0
 40
2.52427175
  1
Website: www.jonkers-bouwmetaal.nl
  7
ARIAL
  0
TEXT
  5
193
  8
TXT_ALL
 10
1917.70676438
 20
-843.679757265
 30
0.0
 40
2.52427175
  1
Adres: Hoornse Hop 10, 8321 WX Urk
  7
ARIAL
  0
TEXT
  5
194
  8
TXT_ALL
 10
1648.22154017
 20
-580.184611705
 30
0.0
 40
2.50000005
  1
Art. nr. 91002194
  7
ARIAL
  0
TEXT
  5
195
  8
TXT_ALL
 10
1690.95957699
 20
-580.184611705
 30
0.0
 40
2.50000005
  1
Omschrijving: H1503-anker 150x60 50x3
  7
ARIAL
  0
LINE
  5
196
  8
0
 10
2054.77957992
 20
-583.93461168
 30
0.0
 11
1644.77957992
 21
-583.93461168
 31
0.0
  0
LINE
  5
197
  8
0
 10
1687.79957992
 20
-583.93461168
 30
0.0
 11
1687.79957992
 21
-573.93461168
 31
0.0
  0
LINE
  5
198
  8
0
 10
1847.79957992
 20
-583.93461168
 30
0.0
 11
1847.79957992
 21
-573.93461168
 31
0.0
  0
TEXT
  5
199
  8
TXT_ALL
 10
1918.79327992
 20
-580.184611705
 30
0.0
 40
2.50000005
  1
Behandeling: Thermisch Verzinkt
  7
ARIAL
  0
LINE
  5
19A
  8
0
 10
1987.68957992
 20
-841.43461168
 30
0.0
 11
2054.77957992
 21
-841.43461168
 31
0.0
  0
LINE
  5
19B
  8
0
 10
1987.68957992
 20
-860.93461168
 30
0.0
 11
1987.68957992
 21
-841.43461168
 31
0.0
  0
LINE
  5
19C
  8
0
 10
1987.68957992
 20
-860.93461168
 30
0.0
 11
1987.68957992
 21
-841.43461168
 31
0.0
  0
TEXT
  5
19D
  8
TXT_ALL
 10
1782.14477801
 20
-859.780078285
 30
0.0
 40
2.50000005
  1

  0
TEXT
  5
19E
  8
TXT_ALL
 10
1903.27996097
 20
-849.684611705
 30
0.0
 40
2.50000005
  1

  0
POLYLINE
  5
19F
  8
0
 66
     1
 10
0.0
 20
0.0
 30
0.0
  0
VERTEX
  5
1A0
  8
0
 10
1985.78627992
 20
-583.93461168
 30
0.0
  0
VERTEX
  5
1A1
  8
0
 10
1916.79327992
 20
-583.93461168
 30
0.0
  0
VERTEX
  5
1A2
  8
0
 10
1916.79327992
 20
-573.93461168
 30
0.0
  0
SEQEND
  5
1A3
  8
0
  0
TEXT
  5
1A4
  8
TXT_ALL
 10
1987.78627992
 20
-580.184611705
 30
0.0
 40
2.50000005
  1
Verpakkingshoeveelheid: 1 st.
  7
ARIAL
  0
TEXT
  5
1A5
  8
TXT_ALL
 10
1849.79957992
 20
-580.184611705
 30
0.0
 40
2.50000005
  1
Materiaal: S355
  7
ARIAL
  0
TEXT
  5
1A6
  8
TXT_ALL
 10
2017.04165617
 20
-859.7715144399999
 30
0.0
 40
1.45631068
  1
Onderdeel van
  7
ARIAL
  0
POLYLINE
  5
1A7
  8
0
 66
     1
 10
0.0
 20
0.0
 30
0.0
  0
VERTEX
  5
1A8
  8
0
 10
1697.07386172
 20
-788.65551944
 30
0.0
  0
VERTEX
  5
1A9
  8
0
 10
1679.91107577
 20
-803.79167392
 30
0.0
  0
VERTEX
  5
1AA
  8
0
 10
1674.46206015
 20
-803.10516248
 30
0.0
  0
SEQEND
  5
1AB
  8
0
  0
POLYLINE
  5
1AC
  8
0
 66
     1
 10
0.0
 20
0.0
 30
0.0
  0
VERTEX
  5
32C
  8
0
 10
1697.07386172879
 20
-788.6555194476913
 30
0.0
  0
VERTEX
  5
32D
  8
0
 10
1697.17856304004
 20
-789.7401644664182
 30
0.0
  0
VERTEX
  5
32E
  8
0
 10
1697.488643350557
 20
-790.8095094348267
 30
0.0
  0
VERTEX
  5
32F
  8
0
 10
1697.992186448004
 20
-791.8224600258312
 30
0.0
  0
VERTEX
  5
330
  8
0
 10
1698.669841453704
 20
-792.7400891166242
 30
0.0
  0
VERTEX
  5
331
  8
0
 10
1699.495566466046
 20
-793.5271327361627
 30
0.0
  0
VERTEX
  5
332
  8
0
 10
1700.43762933615
 20
-794.153345239788
 30
0.0
  0
VERTEX
  5
333
  8
0
 10
1701.459827116547
 20
-794.5946616323773
 30
0.0
  0
VERTEX
  5
334
  8
0
 10
1702.522877320129
 20
-794.8341223726028
 30
0.0
  0
SEQEND
  5
3D1
  8
0
  0
POLYLINE
  5
1AD
  8
0
 66
     1
 10
0.0
 20
0.0
 30
0.0
  0
VERTEX
  5
1AE
  8
0
 10
1702.52287733
 20
-794.83412238
 30
0.0
  0
VERTEX
  5
1AF
  8
0
 10
1685.36009138
 20
-809.97027686
 30
0.0
  0
SEQEND
  5
1B0
  8
0
  0
POLYLINE
  5
1B1
  8
0
 66
     1
 10
0.0
 20
0.0
 30
0.0
  0
VERTEX
  5
335
  8
0
 10
1679.91107577879
 20
-803.7916739276912
 30
0.0
  0
VERTEX
  5
336
  8
0
 10
1680.015777090041
 20
-804.8763189464181
 30
0.0
  0
VERTEX
  5
337
  8
0
 10
1680.325857400557
 20
-805.9456639148267
 30
0.0
  0
VERTEX
  5
338
  8
0
 10
1680.829400498004
 20
-806.9586145058312
 30
0.0
  0
VERTEX
  5
339
  8
0
 10
1681.507055503704
 20
-807.8762435966241
 30
0.0
  0
VERTEX
  5
33A
  8
0
 10
1682.332780516046
 20
-808.6632872161626
 30
0.0
  0
VERTEX
  5
33B
  8
0
 10
1683.27484338615
 20
-809.289499719788
 30
0.0
  0
VERTEX
  5
33C
  8
0
 10
1684.297041166547
 20
-809.7308161123773
 30
0.0
  0
VERTEX
  5
33D
  8
0
 10
1685.360091370129
 20
-809.9702768526028
 30
0.0
  0
SEQEND
  5
3D2
  8
0
  0
POLYLINE
  5
1B2
  8
0
 66
     1
 10
0.0
 20
0.0
 30
0.0
  0
VERTEX
  5
1B3
  8
0
 10
1685.36009138
 20
-809.97027686
 30
0.0
  0
VERTEX
  5
1B4
  8
0
 10
1685.36009138
 20
-815.46236837
 30
0.0
  0
SEQEND
  5
1B5
  8
0
  0
POLYLINE
  5
1B6
  8
0
 66
     1
 10
0.0
 20
0.0
 30
0.0
  0
VERTEX
  5
33E
  8
0
 10
1674.46206017758
 20
-803.1051624953825
 30
0.0
  0
VERTEX
  5
33F
  8
0
 10
1674.671462800081
 20
-805.2744525328362
 30
0.0
  0
VERTEX
  5
340
  8
0
 10
1675.291623421113
 20
-807.4131424696535
 30
0.0
  0
VERTEX
  5
341
  8
0
 10
1676.298709616008
 20
-809.4390436516624
 30
0.0
  0
VERTEX
  5
342
  8
0
 10
1677.654019627408
 20
-811.274301833248
 30
0.0
  0
VERTEX
  5
343
  8
0
 10
1679.305469652091
 20
-812.8483890723252
 30
0.0
  0
VERTEX
  5
344
  8
0
 10
1681.189595392301
 20
-814.1008140795759
 30
0.0
  0
VERTEX
  5
345
  8
0
 10
1683.233990953094
 20
-814.9834468647546
 30
0.0
  0
VERTEX
  5
346
  8
0
 10
1685.360091360259
 20
-815.4623683452055
 30
0.0
  0
SEQEND
  5
3D3
  8
0
  0
POLYLINE
  5
1B7
  8
0
 66
     1
 10
0.0
 20
0.0
 30
0.0
  0
VERTEX
  5
347
  8
0
 10
1692.4693562
 20
-786.98774657
 30
0.0
  0
VERTEX
  5
348
  8
0
 10
1692.729247068421
 20
-786.9452795786576
 30
0.0
  0
VERTEX
  5
349
  8
0
 10
1692.997805543943
 20
-786.756374561865
 30
0.0
  0
VERTEX
  5
34A
  8
0
 10
1693.264711074985
 20
-786.428291033462
 30
0.0
  0
VERTEX
  5
34B
  8
0
 10
1693.519706631696
 20
-785.9736370594247
 30
0.0
  0
VERTEX
  5
34C
  8
0
 10
1693.752992877856
 20
-785.4098847369631
 30
0.0
  0
VERTEX
  5
34D
  8
0
 10
1693.955604753874
 20
-784.7586987516237
 30
0.0
  0
VERTEX
  5
34E
  8
0
 10
1694.119755998999
 20
-784.0451038155771
 30
0.0
  0
VERTEX
  5
34F
  8
0
 10
1694.239138372952
 20
-783.2965229819644
 30
0.0
  0
VERTEX
  5
350
  8
0
 10
1694.309164078062
 20
-782.5417237923466
 30
0.0
  0
VERTEX
  5
351
  8
0
 10
1694.32714206576
 20
-781.8097127562186
 30
0.0
  0
VERTEX
  5
352
  8
0
 10
1694.292381452062
 20
-781.128620647118
 30
0.0
  0
VERTEX
  5
353
  8
0
 10
1694.206218067854
 20
-780.5246214527774
 30
0.0
  0
VERTEX
  5
354
  8
0
 10
1694.071963123665
 20
-780.0209265234555
 30
0.0
  0
VERTEX
  5
355
  8
0
 10
1693.894775961696
 20
-779.6368925727668
 30
0.0
  0
VERTEX
  5
356
  8
0
 10
1693.681465785198
 20
-779.3872778100338
 30
0.0
  0
VERTEX
  5
357
  8
0
 10
1693.440229984611
 20
-779.2816747905808
 30
0.0
  0
SEQEND
  5
3D4
  8
0
  0
POLYLINE
  5
1B8
  8
0
 66
     1
 10
0.0
 20
0.0
 30
0.0
  0
VERTEX
  5
358
  8
0
 10
1693.440229984611
 20
-779.2816747905808
 30
0.0
  0
VERTEX
  5
359
  8
0
 10
1693.180339115834
 20
-779.3241417794799
 30
0.0
  0
VERTEX
  5
35A
  8
0
 10
1692.911780639752
 20
-779.5130467945677
 30
0.0
  0
VERTEX
  5
35B
  8
0
 10
1692.644875108016
 20
-779.8411303220371
 30
0.0
  0
VERTEX
  5
35C
  8
0
 10
1692.38987955055
 20
-780.2957842958904
 30
0.0
  0
VERTEX
  5
35D
  8
0
 10
1692.156593303648
 20
-780.8595366188453
 30
0.0
  0
VERTEX
  5
35E
  8
0
 10
1691.953981426969
 20
-781.5107226052371
 30
0.0
  0
VERTEX
  5
35F
  8
0
 10
1691.789830181327
 20
-782.2243175427412
 30
0.0
  0
VERTEX
  5
360
  8
0
 10
1691.670447807048
 20
-782.9728983780357
 30
0.0
  0
VERTEX
  5
361
  8
0
 10
1691.600422101837
 20
-783.7276975693634
 30
0.0
  0
VERTEX
  5
362
  8
0
 10
1691.582444114279
 20
-784.4597086070316
 30
0.0
  0
VERTEX
  5
363
  8
0
 10
1691.617204728356
 20
-785.1408007173156
 30
0.0
  0
VERTEX
  5
364
  8
0
 10
1691.70336811316
 20
-785.7447999123182
 30
0.0
  0
VERTEX
  5
365
  8
0
 10
1691.837623058126
 20
-786.2484948416492
 30
0.0
  0
VERTEX
  5
366
  8
0
 10
1692.014810220999
 20
-786.6325287916058
 30
0.0
  0
VERTEX
  5
367
  8
0
 10
1692.228120398461
 20
-786.8821435528259
 30
0.0
  0
VERTEX
  5
368
  8
0
 10
1692.4693562
 20
-786.98774657
 30
0.0
  0
SEQEND
  5
3D5
  8
0
  0
POLYLINE
  5
1B9
  8
0
 66
     1
 10
0.0
 20
0.0
 30
0.0
  0
VERTEX
  5
369
  8
0
 10
1687.82499301
 20
-780.4685036
 30
0.0
  0
VERTEX
  5
36A
  8
0
 10
1688.182342954279
 20
-780.4101114872866
 30
0.0
  0
VERTEX
  5
36B
  8
0
 10
1688.551610858556
 20
-780.1503670895164
 30
0.0
  0
VERTEX
  5
36C
  8
0
 10
1688.91860596439
 20
-779.6992522382068
 30
0.0
  0
VERTEX
  5
36D
  8
0
 10
1689.269224855708
 20
-779.0741030240661
 30
0.0
  0
VERTEX
  5
36E
  8
0
 10
1689.589993445177
 20
-778.2989435807509
 30
0.0
  0
VERTEX
  5
36F
  8
0
 10
1689.868584775821
 20
-777.4035628508857
 30
0.0
  0
VERTEX
  5
370
  8
0
 10
1690.094292739063
 20
-776.4223698137057
 30
0.0
  0
VERTEX
  5
371
  8
0
 10
1690.258443504476
 20
-775.3930711672842
 30
0.0
  0
VERTEX
  5
372
  8
0
 10
1690.354728850214
 20
-774.355222281276
 30
0.0
  0
VERTEX
  5
373
  8
0
 10
1690.379448584447
 20
-773.3487071062469
 30
0.0
  0
VERTEX
  5
374
  8
0
 10
1690.331652741653
 20
-772.4122054558251
 30
0.0
  0
VERTEX
  5
375
  8
0
 10
1690.213178089264
 20
-771.5817065631581
 30
0.0
  0
VERTEX
  5
376
  8
0
 10
1690.028577541718
 20
-770.8891260348694
 30
0.0
  0
VERTEX
  5
377
  8
0
 10
1689.784945194516
 20
-770.3610793521966
 30
0.0
  0
VERTEX
  5
378
  8
0
 10
1689.491643702109
 20
-770.0178590529767
 30
0.0
  0
VERTEX
  5
379
  8
0
 10
1689.159944476339
 20
-769.8726549007986
 30
0.0
  0
SEQEND
  5
3D6
  8
0
  0
POLYLINE
  5
1BA
  8
0
 66
     1
 10
0.0
 20
0.0
 30
0.0
  0
VERTEX
  5
37A
  8
0
 10
1689.159944476339
 20
-769.8726549007986
 30
0.0
  0
VERTEX
  5
37B
  8
0
 10
1688.80259453157
 20
-769.9310470101523
 30
0.0
  0
VERTEX
  5
37C
  8
0
 10
1688.433326626524
 20
-770.1907914055784
 30
0.0
  0
VERTEX
  5
37D
  8
0
 10
1688.066331519737
 20
-770.6419062556043
 30
0.0
  0
VERTEX
  5
37E
  8
0
 10
1687.715712627381
 20
-771.2670554694922
 30
0.0
  0
VERTEX
  5
37F
  8
0
 10
1687.394944036892
 20
-772.0422149134855
 30
0.0
  0
VERTEX
  5
380
  8
0
 10
1687.11635270534
 20
-772.9375956447979
 30
0.0
  0
VERTEX
  5
381
  8
0
 10
1686.890644741385
 20
-773.918788683982
 30
0.0
  0
VERTEX
  5
382
  8
0
 10
1686.726493975525
 20
-774.9480873327157
 30
0.0
  0
VERTEX
  5
383
  8
0
 10
1686.630208629647
 20
-775.985936221075
 30
0.0
  0
VERTEX
  5
384
  8
0
 10
1686.605488895606
 20
-776.9924513982221
 30
0.0
  0
VERTEX
  5
385
  8
0
 10
1686.65328473892
 20
-777.9289530502712
 30
0.0
  0
VERTEX
  5
386
  8
0
 10
1686.77175939213
 20
-778.7594519438483
 30
0.0
  0
VERTEX
  5
387
  8
0
 10
1686.956359940745
 20
-779.4520324721494
 30
0.0
  0
VERTEX
  5
388
  8
0
 10
1687.199992289189
 20
-779.9800791538153
 30
0.0
  0
VERTEX
  5
389
  8
0
 10
1687.493293782923
 20
-780.3232994509551
 30
0.0
  0
VERTEX
  5
38A
  8
0
 10
1687.82499301
 20
-780.4685036
 30
0.0
  0
SEQEND
  5
3D7
  8
0
  0
POLYLINE
  5
1BB
  8
0
 66
     1
 10
0.0
 20
0.0
 30
0.0
  0
VERTEX
  5
38B
  8
0
 10
1683.5447075
 20
-771.05948371
 30
0.0
  0
VERTEX
  5
38C
  8
0
 10
1683.804598368421
 20
-771.0170167186576
 30
0.0
  0
VERTEX
  5
38D
  8
0
 10
1684.073156843943
 20
-770.8281117018649
 30
0.0
  0
VERTEX
  5
38E
  8
0
 10
1684.340062374985
 20
-770.5000281734619
 30
0.0
  0
VERTEX
  5
38F
  8
0
 10
1684.595057931696
 20
-770.0453741994247
 30
0.0
  0
VERTEX
  5
390
  8
0
 10
1684.828344177856
 20
-769.4816218769631
 30
0.0
  0
VERTEX
  5
391
  8
0
 10
1685.030956053874
 20
-768.8304358916237
 30
0.0
  0
VERTEX
  5
392
  8
0
 10
1685.195107298999
 20
-768.1168409555771
 30
0.0
  0
VERTEX
  5
393
  8
0
 10
1685.314489672952
 20
-767.3682601219643
 30
0.0
  0
VERTEX
  5
394
  8
0
 10
1685.384515378062
 20
-766.6134609323466
 30
0.0
  0
VERTEX
  5
395
  8
0
 10
1685.40249336576
 20
-765.8814498962187
 30
0.0
  0
VERTEX
  5
396
  8
0
 10
1685.367732752062
 20
-765.200357787118
 30
0.0
  0
VERTEX
  5
397
  8
0
 10
1685.281569367854
 20
-764.5963585927774
 30
0.0
  0
VERTEX
  5
398
  8
0
 10
1685.147314423665
 20
-764.0926636634555
 30
0.0
  0
VERTEX
  5
399
  8
0
 10
1684.970127261696
 20
-763.7086297127668
 30
0.0
  0
VERTEX
  5
39A
  8
0
 10
1684.756817085198
 20
-763.4590149500337
 30
0.0
  0
VERTEX
  5
39B
  8
0
 10
1684.515581284611
 20
-763.3534119305808
 30
0.0
  0
SEQEND
  5
3D8
  8
0
  0
POLYLINE
  5
1BC
  8
0
 66
     1
 10
0.0
 20
0.0
 30
0.0
  0
VERTEX
  5
39C
  8
0
 10
1684.515581284611
 20
-763.3534119305808
 30
0.0
  0
VERTEX
  5
39D
  8
0
 10
1684.255690415595
 20
-763.3958789195842
 30
0.0
  0
VERTEX
  5
39E
  8
0
 10
1683.987131939268
 20
-763.5847839350347
 30
0.0
  0
VERTEX
  5
39F
  8
0
 10
1683.720226407308
 20
-763.9128674630981
 30
0.0
  0
VERTEX
  5
3A0
  8
0
 10
1683.465230849668
 20
-764.3675214377307
 30
0.0
  0
VERTEX
  5
3A1
  8
0
 10
1683.231944602663
 20
-764.9312737615896
 30
0.0
  0
VERTEX
  5
3A2
  8
0
 10
1683.029332725975
 20
-765.5824597489366
 30
0.0
  0
VERTEX
  5
3A3
  8
0
 10
1682.86518148043
 20
-766.2960546873654
 30
0.0
  0
VERTEX
  5
3A4
  8
0
 10
1682.745799106363
 20
-767.0446355234692
 30
0.0
  0
VERTEX
  5
3A5
  8
0
 10
1682.675773401479
 20
-767.7994347154087
 30
0.0
  0
VERTEX
  5
3A6
  8
0
 10
1682.657795414354
 20
-768.5314457534157
 30
0.0
  0
VERTEX
  5
3A7
  8
0
 10
1682.692556028957
 20
-769.212537863702
 30
0.0
  0
VERTEX
  5
3A8
  8
0
 10
1682.778719414355
 20
-769.8165370583233
 30
0.0
  0
VERTEX
  5
3A9
  8
0
 10
1682.912974359955
 20
-770.3202319868628
 30
0.0
  0
VERTEX
  5
3AA
  8
0
 10
1683.090161523469
 20
-770.7042659356134
 30
0.0
  0
VERTEX
  5
3AB
  8
0
 10
1683.303471701541
 20
-770.953880695233
 30
0.0
  0
VERTEX
  5
3AC
  8
0
 10
1683.544707503622
 20
-771.0594837104563
 30
0.0
  0
SEQEND
  5
3D9
  8
0
  0
POLYLINE
  5
1BD
  8
0
 66
     1
 10
0.0
 20
0.0
 30
0.0
  0
VERTEX
  5
1BE
  8
0
 10
1697.07386172
 20
-744.71878741
 30
0.0
  0
VERTEX
  5
1BF
  8
0
 10
1679.91107577
 20
-759.85494188
 30
0.0
  0
VERTEX
  5
1C0
  8
0
 10
1674.46206015
 20
-759.16843045
 30
0.0
  0
SEQEND
  5
1C1
  8
0
  0
LINE
  5
1C2
  8
0
 10
1691.6248461
 20
-744.03227597
 30
0.0
 11
1674.46206015
 21
-759.16843045
 31
0.0
  0
LINE
  5
1C3
  8
0
 10
1697.07386172
 20
-744.71878741
 30
0.0
 11
1691.6248461
 21
-744.03227597
 31
0.0
  0
POLYLINE
  5
1C4
  8
0
 66
     1
 10
0.0
 20
0.0
 30
0.0
  0
VERTEX
  5
1C5
  8
0
 10
1697.07386172
 20
-744.71878741
 30
0.0
  0
VERTEX
  5
1C6
  8
0
 10
1697.07386172
 20
-788.65551944
 30
0.0
  0
VERTEX
  5
1C7
  8
0
 10
1679.91107577
 20
-803.79167392
 30
0.0
  0
VERTEX
  5
1C8
  8
0
 10
1679.91107577
 20
-759.85494188
 30
0.0
  0
SEQEND
  5
1C9
  8
0
  0
POLYLINE
  5
1CA
  8
0
 66
     1
 10
0.0
 20
0.0
 30
0.0
  0
VERTEX
  5
1CB
  8
0
 10
1679.91107577
 20
-803.79167392
 30
0.0
  0
VERTEX
  5
1CC
  8
0
 10
1674.46206015
 20
-803.10516248
 30
0.0
  0
VERTEX
  5
1CD
  8
0
 10
1674.46206015
 20
-759.16843045
 30
0.0
  0
SEQEND
  5
1CE
  8
0
  0
LINE
  5
1CF
  8
0
  6
STRICHPUNKT2
 62
     1
 10
1682.7457991
 20
-767.04463552
 30
0.0
 11
1685.84648293
 21
-767.43528496
 31
0.0
  0
LINE
  5
1D0
  8
0
  6
STRICHPUNKT2
 62
     1
 10
1684.03014439
 20
-767.20644782
 30
0.0
 11
1686.08967871
 21
-765.39010928
 31
0.0
  0
LINE
  5
1D1
  8
0
  6
STRICHPUNKT2
 62
     1
 10
1684.03014439
 20
-767.20644782
 30
0.0
 11
1681.97061008
 21
-769.02278636
 31
0.0
  0
LINE
  5
1D2
  8
0
  6
STRICHPUNKT2
 62
     1
 10
1684.03014439
 20
-767.20644782
 30
0.0
 11
1684.03014439
 21
-772.69853932
 31
0.0
  0
LINE
  5
1D3
  8
0
  6
STRICHPUNKT2
 62
     1
 10
1684.03014439
 20
-767.20644782
 30
0.0
 11
1684.03014439
 21
-761.71435631
 31
0.0
  0
LINE
  5
1D4
  8
0
  6
STRICHPUNKT2
 62
     1
 10
1686.72649396
 20
-774.94808734
 30
0.0
 11
1690.98993423
 21
-775.48523032
 31
0.0
  0
LINE
  5
1D5
  8
0
  6
STRICHPUNKT2
 62
     1
 10
1688.49246874
 20
-775.17057925
 30
0.0
 11
1691.32432842
 21
-772.67311376
 31
0.0
  0
LINE
  5
1D6
  8
0
  6
STRICHPUNKT2
 62
     1
 10
1688.49246874
 20
-775.17057925
 30
0.0
 11
1685.66060906
 21
-777.66804474
 31
0.0
  0
LINE
  5
1D7
  8
0
  6
STRICHPUNKT2
 62
     1
 10
1688.49246874
 20
-775.17057925
 30
0.0
 11
1688.49246874
 21
-782.72220507
 31
0.0
  0
LINE
  5
1D8
  8
0
  6
STRICHPUNKT2
 62
     1
 10
1688.49246874
 20
-775.17057925
 30
0.0
 11
1688.49246874
 21
-767.61895343
 31
0.0
  0
LINE
  5
1D9
  8
0
  6
STRICHPUNKT2
 62
     1
 10
1691.67044779
 20
-782.97289838
 30
0.0
 11
1694.77113163
 21
-783.36354782
 31
0.0
  0
LINE
  5
1DA
  8
0
  6
STRICHPUNKT2
 62
     1
 10
1692.95479309
 20
-783.13471068
 30
0.0
 11
1695.0143274
 21
-781.31837214
 31
0.0
  0
LINE
  5
1DB
  8
0
  6
STRICHPUNKT2
 62
     1
 10
1692.95479309
 20
-783.13471068
 30
0.0
 11
1690.89525877
 21
-784.95104921
 31
0.0
  0
LINE
  5
1DC
  8
0
  6
STRICHPUNKT2
 62
     1
 10
1692.95479309
 20
-783.13471068
 30
0.0
 11
1692.95479309
 21
-788.62680218
 31
0.0
  0
LINE
  5
1DD
  8
0
  6
STRICHPUNKT2
 62
     1
 10
1692.95479309
 20
-783.13471068
 30
0.0
 11
1692.95479309
 21
-777.64261917
 31
0.0
  0
POLYLINE
  5
1DE
  8
0
 66
     1
 10
0.0
 20
0.0
 30
0.0
  0
VERTEX
  5
3AD
  8
0
 10
1792.46269698
 20
-813.9584755
 30
0.0
  0
VERTEX
  5
3AE
  8
0
 10
1792.325097043939
 20
-813.5049269466393
 30
0.0
  0
VERTEX
  5
3AF
  8
0
 10
1791.917869165666
 20
-813.0697442502922
 30
0.0
  0
VERTEX
  5
3B0
  8
0
 10
1791.257503506883
 20
-812.6705495665507
 30
0.0
  0
VERTEX
  5
3B1
  8
0
 10
1790.370740713495
 20
-812.3235077633827
 30
0.0
  0
VERTEX
  5
3B2
  8
0
 10
1789.293489088036
 20
-812.0426718458912
 30
0.0
  0
VERTEX
  5
3B3
  8
0
 10
1788.069370529803
 20
-811.8394138982037
 30
0.0
  0
SEQEND
  5
3DA
  8
0
  0
POLYLINE
  5
1DF
  8
0
 66
     1
 10
0.0
 20
0.0
 30
0.0
  0
VERTEX
  5
3B4
  8
0
 10
1783.263790470948
 20
-816.0775371069303
 30
0.0
  0
VERTEX
  5
3B5
  8
0
 10
1784.529185864781
 20
-816.1918966941167
 30
0.0
  0
VERTEX
  5
3B6
  8
0
 10
1785.836911170131
 20
-816.2231360341494
 30
0.0
  0
VERTEX
  5
3B7
  8
0
 10
1787.138297353645
 20
-816.1700925063496
 30
0.0
  0
VERTEX
  5
3B8
  8
0
 10
1788.384911302257
 20
-816.0347402081927
 30
0.0
  0
VERTEX
  5
3B9
  8
0
 10
1789.530358336905
 20
-815.8221164861968
 30
0.0
  0
VERTEX
  5
3BA
  8
0
 10
1790.532008862744
 20
-815.5401344632289
 30
0.0
  0
VERTEX
  5
3BB
  8
0
 10
1791.352584895896
 20
-815.1992885393171
 30
0.0
  0
VERTEX
  5
3BC
  8
0
 10
1791.961547421657
 20
-814.8122638262134
 30
0.0
  0
VERTEX
  5
3BD
  8
0
 10
1792.336232951483
 20
-814.3934640512098
 30
0.0
  0
VERTEX
  5
3BE
  8
0
 10
1792.46269698
 20
-813.9584755
 30
0.0
  0
SEQEND
  5
3DB
  8
0
  0
POLYLINE
  5
1E0
  8
0
 66
     1
 10
0.0
 20
0.0
 30
0.0
  0
VERTEX
  5
1E1
  8
0
 10
1783.26379045
 20
-816.07753712
 30
0.0
  0
VERTEX
  5
1E2
  8
0
 10
1741.48800409
 20
-810.81428276
 30
0.0
  0
SEQEND
  5
1E3
  8
0
  0
POLYLINE
  5
1E4
  8
0
 66
     1
 10
0.0
 20
0.0
 30
0.0
  0
VERTEX
  5
3BF
  8
0
 10
1737.09467763
 20
-808.6952211318677
 30
0.0
  0
VERTEX
  5
3C0
  8
0
 10
1737.232277563445
 20
-809.1487696890922
 30
0.0
  0
VERTEX
  5
3C1
  8
0
 10
1737.63950544365
 20
-809.5839523891733
 30
0.0
  0
VERTEX
  5
3C2
  8
0
 10
1738.299871108565
 20
-809.9831470760773
 30
0.0
  0
VERTEX
  5
3C3
  8
0
 10
1739.186633911596
 20
-810.3301888814418
 30
0.0
  0
VERTEX
  5
3C4
  8
0
 10
1740.263885549227
 20
-810.6110247998436
 30
0.0
  0
VERTEX
  5
3C5
  8
0
 10
1741.488004120948
 20
-810.8142827469303
 30
0.0
  0
SEQEND
  5
3DC
  8
0
  0
POLYLINE
  5
1E5
  8
0
 66
     1
 10
0.0
 20
0.0
 30
0.0
  0
VERTEX
  5
3C6
  8
0
 10
1746.293584179803
 20
-806.5761595382037
 30
0.0
  0
VERTEX
  5
3C7
  8
0
 10
1745.028188786279
 20
-806.4617999482065
 30
0.0
  0
VERTEX
  5
3C8
  8
0
 10
1743.720463479587
 20
-806.4305606055185
 30
0.0
  0
VERTEX
  5
3C9
  8
0
 10
1742.419077293272
 20
-806.4836041309206
 30
0.0
  0
VERTEX
  5
3CA
  8
0
 10
1741.172463340643
 20
-806.6189564270211
 30
0.0
  0
VERTEX
  5
3CB
  8
0
 10
1740.027016301049
 20
-806.8315801473635
 30
0.0
  0
VERTEX
  5
3CC
  8
0
 10
1739.025365769642
 20
-807.1135621691194
 30
0.0
  0
VERTEX
  5
3CD
  8
0
 10
1738.204789730617
 20
-807.4544080922752
 30
0.0
  0
VERTEX
  5
3CE
  8
0
 10
1737.595827198983
 20
-807.8414328050703
 30
0.0
  0
VERTEX
  5
3CF
  8
0
 10
1737.221141663569
 20
-808.2602325801822
 30
0.0
  0
VERTEX
  5
3D0
  8
0
 10
1737.09467763
 20
-808.6952211318677
 30
0.0
  0
SEQEND
  5
3DD
  8
0
  0
LINE
  5
1E6
  8
0
 10
1746.29358416
 20
-806.57615951
 30
0.0
 11
1788.06937052
 21
-811.83941387
 31
0.0
  0
LINE
  5
1E7
  8
0
 10
1810.68745045
 20
-825.76003994
 30
0.0
 11
1685.36009138
 21
-809.97027686
 31
0.0
  0
LINE
  5
1E8
  8
0
 10
1702.52287733
 20
-794.83412238
 30
0.0
 11
1685.36009138
 21
-809.97027686
 31
0.0
  0
POLYLINE
  5
1E9
  8
0
 66
     1
 10
0.0
 20
0.0
 30
0.0
  0
VERTEX
  5
1EA
  8
0
 10
1702.52287733
 20
-794.83412238
 30
0.0
  0
VERTEX
  5
1EB
  8
0
 10
1827.8502364
 20
-810.62388546
 30
0.0
  0
VERTEX
  5
1EC
  8
0
 10
1810.68745045
 20
-825.76003994
 30
0.0
  0
VERTEX
  5
1ED
  8
0
 10
1810.68745045
 20
-831.25213144
 30
0.0
  0
VERTEX
  5
1EE
  8
0
 10
1685.36009138
 20
-815.46236837
 30
0.0
  0
SEQEND
  5
1EF
  8
0
  0
LINE
  5
1F0
  8
0
 10
1685.36009138
 20
-809.97027686
 30
0.0
 11
1685.36009138
 21
-815.46236837
 31
0.0
  0
LINE
  5
1F1
  8
0
 10
1827.8502364
 20
-816.11597696
 30
0.0
 11
1810.68745045
 21
-831.25213144
 31
0.0
  0
LINE
  5
1F2
  8
0
 10
1827.8502364
 20
-810.62388546
 30
0.0
 11
1827.8502364
 21
-816.11597696
 31
0.0
  0
LINE
  5
1F3
  8
0
  6
STRICHPUNKT2
 62
     1
 10
1785.66658048
 20
-810.75475545
 30
0.0
 11
1785.66658048
 21
-816.22384766
 31
0.0
  0
LINE
  5
1F4
  8
0
  6
STRICHPUNKT2
 62
     1
 10
1743.89079413
 20
-805.49150109
 30
0.0
 11
1743.89079413
 21
-811.11700585
 31
0.0
  0
LINE
  5
1F5
  8
0
  6
STRICHPUNKT2
 62
     1
 10
1795.20235781
 20
-815.15987051
 30
0.0
 11
1734.35501681
 21
-807.49382612
 31
0.0
  0
LINE
  5
1F6
  8
0
  6
STRICHPUNKT2
 62
     1
 10
1789.27076553
 20
-810.77988306
 30
0.0
 11
1782.06239543
 21
-817.13706794
 31
0.0
  0
LINE
  5
1F7
  8
0
  6
STRICHPUNKT2
 62
     1
 10
1747.49497918
 20
-805.5166287
 30
0.0
 11
1740.28660908
 21
-811.87381358
 31
0.0
  0
POLYLINE
  5
1F8
  8
0
 66
     1
 10
0.0
 20
0.0
 30
0.0
  0
VERTEX
  5
1F9
  8
0
 10
1866.11254559
 20
-668.26410277
 30
0.0
 42
-0.414213562
  0
VERTEX
  5
1FA
  8
0
 10
1860.28730287
 20
-662.43886005
 30
0.0
  0
VERTEX
  5
1FB
  8
0
 10
1854.46206015
 20
-662.43886005
 30
0.0
  0
SEQEND
  5
1FC
  8
0
  0
ARC
  5
1FD
  8
0
 10
1866.11254559
 20
-662.43886005
 30
0.0
 40
11.65048544
 50
180.0
 51
-90.0
  0
LINE
  5
1FE
  8
0
 10
1866.11254559
 20
-668.26410277
 30
0.0
 11
1866.11254559
 21
-674.08934549
 31
0.0
  0
POLYLINE
  5
1FF
  8
0
 66
     1
 10
0.0
 20
0.0
 30
0.0
  0
VERTEX
  5
200
  8
0
 10
1860.28730287
 20
-662.43886005
 30
0.0
  0
VERTEX
  5
201
  8
0
 10
1860.28730287
 20
-615.83691831
 30
0.0
  0
VERTEX
  5
202
  8
0
 10
1854.46206015
 20
-615.83691831
 30
0.0
  0
SEQEND
  5
203
  8
0
  0
LINE
  5
204
  8
0
 10
1854.46206015
 20
-662.43886005
 30
0.0
 11
1854.46206015
 21
-615.83691831
 31
0.0
  0
LINE
  5
205
  8
0
 10
1860.28730287
 20
-662.43886005
 30
0.0
 11
1854.46206015
 21
-662.43886005
 31
0.0
  0
LINE
  5
206
  8
0
  6
STRICHPUNKT2
 62
     1
 10
1860.28730287
 20
-627.48740374
 30
0.0
 11
1862.22905044
 21
-627.48740374
 31
0.0
  0
LINE
  5
207
  8
0
  6
STRICHPUNKT2
 62
     1
 10
1852.52031258
 20
-627.48740374
 30
0.0
 11
1854.46206015
 21
-627.48740374
 31
0.0
  0
LINE
  5
208
  8
0
  6
STRICHPUNKT2
 62
     1
 10
1860.28730287
 20
-652.73012219
 30
0.0
 11
1862.22905044
 21
-652.73012219
 31
0.0
  0
LINE
  5
209
  8
0
  6
STRICHPUNKT2
 62
     1
 10
1852.52031258
 20
-652.73012219
 30
0.0
 11
1854.46206015
 21
-652.73012219
 31
0.0
  0
LINE
  5
20A
  8
0
  6
STRICHPUNKT2
 62
     1
 10
1860.28730287
 20
-640.10876297
 30
0.0
 11
1862.95720578
 21
-640.10876297
 31
0.0
  0
LINE
  5
20B
  8
0
  6
STRICHPUNKT2
 62
     1
 10
1851.79215724
 20
-640.10876297
 30
0.0
 11
1854.46206015
 21
-640.10876297
 31
0.0
  0
POLYLINE
  5
20C
  8
0
 66
     1
 10
0.0
 20
0.0
 30
0.0
  0
VERTEX
  5
20D
  8
0
 10
2000.09312811
 20
-668.26410277
 30
0.0
  0
VERTEX
  5
20E
  8
0
 10
1866.11254559
 20
-668.26410277
 30
0.0
  0
VERTEX
  5
20F
  8
0
 10
1866.11254559
 20
-674.08934549
 30
0.0
  0
SEQEND
  5
210
  8
0
  0
LINE
  5
211
  8
0
 10
2000.09312811
 20
-674.08934549
 30
0.0
 11
1866.11254559
 21
-674.08934549
 31
0.0
  0
LINE
  5
212
  8
0
 10
2000.09312811
 20
-668.26410277
 30
0.0
 11
2000.09312811
 21
-674.08934549
 31
0.0
  0
LINE
  5
213
  8
0
  6
STRICHPUNKT2
 62
     1
 10
1964.17079802
 20
-674.08934549
 30
0.0
 11
1964.17079802
 21
-677.48740374
 31
0.0
  0
LINE
  5
214
  8
0
  6
STRICHPUNKT2
 62
     1
 10
1964.17079802
 20
-664.86604452
 30
0.0
 11
1964.17079802
 21
-668.26410277
 31
0.0
  0
LINE
  5
215
  8
0
  6
STRICHPUNKT2
 62
     1
 10
1919.51060384
 20
-674.08934549
 30
0.0
 11
1919.51060384
 21
-677.48740374
 31
0.0
  0
LINE
  5
216
  8
0
  6
STRICHPUNKT2
 62
     1
 10
1919.51060384
 20
-664.86604452
 30
0.0
 11
1919.51060384
 21
-668.26410277
 31
0.0
  0
LINE
  5
217
  8
0
 10
1753.4534146
 20
-662.43886005
 30
0.0
 11
1801.99710392
 21
-662.43886005
 31
0.0
  0
LINE
  5
218
  8
0
 10
1801.99710392
 20
-674.08934549
 30
0.0
 11
1801.99710392
 21
-662.43886005
 31
0.0
  0
LINE
  5
219
  8
0
 10
1753.4534146
 20
-674.08934549
 30
0.0
 11
1801.99710392
 21
-674.08934549
 31
0.0
  0
LINE
  5
21A
  8
0
 10
1753.4534146
 20
-662.43886005
 30
0.0
 11
1753.4534146
 21
-674.08934549
 31
0.0
  0
CIRCLE
  5
21B
  8
0
 10
1765.10390004
 20
-652.73012219
 30
0.0
 40
3.88349515
  0
CIRCLE
  5
21C
  8
0
 10
1777.72525926
 20
-640.10876297
 30
0.0
 40
5.33980583
  0
CIRCLE
  5
21D
  8
0
 10
1790.34661848
 20
-627.48740374
 30
0.0
 40
3.88349515
  0
LINE
  5
21E
  8
0
 10
1753.4534146
 20
-615.83691831
 30
0.0
 11
1801.99710392
 21
-615.83691831
 31
0.0
  0
LINE
  5
21F
  8
0
 10
1801.99710392
 20
-662.43886005
 30
0.0
 11
1801.99710392
 21
-615.83691831
 31
0.0
  0
LINE
  5
220
  8
0
 10
1753.4534146
 20
-662.43886005
 30
0.0
 11
1801.99710392
 21
-662.43886005
 31
0.0
  0
LINE
  5
221
  8
0
 10
1753.4534146
 20
-615.83691831
 30
0.0
 11
1753.4534146
 21
-662.43886005
 31
0.0
  0
LINE
  5
222
  8
0
  6
STRICHPUNKT2
 62
     1
 10
1790.34661848
 20
-627.48740374
 30
0.0
 11
1784.52137576
 21
-627.48740374
 31
0.0
  0
LINE
  5
223
  8
0
  6
STRICHPUNKT2
 62
     1
 10
1790.34661848
 20
-627.48740374
 30
0.0
 11
1796.1718612
 21
-627.48740374
 31
0.0
  0
LINE
  5
224
  8
0
  6
STRICHPUNKT2
 62
     1
 10
1790.34661848
 20
-627.48740374
 30
0.0
 11
1790.34661848
 21
-633.31264646
 31
0.0
  0
LINE
  5
225
  8
0
  6
STRICHPUNKT2
 62
     1
 10
1790.34661848
 20
-627.48740374
 30
0.0
 11
1790.34661848
 21
-621.66216102
 31
0.0
  0
LINE
  5
226
  8
0
  6
STRICHPUNKT2
 62
     1
 10
1777.72525926
 20
-640.10876297
 30
0.0
 11
1769.71555052
 21
-640.10876297
 31
0.0
  0
LINE
  5
227
  8
0
  6
STRICHPUNKT2
 62
     1
 10
1777.72525926
 20
-640.10876297
 30
0.0
 11
1785.734968
 21
-640.10876297
 31
0.0
  0
LINE
  5
228
  8
0
  6
STRICHPUNKT2
 62
     1
 10
1777.72525926
 20
-640.10876297
 30
0.0
 11
1777.72525926
 21
-648.1184717
 31
0.0
  0
LINE
  5
229
  8
0
  6
STRICHPUNKT2
 62
     1
 10
1777.72525926
 20
-640.10876297
 30
0.0
 11
1777.72525926
 21
-632.09905423
 31
0.0
  0
LINE
  5
22A
  8
0
  6
STRICHPUNKT2
 62
     1
 10
1765.10390004
 20
-652.73012219
 30
0.0
 11
1759.27865732
 21
-652.73012219
 31
0.0
  0
LINE
  5
22B
  8
0
  6
STRICHPUNKT2
 62
     1
 10
1765.10390004
 20
-652.73012219
 30
0.0
 11
1770.92914275
 21
-652.73012219
 31
0.0
  0
LINE
  5
22C
  8
0
  6
STRICHPUNKT2
 62
     1
 10
1765.10390004
 20
-652.73012219
 30
0.0
 11
1765.10390004
 21
-658.55536491
 31
0.0
  0
LINE
  5
22D
  8
0
  6
STRICHPUNKT2
 62
     1
 10
1765.10390004
 20
-652.73012219
 30
0.0
 11
1765.10390004
 21
-646.90487947
 31
0.0
  0
LINE
  5
22E
  8
0
 10
1753.4534146
 20
-674.08934549
 30
0.0
 11
1801.99710392
 21
-674.08934549
 31
0.0
  0
LINE
  5
22F
  8
0
  6
STRICHPUNKT2
 62
     1
 10
1777.72525926
 20
-674.08934549
 30
0.0
 11
1777.72525926
 21
-677.48740374
 31
0.0
  0
POLYLINE
  5
230
  8
0
 66
     1
 10
0.0
 20
0.0
 30
0.0
  0
VERTEX
  5
231
  8
0
 10
1860.28730287
 20
-703.71708767
 30
0.0
  0
VERTEX
  5
232
  8
0
 10
1866.11254559
 20
-703.71708767
 30
0.0
  0
VERTEX
  5
233
  8
0
 10
1866.11254559
 20
-752.26077699
 30
0.0
  0
VERTEX
  5
234
  8
0
 10
1860.28730287
 20
-752.26077699
 30
0.0
  0
SEQEND
  5
235
  8
0
  0
POLYLINE
  5
236
  8
0
 66
     1
 10
0.0
 20
0.0
 30
0.0
  0
VERTEX
  5
237
  8
0
 10
1860.28730287
 20
-703.71708767
 30
0.0
  0
VERTEX
  5
238
  8
0
 10
1860.28730287
 20
-752.26077699
 30
0.0
  0
VERTEX
  5
239
  8
0
 10
1854.46206015
 20
-752.26077699
 30
0.0
  0
SEQEND
  5
23A
  8
0
  0
LINE
  5
23B
  8
0
 10
1854.46206015
 20
-703.71708767
 30
0.0
 11
1854.46206015
 21
-752.26077699
 31
0.0
  0
LINE
  5
23C
  8
0
 10
1860.28730287
 20
-703.71708767
 30
0.0
 11
1854.46206015
 21
-703.71708767
 31
0.0
  0
LINE
  5
23D
  8
0
  6
STRICHPUNKT2
 62
     1
 10
1860.28730287
 20
-740.61029156
 30
0.0
 11
1862.22905044
 21
-740.61029156
 31
0.0
  0
LINE
  5
23E
  8
0
  6
STRICHPUNKT2
 62
     1
 10
1852.52031258
 20
-740.61029156
 30
0.0
 11
1854.46206015
 21
-740.61029156
 31
0.0
  0
LINE
  5
23F
  8
0
  6
STRICHPUNKT2
 62
     1
 10
1860.28730287
 20
-715.36757311
 30
0.0
 11
1862.22905044
 21
-715.36757311
 31
0.0
  0
LINE
  5
240
  8
0
  6
STRICHPUNKT2
 62
     1
 10
1852.52031258
 20
-715.36757311
 30
0.0
 11
1854.46206015
 21
-715.36757311
 31
0.0
  0
LINE
  5
241
  8
0
  6
STRICHPUNKT2
 62
     1
 10
1860.28730287
 20
-727.98893233
 30
0.0
 11
1862.95720578
 21
-727.98893233
 31
0.0
  0
LINE
  5
242
  8
0
  6
STRICHPUNKT2
 62
     1
 10
1851.79215724
 20
-727.98893233
 30
0.0
 11
1854.46206015
 21
-727.98893233
 31
0.0
  0
POLYLINE
  5
243
  8
0
 66
     1
 10
0.0
 20
0.0
 30
0.0
 70
     1
  0
VERTEX
  5
244
  8
0
 10
1964.17079802
 20
-721.19281583
 30
0.0
 42
-1.0
  0
VERTEX
  5
245
  8
0
 10
1964.17079802
 20
-734.78504884
 30
0.0
  0
VERTEX
  5
246
  8
0
 10
1919.51060384
 20
-734.78504884
 30
0.0
 42
-1.0
  0
VERTEX
  5
247
  8
0
 10
1919.51060384
 20
-721.19281583
 30
0.0
  0
SEQEND
  5
248
  8
0
  0
LINE
  5
249
  8
0
 10
2000.09312811
 20
-752.26077699
 30
0.0
 11
1866.11254559
 21
-752.26077699
 31
0.0
  0
LINE
  5
24A
  8
0
 10
1866.11254559
 20
-703.71708767
 30
0.0
 11
1866.11254559
 21
-752.26077699
 31
0.0
  0
POLYLINE
  5
24B
  8
0
 66
     1
 10
0.0
 20
0.0
 30
0.0
  0
VERTEX
  5
24C
  8
0
 10
1866.11254559
 20
-703.71708767
 30
0.0
  0
VERTEX
  5
24D
  8
0
 10
2000.09312811
 20
-703.71708767
 30
0.0
  0
VERTEX
  5
24E
  8
0
 10
2000.09312811
 20
-752.26077699
 30
0.0
  0
SEQEND
  5
24F
  8
0
  0
LINE
  5
250
  8
0
  6
STRICHPUNKT2
 62
     1
 10
1974.36497277
 20
-727.98893233
 30
0.0
 11
1909.31642909
 21
-727.98893233
 31
0.0
  0
LINE
  5
251
  8
0
  6
STRICHPUNKT2
 62
     1
 10
1964.17079802
 20
-717.79475758
 30
0.0
 11
1964.17079802
 21
-738.18310709
 31
0.0
  0
LINE
  5
252
  8
0
  6
STRICHPUNKT2
 62
     1
 10
1919.51060384
 20
-717.79475758
 30
0.0
 11
1919.51060384
 21
-738.18310709
 31
0.0
  0
TEXT
  5
253
  8
TXT_DIM49
 10
1842.19448204
 20
-646.76394748
 30
0.0
 40
2.42718447
  1
60
 50
90.00020741
  7
ARIAL
  0
LINE
  5
254
  8
0
 62
     4
 10
1844.62166651
 20
-616.80779209
 30
0.0
 11
1842.67991893
 21
-614.86604452
 31
0.0
  0
LINE
  5
255
  8
0
 62
     4
 10
1842.92263738
 20
-673.36119015
 30
0.0
 11
1844.37894806
 21
-674.81750083
 31
0.0
  0
LINE
  5
256
  8
0
 62
     4
 10
1843.65079272
 20
-615.83691831
 30
0.0
 11
1843.65079272
 21
-674.08934549
 31
0.0
  0
LINE
  5
257
  8
0
 62
     4
 10
1845.59254029
 20
-615.83691831
 30
0.0
 11
1841.70904515
 21
-615.83691831
 31
0.0
  0
LINE
  5
258
  8
0
 62
     4
 10
1845.59254029
 20
-674.08934549
 30
0.0
 11
1841.70904515
 21
-674.08934549
 31
0.0
  0
TEXT
  5
259
  8
TXT_DIM49
 10
1924.57637076
 20
-680.4000251
 30
0.0
 40
2.42718447
  1
150
  7
ARIAL
  0
LINE
  5
25A
  8
0
 62
     4
 10
1855.43293394
 20
-680.88546199
 30
0.0
 11
1853.49118637
 21
-682.82720957
 31
0.0
  0
LINE
  5
25B
  8
0
 62
     4
 10
1999.36497277
 20
-682.58449112
 30
0.0
 11
2000.82128345
 21
-681.12818044
 31
0.0
  0
LINE
  5
25C
  8
0
 62
     4
 10
1854.46206015
 20
-681.85633578
 30
0.0
 11
2000.09312811
 21
-681.85633578
 31
0.0
  0
LINE
  5
25D
  8
0
 62
     4
 10
1854.46206015
 20
-679.91458821
 30
0.0
 11
1854.46206015
 21
-683.79808335
 31
0.0
  0
LINE
  5
25E
  8
0
 62
     4
 10
2000.09312811
 20
-679.91458821
 30
0.0
 11
2000.09312811
 21
-683.79808335
 31
0.0
  0
TEXT
  5
25F
  8
TXT_DIM49
 10
2007.24302573
 20
-672.07713192
 30
0.0
 40
2.42718447
  1
6
 50
90.00020741
  7
ARIAL
  0
LINE
  5
260
  8
0
 62
     4
 10
2009.6702102
 20
-669.23497656
 30
0.0
 11
2007.72846262
 21
-667.29322898
 31
0.0
  0
LINE
  5
261
  8
0
 62
     4
 10
2007.97118107
 20
-673.36119015
 30
0.0
 11
2009.42749175
 21
-674.81750083
 31
0.0
  0
LINE
  5
262
  8
0
 62
     4
 10
2008.69933641
 20
-668.26410277
 30
0.0
 11
2008.69933641
 21
-674.08934549
 31
0.0
  0
LINE
  5
263
  8
0
 62
     4
 10
2006.75758884
 20
-668.26410277
 30
0.0
 11
2010.64108398
 21
-668.26410277
 31
0.0
  0
LINE
  5
264
  8
0
 62
     4
 10
2006.75758884
 20
-674.08934549
 30
0.0
 11
2010.64108398
 21
-674.08934549
 31
0.0
  0
TEXT
  5
265
  8
TXT_DIM49
 10
1856.47427372
 20
-608.17118031
 30
0.0
 40
2.42718447
  1
6
  7
ARIAL
  0
LINE
  5
266
  8
0
 62
     4
 10
1855.43293394
 20
-608.65661721
 30
0.0
 11
1853.49118637
 21
-610.59836478
 31
0.0
  0
LINE
  5
267
  8
0
 62
     4
 10
1859.55914753
 20
-610.35564633
 30
0.0
 11
1861.01545821
 21
-608.89933565
 31
0.0
  0
LINE
  5
268
  8
0
 62
     4
 10
1854.46206015
 20
-609.62749099
 30
0.0
 11
1860.28730287
 21
-609.62749099
 31
0.0
  0
LINE
  5
269
  8
0
 62
     4
 10
1854.46206015
 20
-611.56923856
 30
0.0
 11
1854.46206015
 21
-607.68574342
 31
0.0
  0
LINE
  5
26A
  8
0
 62
     4
 10
1860.28730287
 20
-611.56923856
 30
0.0
 11
1860.28730287
 21
-607.68574342
 31
0.0
  0
LINE
  5
26B
  8
0
 62
     5
 10
1765.10390004
 20
-648.84662704
 30
0.0
 11
1763.09151767
 21
-646.95397395
 31
0.0
  0
TEXT
  5
26C
  8
TXT_DIM49
 10
1758.78156273
 20
-648.1675661849999
 30
0.0
 40
2.42718447
  1
Ø8
  7
ARIAL
  0
LINE
  5
26D
  8
0
 62
     5
 10
1777.72525926
 20
-634.76895714
 30
0.0
 11
1776.22280737
 21
-631.96640749
 31
0.0
  0
TEXT
  5
26E
  8
TXT_DIM49
 10
1770.12218435
 20
-633.179999725
 30
0.0
 40
2.42718447
  1
Ø11
  7
ARIAL
  0
LINE
  5
26F
  8
0
 62
     5
 10
1790.34661848
 20
-623.6039086
 30
0.0
 11
1788.49227833
 21
-621.81916517
 31
0.0
  0
TEXT
  5
270
  8
TXT_DIM49
 10
1784.18232339
 20
-623.032757405
 30
0.0
 40
2.42718447
  1
Ø8
  7
ARIAL
  0
TEXT
  5
271
  8
TXT_DIM49
 10
1794.37104562
 20
-609.88729581
 30
0.0
 40
2.42718447
  1
12
  7
ARIAL
  0
LINE
  5
272
  8
0
 62
     4
 10
1801.02623013
 20
-612.31448027
 30
0.0
 11
1802.96797771
 21
-610.3727327
 31
0.0
  0
LINE
  5
273
  8
0
 62
     4
 10
1791.07477382
 20
-610.61545115
 30
0.0
 11
1789.61846314
 21
-612.07176183
 31
0.0
  0
LINE
  5
274
  8
0
 62
     4
 10
1801.99710392
 20
-611.34360649
 30
0.0
 11
1790.34661848
 21
-611.34360649
 31
0.0
  0
LINE
  5
275
  8
0
 62
     4
 10
1801.99710392
 20
-613.28535406
 30
0.0
 11
1801.99710392
 21
-609.40185891
 31
0.0
  0
LINE
  5
276
  8
0
 62
     4
 10
1790.34661848
 20
-613.28535406
 30
0.0
 11
1790.34661848
 21
-609.40185891
 31
0.0
  0
TEXT
  5
277
  8
TXT_DIM49
 10
1782.23512329
 20
-609.88729581
 30
0.0
 40
2.42718447
  1
13
  7
ARIAL
  0
LINE
  5
278
  8
0
 62
     4
 10
1789.3757447
 20
-612.31448027
 30
0.0
 11
1791.31749227
 21
-610.3727327
 31
0.0
  0
LINE
  5
279
  8
0
 62
     4
 10
1778.4534146
 20
-610.61545115
 30
0.0
 11
1776.99710392
 21
-612.07176183
 31
0.0
  0
LINE
  5
27A
  8
0
 62
     4
 10
1790.34661848
 20
-611.34360649
 30
0.0
 11
1777.72525926
 21
-611.34360649
 31
0.0
  0
LINE
  5
27B
  8
0
 62
     4
 10
1790.34661848
 20
-613.28535406
 30
0.0
 11
1790.34661848
 21
-609.40185891
 31
0.0
  0
LINE
  5
27C
  8
0
 62
     4
 10
1777.72525926
 20
-613.28535406
 30
0.0
 11
1777.72525926
 21
-609.40185891
 31
0.0
  0
TEXT
  5
27D
  8
TXT_DIM49
 10
1769.61376407
 20
-609.88729581
 30
0.0
 40
2.42718447
  1
13
  7
ARIAL
  0
LINE
  5
27E
  8
0
 62
     4
 10
1776.75438547
 20
-612.31448027
 30
0.0
 11
1778.69613305
 21
-610.3727327
 31
0.0
  0
LINE
  5
27F
  8
0
 62
     4
 10
1765.83205538
 20
-610.61545115
 30
0.0
 11
1764.3757447
 21
-612.07176183
 31
0.0
  0
LINE
  5
280
  8
0
 62
     4
 10
1777.72525926
 20
-611.34360649
 30
0.0
 11
1765.10390004
 21
-611.34360649
 31
0.0
  0
LINE
  5
281
  8
0
 62
     4
 10
1777.72525926
 20
-613.28535406
 30
0.0
 11
1777.72525926
 21
-609.40185891
 31
0.0
  0
LINE
  5
282
  8
0
 62
     4
 10
1765.10390004
 20
-613.28535406
 30
0.0
 11
1765.10390004
 21
-609.40185891
 31
0.0
  0
TEXT
  5
283
  8
TXT_DIM49
 10
1757.47784174
 20
-609.88729581
 30
0.0
 40
2.42718447
  1
12
  7
ARIAL
  0
LINE
  5
284
  8
0
 62
     4
 10
1764.13302625
 20
-612.31448027
 30
0.0
 11
1766.07477382
 21
-610.3727327
 31
0.0
  0
LINE
  5
285
  8
0
 62
     4
 10
1754.18156994
 20
-610.61545115
 30
0.0
 11
1752.72525926
 21
-612.07176183
 31
0.0
  0
LINE
  5
286
  8
0
 62
     4
 10
1765.10390004
 20
-611.34360649
 30
0.0
 11
1753.4534146
 21
-611.34360649
 31
0.0
  0
LINE
  5
287
  8
0
 62
     4
 10
1765.10390004
 20
-613.28535406
 30
0.0
 11
1765.10390004
 21
-609.40185891
 31
0.0
  0
LINE
  5
288
  8
0
 62
     4
 10
1753.4534146
 20
-613.28535406
 30
0.0
 11
1753.4534146
 21
-609.40185891
 31
0.0
  0
TEXT
  5
289
  8
TXT_DIM49
 10
1805.11718213
 20
-623.46297661
 30
0.0
 40
2.42718447
  1
12
 50
90.00020741
  7
ARIAL
  0
LINE
  5
28A
  8
0
 62
     4
 10
1807.5443666
 20
-616.80779209
 30
0.0
 11
1805.60261903
 21
-614.86604452
 31
0.0
  0
LINE
  5
28B
  8
0
 62
     4
 10
1805.84533747
 20
-626.7592484
 30
0.0
 11
1807.30164815
 21
-628.21555908
 31
0.0
  0
LINE
  5
28C
  8
0
 62
     4
 10
1806.57349281
 20
-615.83691831
 30
0.0
 11
1806.57349281
 21
-627.48740374
 31
0.0
  0
LINE
  5
28D
  8
0
 62
     4
 10
1804.63174524
 20
-615.83691831
 30
0.0
 11
1808.51524038
 21
-615.83691831
 31
0.0
  0
LINE
  5
28E
  8
0
 62
     4
 10
1804.63174524
 20
-627.48740374
 30
0.0
 11
1808.51524038
 21
-627.48740374
 31
0.0
  0
TEXT
  5
28F
  8
TXT_DIM49
 10
1805.11718213
 20
-635.59889894
 30
0.0
 40
2.42718447
  1
13
 50
90.00020741
  7
ARIAL
  0
LINE
  5
290
  8
0
 62
     4
 10
1807.5443666
 20
-628.45827753
 30
0.0
 11
1805.60261903
 21
-626.51652996
 31
0.0
  0
LINE
  5
291
  8
0
 62
     4
 10
1805.84533747
 20
-639.38060763
 30
0.0
 11
1807.30164815
 21
-640.83691831
 31
0.0
  0
LINE
  5
292
  8
0
 62
     4
 10
1806.57349281
 20
-627.48740374
 30
0.0
 11
1806.57349281
 21
-640.10876297
 31
0.0
  0
LINE
  5
293
  8
0
 62
     4
 10
1804.63174524
 20
-627.48740374
 30
0.0
 11
1808.51524038
 21
-627.48740374
 31
0.0
  0
LINE
  5
294
  8
0
 62
     4
 10
1804.63174524
 20
-640.10876297
 30
0.0
 11
1808.51524038
 21
-640.10876297
 31
0.0
  0
TEXT
  5
295
  8
TXT_DIM49
 10
1805.11718213
 20
-648.22025816
 30
0.0
 40
2.42718447
  1
13
 50
90.00020741
  7
ARIAL
  0
LINE
  5
296
  8
0
 62
     4
 10
1807.5443666
 20
-641.07963675
 30
0.0
 11
1805.60261903
 21
-639.13788918
 31
0.0
  0
LINE
  5
297
  8
0
 62
     4
 10
1805.84533747
 20
-652.00196685
 30
0.0
 11
1807.30164815
 21
-653.45827753
 31
0.0
  0
LINE
  5
298
  8
0
 62
     4
 10
1806.57349281
 20
-640.10876297
 30
0.0
 11
1806.57349281
 21
-652.73012219
 31
0.0
  0
LINE
  5
299
  8
0
 62
     4
 10
1804.63174524
 20
-640.10876297
 30
0.0
 11
1808.51524038
 21
-640.10876297
 31
0.0
  0
LINE
  5
29A
  8
0
 62
     4
 10
1804.63174524
 20
-652.73012219
 30
0.0
 11
1808.51524038
 21
-652.73012219
 31
0.0
  0
TEXT
  5
29B
  8
TXT_DIM49
 10
1805.11718213
 20
-665.21054942
 30
0.0
 40
2.42718447
  1
22
 50
90.00020741
  7
ARIAL
  0
LINE
  5
29C
  8
0
 62
     4
 10
1807.5443666
 20
-653.70099598
 30
0.0
 11
1805.60261903
 21
-651.7592484
 31
0.0
  0
LINE
  5
29D
  8
0
 62
     4
 10
1805.84533747
 20
-673.36119015
 30
0.0
 11
1807.30164815
 21
-674.81750083
 31
0.0
  0
LINE
  5
29E
  8
0
 62
     4
 10
1806.57349281
 20
-652.73012219
 30
0.0
 11
1806.57349281
 21
-674.08934549
 31
0.0
  0
LINE
  5
29F
  8
0
 62
     4
 10
1804.63174524
 20
-652.73012219
 30
0.0
 11
1808.51524038
 21
-652.73012219
 31
0.0
  0
LINE
  5
2A0
  8
0
 62
     4
 10
1804.63174524
 20
-674.08934549
 30
0.0
 11
1808.51524038
 21
-674.08934549
 31
0.0
  0
TEXT
  5
2A1
  8
TXT_DIM49
 10
1775.92444368
 20
-681.3871848
 30
0.0
 40
2.42718447
  1
50
  7
ARIAL
  0
LINE
  5
2A2
  8
0
 62
     4
 10
1754.42428839
 20
-681.87262169
 30
0.0
 11
1752.48254081
 21
-683.81436926
 31
0.0
  0
LINE
  5
2A3
  8
0
 62
     4
 10
1801.26894858
 20
-683.57165082
 30
0.0
 11
1802.72525926
 21
-682.11534014
 31
0.0
  0
LINE
  5
2A4
  8
0
 62
     4
 10
1753.4534146
 20
-682.84349548
 30
0.0
 11
1801.99710392
 21
-682.84349548
 31
0.0
  0
LINE
  5
2A5
  8
0
 62
     4
 10
1753.4534146
 20
-680.9017479
 30
0.0
 11
1753.4534146
 21
-684.78524305
 31
0.0
  0
LINE
  5
2A6
  8
0
 62
     4
 10
1801.99710392
 20
-680.9017479
 30
0.0
 11
1801.99710392
 21
-684.78524305
 31
0.0
  0
LINE
  5
2A7
  8
0
 62
     5
 10
1941.84070093
 20
-721.19281583
 30
0.0
 11
1946.04571807
 21
-714.20491729
 31
0.0
  0
TEXT
  5
2A8
  8
TXT_DIM49
 10
1946.04571807
 20
-715.418509525
 30
0.0
 40
2.42718447
  1
Slobgat 14 x 60
  7
ARIAL
  0
TEXT
  5
2A9
  8
TXT_DIM49
 10
1980.33114748
 20
-696.74739668
 30
0.0
 40
2.42718447
  1
37
  7
ARIAL
  0
LINE
  5
2AA
  8
0
 62
     4
 10
1999.12225433
 20
-699.17458115
 30
0.0
 11
2001.0640019
 21
-697.23283358
 31
0.0
  0
LINE
  5
2AB
  8
0
 62
     4
 10
1964.89895336
 20
-697.47555202
 30
0.0
 11
1963.44264268
 21
-698.9318627
 31
0.0
  0
LINE
  5
2AC
  8
0
 62
     4
 10
2000.09312811
 20
-698.20370736
 30
0.0
 11
1964.17079802
 21
-698.20370736
 31
0.0
  0
LINE
  5
2AD
  8
0
 62
     4
 10
2000.09312811
 20
-700.14545494
 30
0.0
 11
2000.09312811
 21
-696.26195979
 31
0.0
  0
LINE
  5
2AE
  8
0
 62
     4
 10
1964.17079802
 20
-700.14545494
 30
0.0
 11
1964.17079802
 21
-696.26195979
 31
0.0
  0
TEXT
  5
2AF
  8
TXT_DIM49
 10
1940.03988535
 20
-696.74739668
 30
0.0
 40
2.42718447
  1
46
  7
ARIAL
  0
LINE
  5
2B0
  8
0
 62
     4
 10
1963.19992423
 20
-699.17458115
 30
0.0
 11
1965.1416718
 21
-697.23283358
 31
0.0
  0
LINE
  5
2B1
  8
0
 62
     4
 10
1920.23875918
 20
-697.47555202
 30
0.0
 11
1918.7824485
 21
-698.9318627
 31
0.0
  0
LINE
  5
2B2
  8
0
 62
     4
 10
1964.17079802
 20
-698.20370736
 30
0.0
 11
1919.51060384
 21
-698.20370736
 31
0.0
  0
LINE
  5
2B3
  8
0
 62
     4
 10
1964.17079802
 20
-700.14545494
 30
0.0
 11
1964.17079802
 21
-696.26195979
 31
0.0
  0
LINE
  5
2B4
  8
0
 62
     4
 10
1919.51060384
 20
-700.14545494
 30
0.0
 11
1919.51060384
 21
-696.26195979
 31
0.0
  0
TEXT
  5
2B5
  8
TXT_DIM49
 10
1885.18551642
 20
-696.74739668
 30
0.0
 40
2.42718447
  1
67
  7
ARIAL
  0
LINE
  5
2B6
  8
0
 62
     4
 10
1918.53973006
 20
-699.17458115
 30
0.0
 11
1920.48147763
 21
-697.23283358
 31
0.0
  0
LINE
  5
2B7
  8
0
 62
     4
 10
1855.19021549
 20
-697.47555202
 30
0.0
 11
1853.73390481
 21
-698.9318627
 31
0.0
  0
LINE
  5
2B8
  8
0
 62
     4
 10
1919.51060384
 20
-698.20370736
 30
0.0
 11
1854.46206015
 21
-698.20370736
 31
0.0
  0
LINE
  5
2B9
  8
0
 62
     4
 10
1919.51060384
 20
-700.14545494
 30
0.0
 11
1919.51060384
 21
-696.26195979
 31
0.0
  0
LINE
  5
2BA
  8
0
 62
     4
 10
1854.46206015
 20
-700.14545494
 30
0.0
 11
1854.46206015
 21
-696.26195979
 31
0.0
  0
TEXT
  5
2BB
  8
TXT_DIM49
 10
2004.18039479
 20
-717.65382559
 30
0.0
 40
2.42718447
  1
25
 50
90.00020741
  7
ARIAL
  0
LINE
  5
2BC
  8
0
 62
     4
 10
2006.60757926
 20
-704.68796146
 30
0.0
 11
2004.66583169
 21
-702.74621389
 31
0.0
  0
LINE
  5
2BD
  8
0
 62
     4
 10
2004.90855013
 20
-727.26077699
 30
0.0
 11
2006.36486081
 21
-728.71708767
 31
0.0
  0
LINE
  5
2BE
  8
0
 62
     4
 10
2005.63670547
 20
-703.71708767
 30
0.0
 11
2005.63670547
 21
-727.98893233
 31
0.0
  0
LINE
  5
2BF
  8
0
 62
     4
 10
2003.6949579
 20
-703.71708767
 30
0.0
 11
2007.57845305
 21
-703.71708767
 31
0.0
  0
LINE
  5
2C0
  8
0
 62
     4
 10
2003.6949579
 20
-727.98893233
 30
0.0
 11
2007.57845305
 21
-727.98893233
 31
0.0
  0
TEXT
  5
2C1
  8
TXT_DIM49
 10
2004.18039479
 20
-741.92567025
 30
0.0
 40
2.42718447
  1
25
 50
90.00020741
  7
ARIAL
  0
LINE
  5
2C2
  8
0
 62
     4
 10
2006.60757926
 20
-728.95980612
 30
0.0
 11
2004.66583169
 21
-727.01805855
 31
0.0
  0
LINE
  5
2C3
  8
0
 62
     4
 10
2004.90855013
 20
-751.53262165
 30
0.0
 11
2006.36486081
 21
-752.98893233
 31
0.0
  0
LINE
  5
2C4
  8
0
 62
     4
 10
2005.63670547
 20
-727.98893233
 30
0.0
 11
2005.63670547
 21
-752.26077699
 31
0.0
  0
LINE
  5
2C5
  8
0
 62
     4
 10
2003.6949579
 20
-727.98893233
 30
0.0
 11
2007.57845305
 21
-727.98893233
 31
0.0
  0
LINE
  5
2C6
  8
0
 62
     4
 10
2003.6949579
 20
-752.26077699
 30
0.0
 11
2007.57845305
 21
-752.26077699
 31
0.0
  0
ENDSEC
  0
EOF
