  0
SECTION
  2
HEADER
  9
$ACADVER
  1
AC1006
  9
$DWGCODEPAGE
  3
ansi_1252
  9
$INSBASE
 10
0.0
 20
0.0
 30
0.0
  9
$EXTMIN
 10
709.97364093
 20
97.47104499
  9
$EXTMAX
 10
1938.52050529
 20
689.15073249
  9
$LIMMIN
 10
709.97364093
 20
97.47104499
  9
$LIMMAX
 10
1938.52050529
 20
689.15073249
  9
$ORTHOMODE
 70
     0
  9
$REGENMODE
 70
     1
  9
$FILLMODE
 70
     1
  9
$QTEXTMODE
 70
     0
  9
$MIRRTEXT
 70
     1
  9
$DRAGMODE
 70
     2
  9
$LTSCALE
 40
1.0
  9
$OSMODE
 70
    37
  9
$ATTMODE
 70
     1
  9
$TEXTSIZE
 40
1.0
  9
$TRACEWID
 40
0.05
  9
$TEXTSTYLE
  7
STANDARD
  9
$CLAYER
  8
0
  9
$CELTYPE
  6
BYBLOCK
  9
$CECOLOR
 62
   256
  9
$DIMSCALE
 40
1.0
  9
$DIMASZ
 40
0.18
  9
$DIMEXO
 40
0.0625
  9
$DIMDLI
 40
0.38
  9
$DIMRND
 40
0.0
  9
$DIMDLE
 40
0.0
  9
$DIMEXE
 40
0.18
  9
$DIMTP
 40
0.0
  9
$DIMTM
 40
0.0
  9
$DIMTXT
 40
0.18
  9
$DIMCEN
 40
0.09
  9
$DIMTSZ
 40
0.0
  9
$DIMTOL
 70
     0
  9
$DIMLIM
 70
     0
  9
$DIMTIH
 70
     1
  9
$DIMTOH
 70
     1
  9
$DIMSE1
 70
     0
  9
$DIMSE2
 70
     0
  9
$DIMTAD
 70
     0
  9
$DIMZIN
 70
     0
  9
$DIMBLK
  1

  9
$DIMASO
 70
     1
  9
$DIMSHO
 70
     1
  9
$DIMPOST
  1

  9
$DIMAPOST
  1

  9
$DIMALT
 70
     0
  9
$DIMALTD
 70
     2
  9
$DIMALTF
 40
25.4
  9
$DIMLFAC
 40
1.0
  9
$DIMTOFL
 70
     0
  9
$DIMTVP
 40
0.0
  9
$DIMTIX
 70
     0
  9
$DIMSOXD
 70
     0
  9
$DIMSAH
 70
     0
  9
$DIMBLK1
  1

  9
$DIMBLK2
  1

  9
$LUNITS
 70
     2
  9
$LUPREC
 70
     4
  9
$SKETCHINC
 40
0.1
  9
$FILLETRAD
 40
0.5
  9
$AUNITS
 70
     0
  9
$AUPREC
 70
     0
  9
$MENU
  1
.
  9
$ELEVATION
 40
0.0
  9
$THICKNESS
 40
0.0
  9
$LIMCHECK
 70
     0
  9
$CHAMFERA
 40
0.0
  9
$CHAMFERB
 40
0.0
  9
$SKPOLY
 70
     0
  9
$TDCREATE
 40
2447893.125
  9
$TDUPDATE
 40
2460791.493772824
  9
$TDINDWG
 40
0.0
  9
$TDUSRTIMER
 40
0.0
  9
$USRTIMER
 70
     1
  9
$ANGBASE
 50
0.0
  9
$ANGDIR
 70
     0
  9
$PDMODE
 70
     0
  9
$PDSIZE
 40
0.0
  9
$PLINEWID
 40
0.0
  9
$COORDS
 70
     1
  9
$SPLFRAME
 70
     0
  9
$SPLINETYPE
 70
     6
  9
$SPLINESEGS
 70
     8
  9
$ATTDIA
 70
     0
  9
$ATTREQ
 70
     1
  9
$HANDLING
 70
     1
  9
$HANDSEED
  5
37A
  9
$SURFTAB1
 70
     6
  9
$SURFTAB2
 70
     6
  9
$SURFTYPE
 70
     6
  9
$SURFU
 70
     6
  9
$SURFV
 70
     6
  9
$UCSNAME
  2

  9
$UCSORG
 10
0.0
 20
0.0
 30
0.0
  9
$UCSXDIR
 10
1.0
 20
0.0
 30
0.0
  9
$UCSYDIR
 10
0.0
 20
1.0
 30
0.0
  9
$USERI1
 70
     0
  9
$USERI2
 70
     0
  9
$USERI3
 70
     0
  9
$USERI4
 70
     0
  9
$USERI5
 70
     0
  9
$USERR1
 40
0.0
  9
$USERR2
 40
0.0
  9
$USERR3
 40
0.0
  9
$USERR4
 40
0.0
  9
$USERR5
 40
0.0
  9
$WORLDVIEW
 70
     1
  0
ENDSEC
  0
SECTION
  2
TABLES
  0
TABLE
  2
VPORT
 70
     1
  0
VPORT
  2
*ACTIVE
 70
     0
 10
0.0
 20
0.0
 11
1.0
 21
1.0
 12
1324.24707311
 22
393.31088874
 13
0.0
 23
0.0
 14
1.0
 24
1.0
 15
0.0
 25
0.0
 16
0.0
 26
0.0
 36
1.0
 17
0.0
 27
0.0
 37
0.0
 40
591.6796875
 41
2.076371541
 42
50.0
 43
0.0
 44
0.0
 50
0.0
 51
0.0
 71
     0
 72
   100
 73
     1
 74
     1
 75
     0
 76
     0
 77
     0
 78
     0
  0
ENDTAB
  0
TABLE
  2
LTYPE
 70
    19
  0
LTYPE
  2
CONTINUOUS
 70
     0
  3
Solid line
 72
    65
 73
     0
 40
0.0
  0
LTYPE
  2
DOT
 70
     0
  3
..............
 72
    65
 73
     2
 40
2.0
 49
0.5
 49
-1.5
  0
LTYPE
  2
HIDDEN
 70
     0
  3
-- -- -- -- --
 72
    65
 73
     2
 40
7.0
 49
4.0
 49
-3.0
  0
LTYPE
  2
DASHDOT
 70
     0
  3
--.--.--.--.--
 72
    65
 73
     4
 40
8.5
 49
4.0
 49
-2.0
 49
0.5
 49
-2.0
  0
LTYPE
  2
STRICHPUNKT2
 70
     0
  3
--.--.--.--.--
 72
    65
 73
     4
 40
18.5
 49
10.0
 49
-4.0
 49
0.5
 49
-4.0
  0
LTYPE
  2
STRICHPUNKT3
 70
     0
  3
--.--.--.--.--
 72
    65
 73
     4
 40
35.5
 49
25.0
 49
-5.0
 49
0.5
 49
-5.0
  0
LTYPE
  2
PHANTOM
 70
     0
  3
--..--..--..--
 72
    65
 73
     6
 40
23.0
 49
10.0
 49
-4.0
 49
0.5
 49
-4.0
 49
0.5
 49
-4.0
  0
LTYPE
  2
PHANTOM2
 70
     0
  3
--..--..--..--
 72
    65
 73
     6
 40
33.0
 49
20.0
 49
-4.0
 49
0.5
 49
-4.0
 49
0.5
 49
-4.0
  0
LTYPE
  2
PHANTOM3
 70
     0
  3
--..--..--..--
 72
    65
 73
     6
 40
50.0
 49
37.0
 49
-4.0
 49
0.5
 49
-4.0
 49
0.5
 49
-4.0
  0
LTYPE
  2
STR3PKT
 70
     0
  3
--...--...--...
 72
    65
 73
     8
 40
31.5
 49
20.0
 49
-2.5
 49
0.5
 49
-2.5
 49
0.5
 49
-2.5
 49
0.5
 49
-2.5
  0
LTYPE
  2
2STRPKT
 70
     0
  3
--.--.--.--.--
 72
    65
 73
     6
 40
28.0
 49
10.0
 49
-2.5
 49
10.0
 49
-2.5
 49
0.5
 49
-2.5
  0
LTYPE
  2
GESTRICHELT2
 70
     0
  3
-- -- -- -- --
 72
    65
 73
     2
 40
25.0
 49
10.0
 49
-15.0
  0
LTYPE
  2
2STR2PKT
 70
     0
  3
--..--..--..--
 72
    65
 73
     8
 40
31.0
 49
10.0
 49
-2.5
 49
10.0
 49
-2.5
 49
0.5
 49
-2.5
 49
0.5
 49
-2.5
  0
LTYPE
  2
STR3PKT2
 70
     0
  3
--...--...--...
 72
    65
 73
     8
 40
21.0
 49
10.0
 49
-2.5
 49
0.5
 49
-2.5
 49
0.5
 49
-2.5
 49
0.5
 49
-2.0
  0
LTYPE
  2
2STR3PKT
 70
     0
  3
--...--...--...
 72
    65
 73
    10
 40
34.0
 49
10.0
 49
-2.5
 49
10.0
 49
-2.5
 49
0.5
 49
-2.5
 49
0.5
 49
-2.5
 49
0.5
 49
-2.5
  0
LTYPE
  2
STRKSTR
 70
     0
  3
-- - -- - -- -
 72
    65
 73
     4
 40
30.0
 49
20.0
 49
-2.5
 49
5.0
 49
-2.5
  0
LTYPE
  2
STRKSTR2
 70
     0
  3
-- - -- - -- -
 72
    65
 73
     6
 40
37.5
 49
20.0
 49
-2.5
 49
5.0
 49
-2.5
 49
5.0
 49
-2.5
  0
LTYPE
  2
STRKSTR3
 70
     0
  3
-- - -- - -- -
 72
    65
 73
     8
 40
45.0
 49
20.0
 49
-2.5
 49
5.0
 49
-2.5
 49
5.0
 49
-2.5
 49
5.0
 49
-2.5
  0
LTYPE
  2
PUNKT2
 70
     0
  3
..............
 72
    65
 73
     2
 40
3.5
 49
0.5
 49
-3.0
  0
ENDTAB
  0
TABLE
  2
LAYER
 70
    16
  0
LAYER
  2
0
 70
     0
 62
     7
  6
CONTINUOUS
  0
LAYER
  2
LE_GREEN
 70
     0
 62
     3
  6
CONTINUOUS
  0
LAYER
  2
LE_RED
 70
     0
 62
     1
  6
CONTINUOUS
  0
LAYER
  2
LE_ALL
 70
     0
 62
     7
  6
CONTINUOUS
  0
LAYER
  2
LE_HIDDEN1
 70
     0
 62
     3
  6
HIDDEN
  0
LAYER
  2
LE_HIDDEN
 70
     0
 62
     7
  6
CONTINUOUS
  0
LAYER
  2
LE_MIDDLE
 70
     0
 62
     7
  6
CONTINUOUS
  0
LAYER
  2
TXT_YELLOW
 70
     0
 62
     2
  6
CONTINUOUS
  0
LAYER
  2
TXT_DIM49
 70
     0
 62
     2
  6
CONTINUOUS
  0
LAYER
  2
TXT_ALL
 70
     0
 62
     7
  6
CONTINUOUS
  0
LAYER
  2
DIM49
 70
     0
 62
     4
  6
CONTINUOUS
  0
LAYER
  2
HATCH
 70
     0
 62
     3
  6
CONTINUOUS
  0
LAYER
  2
APPLE
 70
     0
 62
     7
  6
CONTINUOUS
  0
LAYER
  2
10
 70
     0
 62
     7
  6
CONTINUOUS
  0
LAYER
  2
20
 70
     0
 62
     7
  6
CONTINUOUS
  0
LAYER
  2
49
 70
     0
 62
     7
  6
CONTINUOUS
  0
ENDTAB
  0
TABLE
  2
STYLE
 70
     5
  0
STYLE
  2
MONOTXT
 70
     0
 40
0.0
 41
1.0
 50
0.0
 71
     0
 42
1.0
  3
monotxt.shx
  4

  0
STYLE
  2
STANDARD
 70
     0
 40
0.0
 41
1.0
 50
0.0
 71
     0
 42
1.0
  3
txt
  4

  0
STYLE
  2
ARIAL
 70
     0
 40
0.0
 41
1.0
 50
0.0
 71
     0
 42
1.0
  3
arial.ttf
  4

  0
STYLE
  2
ARIAL_NARROW
 70
     0
 40
0.0
 41
1.0
 50
0.0
 71
     0
 42
1.0
  3
ArialN.ttf
  4

  0
STYLE
  2
ISOCPEUR
 70
     0
 40
0.0
 41
1.0
 50
0.0
 71
     0
 42
1.0
  3
ISOCPEUR.ttf
  4

  0
ENDTAB
  0
TABLE
  2
VIEW
 70
     0
  0
ENDTAB
  0
TABLE
  2
UCS
 70
     0
  0
ENDTAB
  0
ENDSEC
  0
SECTION
  2
BLOCKS
  0
ENDSEC
  0
SECTION
  2
ENTITIES
  0
POLYLINE
  5
16D
  8
0
 66
     1
 10
0.0
 20
0.0
 30
0.0
 70
     1
  0
VERTEX
  5
16E
  8
0
 10
900.5467657
 20
282.26230131
 30
0.0
  0
VERTEX
  5
16F
  8
0
 10
1320.5467657
 20
282.26230131
 30
0.0
  0
VERTEX
  5
170
  8
0
 10
1320.5467657
 20
579.26230131
 30
0.0
  0
VERTEX
  5
171
  8
0
 10
900.5467657
 20
579.26230131
 30
0.0
  0
SEQEND
  5
172
  8
0
  0
POLYLINE
  5
173
  8
0
 66
     1
 10
0.0
 20
0.0
 30
0.0
 70
     1
  0
VERTEX
  5
174
  8
0
 10
905.5467657
 20
287.26230131
 30
0.0
  0
VERTEX
  5
175
  8
0
 10
1315.5467657
 20
287.26230131
 30
0.0
  0
VERTEX
  5
176
  8
0
 10
1315.5467657
 20
574.26230131
 30
0.0
  0
VERTEX
  5
177
  8
0
 10
905.5467657
 20
574.26230131
 30
0.0
  0
SEQEND
  5
178
  8
0
  0
LINE
  5
179
  8
0
 10
1130.5467657
 20
287.26230131
 30
0.0
 11
1130.5467657
 21
282.26230131
 31
0.0
  0
LINE
  5
17A
  8
0
 10
1130.5467657
 20
574.26230131
 30
0.0
 11
1130.5467657
 21
579.26230131
 31
0.0
  0
LINE
  5
17B
  8
0
 10
920.5467657
 20
287.26230131
 30
0.0
 11
920.5467657
 21
282.26230131
 31
0.0
  0
LINE
  5
17C
  8
0
 10
920.5467657
 20
574.26230131
 30
0.0
 11
920.5467657
 21
579.26230131
 31
0.0
  0
TEXT
  5
17D
  8
TXT_ALL
 62
     4
 10
1319.5467657
 20
283.26230131
 30
0.0
 40
2.5
  1

 50
90.00020741
  0
POLYLINE
  5
17E
  8
0
 66
     1
 10
0.0
 20
0.0
 30
0.0
  0
VERTEX
  5
17F
  8
0
 10
1315.5467657
 20
564.26230131
 30
0.0
  0
VERTEX
  5
180
  8
0
 10
1246.5534657
 20
564.26230131
 30
0.0
  0
VERTEX
  5
181
  8
0
 10
1246.5534657
 20
574.26230131
 30
0.0
  0
SEQEND
  5
182
  8
0
  0
LINE
  5
183
  8
0
 10
1248.4567657
 20
306.76230131
 30
0.0
 11
1108.5667657
 21
306.76230131
 31
0.0
  0
LINE
  5
184
  8
0
 10
1108.5667657
 20
297.01230131
 30
0.0
 11
1248.4567657
 21
297.01230131
 31
0.0
  0
POLYLINE
  5
185
  8
0
 66
     1
 10
0.0
 20
0.0
 30
0.0
  0
VERTEX
  5
186
  8
0
 10
1108.5667657
 20
306.76230131
 30
0.0
  0
VERTEX
  5
187
  8
0
 10
1108.5667657
 20
297.01230131
 30
0.0
  0
VERTEX
  5
188
  8
0
 10
1108.5667657
 20
287.26230131
 30
0.0
  0
SEQEND
  5
189
  8
0
  0
POLYLINE
  5
18A
  8
0
 66
     1
 10
0.0
 20
0.0
 30
0.0
  0
VERTEX
  5
18B
  8
0
 10
1178.5117657
 20
306.76230131
 30
0.0
  0
VERTEX
  5
18C
  8
0
 10
1178.5117657
 20
297.01230131
 30
0.0
  0
VERTEX
  5
18D
  8
0
 10
1178.5117657
 20
287.26230131
 30
0.0
  0
SEQEND
  5
18E
  8
0
  0
TEXT
  5
18F
  8
TXT_ALL
 10
1110.5667657
 20
300.58730136
 30
0.0
 40
2.5999999
  1
E-mail: verkoop@jonkers-bouwmetaal.nl
  7
ARIAL
  0
TEXT
  5
190
  8
TXT_ALL
 10
1110.5667657
 20
290.83730136
 30
0.0
 40
2.5999999
  1
Telefoon: 0527-685156
  7
ARIAL
  0
TEXT
  5
191
  8
TXT_ALL
 10
1180.5117657
 20
290.83730136
 30
0.0
 40
2.5999999
  1
Website: www.jonkers-bouwmetaal.nl
  7
ARIAL
  0
TEXT
  5
192
  8
TXT_ALL
 10
1180.5117657
 20
300.58730136
 30
0.0
 40
2.5999999
  1
Adres: Hoornse Hop 10, 8321 WX Urk
  7
ARIAL
  0
TEXT
  5
193
  8
TXT_ALL
 10
908.98872595
 20
568.01230131
 30
0.0
 40
2.5
  1
Art. nr. 91002018
  7
ARIAL
  0
TEXT
  5
194
  8
TXT_ALL
 10
951.72676277
 20
568.01230131
 30
0.0
 40
2.5
  1
Omschrijving: L01-anker 520x80 60x8
  7
ARIAL
  0
LINE
  5
195
  8
0
 10
1315.5467657
 20
564.26230131
 30
0.0
 11
905.5467657
 21
564.26230131
 31
0.0
  0
LINE
  5
196
  8
0
 10
948.5667657
 20
564.26230131
 30
0.0
 11
948.5667657
 21
574.26230131
 31
0.0
  0
LINE
  5
197
  8
0
 10
1108.5667657
 20
564.26230131
 30
0.0
 11
1108.5667657
 21
574.26230131
 31
0.0
  0
TEXT
  5
198
  8
TXT_ALL
 10
1179.5604657
 20
568.01230131
 30
0.0
 40
2.5
  1
Behandeling: Thermisch Verzinkt
  7
ARIAL
  0
LINE
  5
199
  8
0
 10
1248.4567657
 20
306.76230131
 30
0.0
 11
1315.5467657
 21
306.76230131
 31
0.0
  0
LINE
  5
19A
  8
0
 10
1248.4567657
 20
287.26230131
 30
0.0
 11
1248.4567657
 21
306.76230131
 31
0.0
  0
LINE
  5
19B
  8
0
 10
1248.4567657
 20
287.26230131
 30
0.0
 11
1248.4567657
 21
306.76230131
 31
0.0
  0
TEXT
  5
19C
  8
TXT_ALL
 10
1042.91196379
 20
288.41683473
 30
0.0
 40
2.5
  1

  0
TEXT
  5
19D
  8
TXT_ALL
 10
1164.04714676
 20
298.51230131
 30
0.0
 40
2.5
  1

  0
POLYLINE
  5
19E
  8
0
 66
     1
 10
0.0
 20
0.0
 30
0.0
  0
VERTEX
  5
19F
  8
0
 10
1246.5534657
 20
564.26230131
 30
0.0
  0
VERTEX
  5
1A0
  8
0
 10
1177.5604657
 20
564.26230131
 30
0.0
  0
VERTEX
  5
1A1
  8
0
 10
1177.5604657
 20
574.26230131
 30
0.0
  0
SEQEND
  5
1A2
  8
0
  0
TEXT
  5
1A3
  8
TXT_ALL
 10
1248.5534657
 20
568.01230131
 30
0.0
 40
2.5
  1
Verpakkingshoeveelheid: 1 st.
  7
ARIAL
  0
TEXT
  5
1A4
  8
TXT_ALL
 10
1110.5667657
 20
568.01230131
 30
0.0
 40
2.5
  1
Materiaal: S355
  7
ARIAL
  0
TEXT
  5
1A5
  8
TXT_ALL
 10
1282.76887612
 20
284.01279146
 30
0.0
 40
1.5
  1
Onderdeel van
  7
ARIAL
  0
POLYLINE
  5
1A6
  8
0
 66
     1
 10
0.0
 20
0.0
 30
0.0
  0
VERTEX
  5
2EC
  8
0
 10
1154.97659826
 20
338.01796151
 30
0.0
  0
VERTEX
  5
2ED
  8
0
 10
1154.909346741564
 20
338.2625741463027
 30
0.0
  0
VERTEX
  5
2EE
  8
0
 10
1154.71017662439
 20
338.497786456194
 30
0.0
  0
VERTEX
  5
2EF
  8
0
 10
1154.386741904368
 20
338.714559362534
 30
0.0
  0
VERTEX
  5
2F0
  8
0
 10
1153.951471996374
 20
338.9045624041187
 30
0.0
  0
VERTEX
  5
2F1
  8
0
 10
1153.421094078833
 20
339.0604938706315
 30
0.0
  0
VERTEX
  5
2F2
  8
0
 10
1152.815990277631
 20
339.1763614032755
 30
0.0
  0
VERTEX
  5
2F3
  8
0
 10
1152.159414392448
 20
339.2477122777603
 30
0.0
  0
VERTEX
  5
2F4
  8
0
 10
1151.476598266282
 20
339.27180452
 30
0.0
  0
VERTEX
  5
2F5
  8
0
 10
1150.793782139875
 20
339.2477122786385
 30
0.0
  0
VERTEX
  5
2F6
  8
0
 10
1150.137206253977
 20
339.1763614049979
 30
0.0
  0
VERTEX
  5
2F7
  8
0
 10
1149.532102451614
 20
339.0604938731321
 30
0.0
  0
VERTEX
  5
2F8
  8
0
 10
1149.00172453251
 20
338.9045624073014
 30
0.0
  0
VERTEX
  5
2F9
  8
0
 10
1148.566454622613
 20
338.7145593662765
 30
0.0
  0
VERTEX
  5
2FA
  8
0
 10
1148.243019900417
 20
338.4977864603524
 30
0.0
  0
VERTEX
  5
2FB
  8
0
 10
1148.043849780887
 20
338.2625741507172
 30
0.0
  0
VERTEX
  5
2FC
  8
0
 10
1147.97659826
 20
338.0179615145011
 30
0.0
  0
SEQEND
  5
36F
  8
0
  0
POLYLINE
  5
1A7
  8
0
 66
     1
 10
0.0
 20
0.0
 30
0.0
  0
VERTEX
  5
2FD
  8
0
 10
1147.97659826
 20
338.0179615145011
 30
0.0
  0
VERTEX
  5
2FE
  8
0
 10
1148.043849776291
 20
337.7733488775601
 30
0.0
  0
VERTEX
  5
2FF
  8
0
 10
1148.243019892003
 20
337.5381365669248
 30
0.0
  0
VERTEX
  5
300
  8
0
 10
1148.56645461127
 20
337.3213636598051
 30
0.0
  0
VERTEX
  5
301
  8
0
 10
1149.001724519184
 20
337.1313606174727
 30
0.0
  0
VERTEX
  5
302
  8
0
 10
1149.532102437249
 20
336.9754291503062
 30
0.0
  0
VERTEX
  5
303
  8
0
 10
1150.137206239467
 20
336.8595616171552
 30
0.0
  0
VERTEX
  5
304
  8
0
 10
1150.793782126012
 20
336.7882107423495
 30
0.0
  0
VERTEX
  5
305
  8
0
 10
1151.476598253718
 20
336.7641185
 30
0.0
  0
VERTEX
  5
306
  8
0
 10
1152.159414381665
 20
336.7882107414713
 30
0.0
  0
VERTEX
  5
307
  8
0
 10
1152.815990268925
 20
336.8595616154328
 30
0.0
  0
VERTEX
  5
308
  8
0
 10
1153.421094072304
 20
336.9754291478056
 30
0.0
  0
VERTEX
  5
309
  8
0
 10
1153.951471991932
 20
337.13136061429
 30
0.0
  0
VERTEX
  5
30A
  8
0
 10
1154.38674190175
 20
337.3213636560626
 30
0.0
  0
VERTEX
  5
30B
  8
0
 10
1154.710176623189
 20
337.5381365627665
 30
0.0
  0
VERTEX
  5
30C
  8
0
 10
1154.909346741258
 20
337.7733488731456
 30
0.0
  0
VERTEX
  5
30D
  8
0
 10
1154.97659826
 20
338.01796151
 30
0.0
  0
SEQEND
  5
370
  8
0
  0
POLYLINE
  5
1A8
  8
0
 66
     1
 10
0.0
 20
0.0
 30
0.0
  0
VERTEX
  5
30E
  8
0
 10
1057.02023139
 20
349.566378654501
 30
0.0
  0
VERTEX
  5
30F
  8
0
 10
1057.093540766653
 20
349.3110980702652
 30
0.0
  0
VERTEX
  5
310
  8
0
 10
1057.310397893219
 20
349.0665114636437
 30
0.0
  0
VERTEX
  5
311
  8
0
 10
1057.661718391796
 20
348.8428648302336
 30
0.0
  0
VERTEX
  5
312
  8
0
 10
1058.132785069439
 20
348.649526967668
 30
0.0
  0
VERTEX
  5
313
  8
0
 10
1058.703864437175
 20
348.4945970066227
 30
0.0
  0
VERTEX
  5
314
  8
0
 10
1059.351033367042
 20
348.3845651295351
 30
0.0
  0
SEQEND
  5
371
  8
0
  0
POLYLINE
  5
1A9
  8
0
 66
     1
 10
0.0
 20
0.0
 30
0.0
  0
VERTEX
  5
315
  8
0
 10
1061.689429401115
 20
350.7481921719685
 30
0.0
  0
VERTEX
  5
316
  8
0
 10
1061.041410127162
 20
350.8062425925635
 30
0.0
  0
VERTEX
  5
317
  8
0
 10
1060.374407740511
 20
350.8191329264694
 30
0.0
  0
VERTEX
  5
318
  8
0
 10
1059.712716750076
 20
350.7863936636239
 30
0.0
  0
VERTEX
  5
319
  8
0
 10
1059.080438205547
 20
350.7092172799896
 30
0.0
  0
VERTEX
  5
31A
  8
0
 10
1058.500601854708
 20
350.5904148034991
 30
0.0
  0
VERTEX
  5
31B
  8
0
 10
1057.994327321228
 20
350.4343134268008
 30
0.0
  0
VERTEX
  5
31C
  8
0
 10
1057.580054855717
 20
350.246598896098
 30
0.0
  0
VERTEX
  5
31D
  8
0
 10
1057.272873678701
 20
350.0341084168198
 30
0.0
  0
VERTEX
  5
31E
  8
0
 10
1057.083972379598
 20
349.8045816192072
 30
0.0
  0
VERTEX
  5
31F
  8
0
 10
1057.02023139
 20
349.566378654501
 30
0.0
  0
SEQEND
  5
372
  8
0
  0
POLYLINE
  5
1AA
  8
0
 66
     1
 10
0.0
 20
0.0
 30
0.0
  0
VERTEX
  5
1AB
  8
0
 10
1061.68942941
 20
350.74819218
 30
0.0
  0
VERTEX
  5
1AC
  8
0
 10
1073.94261873
 20
349.19244687
 30
0.0
  0
SEQEND
  5
1AD
  8
0
  0
POLYLINE
  5
1AE
  8
0
 66
     1
 10
0.0
 20
0.0
 30
0.0
  0
VERTEX
  5
320
  8
0
 10
1076.27342071
 20
348.01063333
 30
0.0
  0
VERTEX
  5
321
  8
0
 10
1076.200111330789
 20
348.2659139141415
 30
0.0
  0
VERTEX
  5
322
  8
0
 10
1075.983254201772
 20
348.5105005204841
 30
0.0
  0
VERTEX
  5
323
  8
0
 10
1075.631933700954
 20
348.7341471534424
 30
0.0
  0
VERTEX
  5
324
  8
0
 10
1075.160867021373
 20
348.9274850154023
 30
0.0
  0
VERTEX
  5
325
  8
0
 10
1074.589787652085
 20
349.0824149757132
 30
0.0
  0
VERTEX
  5
326
  8
0
 10
1073.942618721115
 20
349.1924468519686
 30
0.0
  0
SEQEND
  5
373
  8
0
  0
POLYLINE
  5
1AF
  8
0
 66
     1
 10
0.0
 20
0.0
 30
0.0
  0
VERTEX
  5
327
  8
0
 10
1071.604222687042
 20
346.8288198095351
 30
0.0
  0
VERTEX
  5
328
  8
0
 10
1072.252241962899
 20
346.7707693879726
 30
0.0
  0
VERTEX
  5
329
  8
0
 10
1072.919244351957
 20
346.7578790534181
 30
0.0
  0
VERTEX
  5
32A
  8
0
 10
1073.580935345034
 20
346.7906183159607
 30
0.0
  0
VERTEX
  5
32B
  8
0
 10
1074.213213892162
 20
346.8677946996401
 30
0.0
  0
VERTEX
  5
32C
  8
0
 10
1074.793050245292
 20
346.9865971765009
 30
0.0
  0
VERTEX
  5
32D
  8
0
 10
1075.299324780511
 20
347.1426985538488
 30
0.0
  0
VERTEX
  5
32E
  8
0
 10
1075.71359724701
 20
347.3304130854144
 30
0.0
  0
VERTEX
  5
32F
  8
0
 10
1076.020778424111
 20
347.5429035656859
 30
0.0
  0
VERTEX
  5
330
  8
0
 10
1076.209679722312
 20
347.772430364328
 30
0.0
  0
VERTEX
  5
331
  8
0
 10
1076.27342071
 20
348.01063333
 30
0.0
  0
SEQEND
  5
374
  8
0
  0
LINE
  5
1B0
  8
0
 10
1071.6042227
 20
346.8288198
 30
0.0
 11
1059.35103338
 21
348.38456511
 31
0.0
  0
LINE
  5
1B1
  8
0
 10
1170.02957524
 20
329.96122845
 30
0.0
 11
932.50621305
 21
360.11875299
 31
0.0
  0
LINE
  5
1B2
  8
0
 10
942.52791033
 20
370.24858329
 30
0.0
 11
932.50621305
 21
360.11875299
 31
0.0
  0
POLYLINE
  5
1B3
  8
0
 66
     1
 10
0.0
 20
0.0
 30
0.0
  0
VERTEX
  5
1B4
  8
0
 10
942.52791033
 20
370.24858329
 30
0.0
  0
VERTEX
  5
1B5
  8
0
 10
1180.05127251
 20
340.09105875
 30
0.0
  0
VERTEX
  5
1B6
  8
0
 10
1170.02957524
 20
329.96122845
 30
0.0
  0
VERTEX
  5
1B7
  8
0
 10
1170.02957524
 20
326.22671165
 30
0.0
  0
VERTEX
  5
1B8
  8
0
 10
932.50621305
 20
356.38423619
 30
0.0
  0
SEQEND
  5
1B9
  8
0
  0
LINE
  5
1BA
  8
0
 10
932.50621305
 20
360.11875299
 30
0.0
 11
932.50621305
 21
356.38423619
 31
0.0
  0
LINE
  5
1BB
  8
0
 10
1180.05127251
 20
336.35654195
 30
0.0
 11
1170.02957524
 21
326.22671165
 31
0.0
  0
LINE
  5
1BC
  8
0
 10
1180.05127251
 20
340.09105875
 30
0.0
 11
1180.05127251
 21
336.35654195
 31
0.0
  0
LINE
  5
1BD
  8
0
  6
STRICHPUNKT2
 62
     1
 10
1060.52023139
 20
351.20022975
 30
0.0
 11
1060.52023139
 21
348.23611606
 31
0.0
  0
LINE
  5
1BE
  8
0
  6
STRICHPUNKT2
 62
     1
 10
1072.77342071
 20
349.64448443
 30
0.0
 11
1072.77342071
 21
346.75679031
 31
0.0
  0
LINE
  5
1BF
  8
0
  6
STRICHPUNKT2
 62
     1
 10
1055.57182801
 20
350.19466041
 30
0.0
 11
1077.72182409
 21
347.38235157
 31
0.0
  0
LINE
  5
1C0
  8
0
  6
STRICHPUNKT2
 62
     1
 10
1058.76643437
 20
347.79365834
 30
0.0
 11
1062.27402842
 21
351.33909895
 31
0.0
  0
LINE
  5
1C1
  8
0
  6
STRICHPUNKT2
 62
     1
 10
1071.01962369
 20
346.23791303
 30
0.0
 11
1074.52721774
 21
349.78335364
 31
0.0
  0
LINE
  5
1C2
  8
0
  6
STRICHPUNKT2
 62
     1
 10
1151.47659826
 20
339.65181261
 30
0.0
 11
1151.47659826
 21
336.76411849
 31
0.0
  0
LINE
  5
1C3
  8
0
  6
STRICHPUNKT2
 62
     1
 10
1151.47659826
 20
338.01796151
 30
0.0
 11
1156.42500164
 21
337.38967975
 31
0.0
  0
LINE
  5
1C4
  8
0
  6
STRICHPUNKT2
 62
     1
 10
1151.47659826
 20
338.01796151
 30
0.0
 11
1146.52819488
 21
338.64624328
 31
0.0
  0
LINE
  5
1C5
  8
0
  6
STRICHPUNKT2
 62
     1
 10
1151.47659826
 20
338.01796151
 30
0.0
 11
1153.23039529
 21
339.79068182
 31
0.0
  0
LINE
  5
1C6
  8
0
  6
STRICHPUNKT2
 62
     1
 10
1151.47659826
 20
338.01796151
 30
0.0
 11
1149.72280124
 21
336.24524121
 31
0.0
  0
POLYLINE
  5
1C7
  8
0
 66
     1
 10
0.0
 20
0.0
 30
0.0
  0
VERTEX
  5
1C8
  8
0
 10
938.75769823
 20
374.46179095
 30
0.0
  0
VERTEX
  5
1C9
  8
0
 10
928.73600095
 20
364.33196065
 30
0.0
  0
VERTEX
  5
1CA
  8
0
 10
924.96578885
 20
364.81065152
 30
0.0
  0
SEQEND
  5
1CB
  8
0
  0
POLYLINE
  5
1CC
  8
0
 66
     1
 10
0.0
 20
0.0
 30
0.0
  0
VERTEX
  5
332
  8
0
 10
938.7576982242051
 20
374.4617909260555
 30
0.0
  0
VERTEX
  5
333
  8
0
 10
938.8301417949882
 20
373.7240249318975
 30
0.0
  0
VERTEX
  5
334
  8
0
 10
939.0446885356139
 20
372.9962150506886
 30
0.0
  0
VERTEX
  5
335
  8
0
 10
939.3930935352303
 20
372.3063306077618
 30
0.0
  0
VERTEX
  5
336
  8
0
 10
939.8619677852051
 20
371.6808834751386
 30
0.0
  0
VERTEX
  5
337
  8
0
 10
940.4332927112154
 20
371.1439092351636
 30
0.0
  0
VERTEX
  5
338
  8
0
 10
941.0851126169459
 20
370.7160435065624
 30
0.0
  0
VERTEX
  5
339
  8
0
 10
941.7923784291809
 20
370.4137289291936
 30
0.0
  0
VERTEX
  5
33A
  8
0
 10
942.5279103196295
 20
370.2485832826253
 30
0.0
  0
SEQEND
  5
375
  8
0
  0
POLYLINE
  5
1CD
  8
0
 66
     1
 10
0.0
 20
0.0
 30
0.0
  0
VERTEX
  5
1CE
  8
0
 10
942.52791033
 20
370.24858329
 30
0.0
  0
VERTEX
  5
1CF
  8
0
 10
932.50621305
 20
360.11875299
 30
0.0
  0
SEQEND
  5
1D0
  8
0
  0
POLYLINE
  5
1D1
  8
0
 66
     1
 10
0.0
 20
0.0
 30
0.0
  0
VERTEX
  5
33B
  8
0
 10
928.7360009442051
 20
364.3319606260555
 30
0.0
  0
VERTEX
  5
33C
  8
0
 10
928.8084445149882
 20
363.5941946318976
 30
0.0
  0
VERTEX
  5
33D
  8
0
 10
929.0229912556139
 20
362.8663847506886
 30
0.0
  0
VERTEX
  5
33E
  8
0
 10
929.3713962552303
 20
362.1765003077618
 30
0.0
  0
VERTEX
  5
33F
  8
0
 10
929.8402705052051
 20
361.5510531751386
 30
0.0
  0
VERTEX
  5
340
  8
0
 10
930.4115954312153
 20
361.0140789351636
 30
0.0
  0
VERTEX
  5
341
  8
0
 10
931.0634153369459
 20
360.5862132065624
 30
0.0
  0
VERTEX
  5
342
  8
0
 10
931.7706811491809
 20
360.2838986291936
 30
0.0
  0
VERTEX
  5
343
  8
0
 10
932.5062130396295
 20
360.1187529826253
 30
0.0
  0
SEQEND
  5
376
  8
0
  0
POLYLINE
  5
1D2
  8
0
 66
     1
 10
0.0
 20
0.0
 30
0.0
  0
VERTEX
  5
1D3
  8
0
 10
932.50621305
 20
360.11875299
 30
0.0
  0
VERTEX
  5
1D4
  8
0
 10
932.50621305
 20
356.38423619
 30
0.0
  0
SEQEND
  5
1D5
  8
0
  0
POLYLINE
  5
1D6
  8
0
 66
     1
 10
0.0
 20
0.0
 30
0.0
  0
VERTEX
  5
344
  8
0
 10
924.9657888401741
 20
364.8106514754315
 30
0.0
  0
VERTEX
  5
345
  8
0
 10
925.1106759791307
 20
363.3351194868735
 30
0.0
  0
VERTEX
  5
346
  8
0
 10
925.5397694578048
 20
361.8794997237109
 30
0.0
  0
VERTEX
  5
347
  8
0
 10
926.2365794545917
 20
360.4997308366385
 30
0.0
  0
VERTEX
  5
348
  8
0
 10
927.1743279523215
 20
359.2488365697462
 30
0.0
  0
VERTEX
  5
349
  8
0
 10
928.3169778024322
 20
358.1748880877865
 30
0.0
  0
VERTEX
  5
34A
  8
0
 10
929.6206176123686
 20
357.3191566282878
 30
0.0
  0
VERTEX
  5
34B
  8
0
 10
931.0351492357563
 20
356.7145274710554
 30
0.0
  0
VERTEX
  5
34C
  8
0
 10
932.5062130160557
 20
356.3842361753215
 30
0.0
  0
SEQEND
  5
377
  8
0
  0
POLYLINE
  5
1D7
  8
0
 66
     1
 10
0.0
 20
0.0
 30
0.0
  0
VERTEX
  5
34D
  8
0
 10
933.36898343
 20
382.29246449
 30
0.0
  0
VERTEX
  5
34E
  8
0
 10
933.5573274963382
 20
382.3266580193903
 30
0.0
  0
VERTEX
  5
34F
  8
0
 10
933.7529547904339
 20
382.4739076610237
 30
0.0
  0
VERTEX
  5
350
  8
0
 10
933.9483474651013
 20
382.7285546937637
 30
0.0
  0
VERTEX
  5
351
  8
0
 10
934.1359966894476
 20
383.0808131749721
 30
0.0
  0
VERTEX
  5
352
  8
0
 10
934.3086912090323
 20
383.5171460087956
 30
0.0
  0
VERTEX
  5
353
  8
0
 10
934.4597944703312
 20
384.020785169167
 30
0.0
  0
VERTEX
  5
354
  8
0
 10
934.5834996597656
 20
384.5723760856414
 30
0.0
  0
VERTEX
  5
355
  8
0
 10
934.6750528562907
 20
385.1507214286826
 30
0.0
  0
VERTEX
  5
356
  8
0
 10
934.730935721916
 20
385.733595711148
 30
0.0
  0
VERTEX
  5
357
  8
0
 10
934.7490007094599
 20
386.2985994012932
 30
0.0
  0
VERTEX
  5
358
  8
0
 10
934.7285535915834
 20
386.8240197242131
 30
0.0
  0
VERTEX
  5
359
  8
0
 10
934.6703801395579
 20
387.289665071603
 30
0.0
  0
VERTEX
  5
35A
  8
0
 10
934.5767159265157
 20
387.6776409539403
 30
0.0
  0
VERTEX
  5
35B
  8
0
 10
934.4511604156282
 20
387.9730376756802
 30
0.0
  0
VERTEX
  5
35C
  8
0
 10
934.2985386347557
 20
388.1645033064925
 30
0.0
  0
VERTEX
  5
35D
  8
0
 10
934.1247157533321
 20
388.2446799295769
 30
0.0
  0
SEQEND
  5
378
  8
0
  0
POLYLINE
  5
1D8
  8
0
 66
     1
 10
0.0
 20
0.0
 30
0.0
  0
VERTEX
  5
35E
  8
0
 10
934.1247157533321
 20
388.2446799295769
 30
0.0
  0
VERTEX
  5
35F
  8
0
 10
933.936371686753
 20
388.2104864020704
 30
0.0
  0
VERTEX
  5
360
  8
0
 10
933.7407443922643
 20
388.0632367617495
 30
0.0
  0
VERTEX
  5
361
  8
0
 10
933.5453517171013
 20
387.8085897297261
 30
0.0
  0
VERTEX
  5
362
  8
0
 10
933.3577024922101
 20
387.4563312486556
 30
0.0
  0
VERTEX
  5
363
  8
0
 10
933.1850079720849
 20
387.0199984144474
 30
0.0
  0
VERTEX
  5
364
  8
0
 10
933.0339047103009
 20
386.5163592532601
 30
0.0
  0
VERTEX
  5
365
  8
0
 10
932.910199520482
 20
385.9647683356581
 30
0.0
  0
VERTEX
  5
366
  8
0
 10
932.8186463237093
 20
385.3864229913174
 30
0.0
  0
VERTEX
  5
367
  8
0
 10
932.7627634579989
 20
384.8035487075318
 30
0.0
  0
VERTEX
  5
368
  8
0
 10
932.7446984705457
 20
384.2385450161987
 30
0.0
  0
VERTEX
  5
369
  8
0
 10
932.7651455886879
 20
383.7131246923676
 30
0.0
  0
VERTEX
  5
36A
  8
0
 10
932.8233190411406
 20
383.2474793444703
 30
0.0
  0
VERTEX
  5
36B
  8
0
 10
932.9169832547449
 20
382.8595034621302
 30
0.0
  0
VERTEX
  5
36C
  8
0
 10
933.0425387662913
 20
382.5641067409603
 30
0.0
  0
VERTEX
  5
36D
  8
0
 10
933.1951605478724
 20
382.3726411113207
 30
0.0
  0
VERTEX
  5
36E
  8
0
 10
933.36898343
 20
382.29246449
 30
0.0
  0
SEQEND
  5
379
  8
0
  0
POLYLINE
  5
1D9
  8
0
 66
     1
 10
0.0
 20
0.0
 30
0.0
  0
VERTEX
  5
1DA
  8
0
 10
938.75769823
 20
404.33792536
 30
0.0
  0
VERTEX
  5
1DB
  8
0
 10
928.73600095
 20
394.20809506
 30
0.0
  0
VERTEX
  5
1DC
  8
0
 10
924.96578885
 20
394.68678592
 30
0.0
  0
SEQEND
  5
1DD
  8
0
  0
LINE
  5
1DE
  8
0
 10
934.98748613
 20
404.81661622
 30
0.0
 11
924.96578885
 21
394.68678592
 31
0.0
  0
LINE
  5
1DF
  8
0
 10
938.75769823
 20
404.33792536
 30
0.0
 11
934.98748613
 21
404.81661622
 31
0.0
  0
POLYLINE
  5
1E0
  8
0
 66
     1
 10
0.0
 20
0.0
 30
0.0
  0
VERTEX
  5
1E1
  8
0
 10
938.75769823
 20
404.33792536
 30
0.0
  0
VERTEX
  5
1E2
  8
0
 10
938.75769823
 20
374.46179095
 30
0.0
  0
VERTEX
  5
1E3
  8
0
 10
928.73600095
 20
364.33196065
 30
0.0
  0
VERTEX
  5
1E4
  8
0
 10
928.73600095
 20
394.20809506
 30
0.0
  0
SEQEND
  5
1E5
  8
0
  0
POLYLINE
  5
1E6
  8
0
 66
     1
 10
0.0
 20
0.0
 30
0.0
  0
VERTEX
  5
1E7
  8
0
 10
928.73600095
 20
364.33196065
 30
0.0
  0
VERTEX
  5
1E8
  8
0
 10
924.96578885
 20
364.81065152
 30
0.0
  0
VERTEX
  5
1E9
  8
0
 10
924.96578885
 20
394.68678592
 30
0.0
  0
SEQEND
  5
1EA
  8
0
  0
LINE
  5
1EB
  8
0
  6
STRICHPUNKT2
 62
     1
 10
935.16067913
 20
385.08906313
 30
0.0
 11
932.81864631
 21
385.38642298
 31
0.0
  0
LINE
  5
1EC
  8
0
  6
STRICHPUNKT2
 62
     1
 10
933.74684959
 20
385.26857221
 30
0.0
 11
935.25010418
 21
386.78804675
 31
0.0
  0
LINE
  5
1ED
  8
0
  6
STRICHPUNKT2
 62
     1
 10
933.74684959
 20
385.26857221
 30
0.0
 11
932.243595
 21
383.74909766
 31
0.0
  0
LINE
  5
1EE
  8
0
  6
STRICHPUNKT2
 62
     1
 10
933.74684959
 20
385.26857221
 30
0.0
 11
933.74684959
 21
389.46990361
 31
0.0
  0
LINE
  5
1EF
  8
0
  6
STRICHPUNKT2
 62
     1
 10
933.74684959
 20
385.26857221
 30
0.0
 11
933.74684959
 21
381.06724081
 31
0.0
  0
POLYLINE
  5
1F0
  8
0
 66
     1
 10
0.0
 20
0.0
 30
0.0
  0
VERTEX
  5
1F1
  8
0
 10
1286.44505153
 20
496.67965404
 30
0.0
  0
VERTEX
  5
1F2
  8
0
 10
1034.44505153
 20
496.67965404
 30
0.0
  0
VERTEX
  5
1F3
  8
0
 10
1034.44505153
 20
492.67965404
 30
0.0
  0
SEQEND
  5
1F4
  8
0
  0
LINE
  5
1F5
  8
0
 10
1286.44505153
 20
492.67965404
 30
0.0
 11
1034.44505153
 21
492.67965404
 31
0.0
  0
LINE
  5
1F6
  8
0
 10
1286.44505153
 20
496.67965404
 30
0.0
 11
1286.44505153
 21
492.67965404
 31
0.0
  0
LINE
  5
1F7
  8
0
  6
STRICHPUNKT2
 62
     1
 10
1164.94505153
 20
492.67965404
 30
0.0
 11
1164.94505153
 21
490.92965404
 31
0.0
  0
LINE
  5
1F8
  8
0
  6
STRICHPUNKT2
 62
     1
 10
1164.94505153
 20
498.42965404
 30
0.0
 11
1164.94505153
 21
496.67965404
 31
0.0
  0
LINE
  5
1F9
  8
0
  6
STRICHPUNKT2
 62
     1
 10
1177.94505153
 20
492.67965404
 30
0.0
 11
1177.94505153
 21
490.92965404
 31
0.0
  0
LINE
  5
1FA
  8
0
  6
STRICHPUNKT2
 62
     1
 10
1177.94505153
 20
498.42965404
 30
0.0
 11
1177.94505153
 21
496.67965404
 31
0.0
  0
LINE
  5
1FB
  8
0
  6
STRICHPUNKT2
 62
     1
 10
1261.44505153
 20
492.67965404
 30
0.0
 11
1261.44505153
 21
490.92965404
 31
0.0
  0
LINE
  5
1FC
  8
0
  6
STRICHPUNKT2
 62
     1
 10
1261.44505153
 20
498.42965404
 30
0.0
 11
1261.44505153
 21
496.67965404
 31
0.0
  0
POLYLINE
  5
1FD
  8
0
 66
     1
 10
0.0
 20
0.0
 30
0.0
  0
VERTEX
  5
1FE
  8
0
 10
1034.44505153
 20
496.67965404
 30
0.0
 42
-0.414213562
  0
VERTEX
  5
1FF
  8
0
 10
1030.44505153
 20
500.67965404
 30
0.0
  0
VERTEX
  5
200
  8
0
 10
1026.44505153
 20
500.67965404
 30
0.0
  0
SEQEND
  5
201
  8
0
  0
ARC
  5
202
  8
0
 10
1034.44505153
 20
500.67965404
 30
0.0
 40
8.0
 50
180.0
 51
-90.0
  0
LINE
  5
203
  8
0
 10
1034.44505153
 20
496.67965404
 30
0.0
 11
1034.44505153
 21
492.67965404
 31
0.0
  0
POLYLINE
  5
204
  8
0
 66
     1
 10
0.0
 20
0.0
 30
0.0
  0
VERTEX
  5
205
  8
0
 10
1030.44505153
 20
500.67965404
 30
0.0
  0
VERTEX
  5
206
  8
0
 10
1030.44505153
 20
532.67965404
 30
0.0
  0
VERTEX
  5
207
  8
0
 10
1026.44505153
 20
532.67965404
 30
0.0
  0
SEQEND
  5
208
  8
0
  0
LINE
  5
209
  8
0
 10
1026.44505153
 20
500.67965404
 30
0.0
 11
1026.44505153
 21
532.67965404
 31
0.0
  0
LINE
  5
20A
  8
0
 10
1030.44505153
 20
500.67965404
 30
0.0
 11
1026.44505153
 21
500.67965404
 31
0.0
  0
LINE
  5
20B
  8
0
  6
STRICHPUNKT2
 62
     1
 10
1026.44505153
 20
517.67965404
 30
0.0
 11
1024.94505153
 21
517.67965404
 31
0.0
  0
LINE
  5
20C
  8
0
  6
STRICHPUNKT2
 62
     1
 10
1031.94505153
 20
517.67965404
 30
0.0
 11
1030.44505153
 21
517.67965404
 31
0.0
  0
LINE
  5
20D
  8
0
 10
956.19420478
 20
492.67965404
 30
0.0
 11
986.19420478
 21
492.67965404
 31
0.0
  0
LINE
  5
20E
  8
0
  6
STRICHPUNKT2
 62
     1
 10
971.19420478
 20
492.67965404
 30
0.0
 11
971.19420478
 21
490.92965404
 31
0.0
  0
LINE
  5
20F
  8
0
 10
956.19420478
 20
500.67965404
 30
0.0
 11
986.19420478
 21
500.67965404
 31
0.0
  0
LINE
  5
210
  8
0
 10
986.19420478
 20
492.67965404
 30
0.0
 11
986.19420478
 21
500.67965404
 31
0.0
  0
LINE
  5
211
  8
0
 10
956.19420478
 20
492.67965404
 30
0.0
 11
986.19420478
 21
492.67965404
 31
0.0
  0
LINE
  5
212
  8
0
 10
956.19420478
 20
500.67965404
 30
0.0
 11
956.19420478
 21
492.67965404
 31
0.0
  0
CIRCLE
  5
213
  8
0
 10
971.19420478
 20
517.67965404
 30
0.0
 40
3.0
  0
LINE
  5
214
  8
0
 10
956.19420478
 20
532.67965404
 30
0.0
 11
986.19420478
 21
532.67965404
 31
0.0
  0
LINE
  5
215
  8
0
 10
986.19420478
 20
500.67965404
 30
0.0
 11
986.19420478
 21
532.67965404
 31
0.0
  0
LINE
  5
216
  8
0
 10
956.19420478
 20
500.67965404
 30
0.0
 11
986.19420478
 21
500.67965404
 31
0.0
  0
LINE
  5
217
  8
0
 10
956.19420478
 20
532.67965404
 30
0.0
 11
956.19420478
 21
500.67965404
 31
0.0
  0
LINE
  5
218
  8
0
  6
STRICHPUNKT2
 62
     1
 10
971.19420478
 20
517.67965404
 30
0.0
 11
966.69420478
 21
517.67965404
 31
0.0
  0
LINE
  5
219
  8
0
  6
STRICHPUNKT2
 62
     1
 10
971.19420478
 20
517.67965404
 30
0.0
 11
975.69420478
 21
517.67965404
 31
0.0
  0
LINE
  5
21A
  8
0
  6
STRICHPUNKT2
 62
     1
 10
971.19420478
 20
517.67965404
 30
0.0
 11
971.19420478
 21
522.17965404
 31
0.0
  0
LINE
  5
21B
  8
0
  6
STRICHPUNKT2
 62
     1
 10
971.19420478
 20
517.67965404
 30
0.0
 11
971.19420478
 21
513.17965404
 31
0.0
  0
CIRCLE
  5
21C
  8
0
 10
1261.44505153
 20
437.1788073
 30
0.0
 40
3.5
  0
POLYLINE
  5
21D
  8
0
 66
     1
 10
0.0
 20
0.0
 30
0.0
 70
     1
  0
VERTEX
  5
21E
  8
0
 10
1164.94505153
 20
433.6788073
 30
0.0
 42
-1.0
  0
VERTEX
  5
21F
  8
0
 10
1164.94505153
 20
440.6788073
 30
0.0
  0
VERTEX
  5
220
  8
0
 10
1177.94505153
 20
440.6788073
 30
0.0
 42
-1.0
  0
VERTEX
  5
221
  8
0
 10
1177.94505153
 20
433.6788073
 30
0.0
  0
SEQEND
  5
222
  8
0
  0
LINE
  5
223
  8
0
 10
1286.44505153
 20
422.1788073
 30
0.0
 11
1034.44505153
 21
422.1788073
 31
0.0
  0
LINE
  5
224
  8
0
 10
1034.44505153
 20
452.1788073
 30
0.0
 11
1034.44505153
 21
422.1788073
 31
0.0
  0
POLYLINE
  5
225
  8
0
 66
     1
 10
0.0
 20
0.0
 30
0.0
  0
VERTEX
  5
226
  8
0
 10
1034.44505153
 20
452.1788073
 30
0.0
  0
VERTEX
  5
227
  8
0
 10
1286.44505153
 20
452.1788073
 30
0.0
  0
VERTEX
  5
228
  8
0
 10
1286.44505153
 20
422.1788073
 30
0.0
  0
SEQEND
  5
229
  8
0
  0
LINE
  5
22A
  8
0
  6
STRICHPUNKT2
 62
     1
 10
1159.69505153
 20
437.1788073
 30
0.0
 11
1183.19505153
 21
437.1788073
 31
0.0
  0
LINE
  5
22B
  8
0
  6
STRICHPUNKT2
 62
     1
 10
1164.94505153
 20
431.9288073
 30
0.0
 11
1164.94505153
 21
442.4288073
 31
0.0
  0
LINE
  5
22C
  8
0
  6
STRICHPUNKT2
 62
     1
 10
1177.94505153
 20
431.9288073
 30
0.0
 11
1177.94505153
 21
442.4288073
 31
0.0
  0
LINE
  5
22D
  8
0
  6
STRICHPUNKT2
 62
     1
 10
1261.44505153
 20
437.1788073
 30
0.0
 11
1266.69505153
 21
437.1788073
 31
0.0
  0
LINE
  5
22E
  8
0
  6
STRICHPUNKT2
 62
     1
 10
1261.44505153
 20
437.1788073
 30
0.0
 11
1256.19505153
 21
437.1788073
 31
0.0
  0
LINE
  5
22F
  8
0
  6
STRICHPUNKT2
 62
     1
 10
1261.44505153
 20
437.1788073
 30
0.0
 11
1261.44505153
 21
442.4288073
 31
0.0
  0
LINE
  5
230
  8
0
  6
STRICHPUNKT2
 62
     1
 10
1261.44505153
 20
437.1788073
 30
0.0
 11
1261.44505153
 21
431.9288073
 31
0.0
  0
POLYLINE
  5
231
  8
0
 66
     1
 10
0.0
 20
0.0
 30
0.0
  0
VERTEX
  5
232
  8
0
 10
1030.44505153
 20
452.1788073
 30
0.0
  0
VERTEX
  5
233
  8
0
 10
1034.44505153
 20
452.1788073
 30
0.0
  0
VERTEX
  5
234
  8
0
 10
1034.44505153
 20
422.1788073
 30
0.0
  0
VERTEX
  5
235
  8
0
 10
1030.44505153
 20
422.1788073
 30
0.0
  0
SEQEND
  5
236
  8
0
  0
POLYLINE
  5
237
  8
0
 66
     1
 10
0.0
 20
0.0
 30
0.0
  0
VERTEX
  5
238
  8
0
 10
1030.44505153
 20
452.1788073
 30
0.0
  0
VERTEX
  5
239
  8
0
 10
1030.44505153
 20
422.1788073
 30
0.0
  0
VERTEX
  5
23A
  8
0
 10
1026.44505153
 20
422.1788073
 30
0.0
  0
SEQEND
  5
23B
  8
0
  0
LINE
  5
23C
  8
0
 10
1026.44505153
 20
452.1788073
 30
0.0
 11
1026.44505153
 21
422.1788073
 31
0.0
  0
LINE
  5
23D
  8
0
 10
1030.44505153
 20
452.1788073
 30
0.0
 11
1026.44505153
 21
452.1788073
 31
0.0
  0
LINE
  5
23E
  8
0
  6
STRICHPUNKT2
 62
     1
 10
1026.44505153
 20
437.1788073
 30
0.0
 11
1024.94505153
 21
437.1788073
 31
0.0
  0
LINE
  5
23F
  8
0
  6
STRICHPUNKT2
 62
     1
 10
1031.94505153
 20
437.1788073
 30
0.0
 11
1030.44505153
 21
437.1788073
 31
0.0
  0
TEXT
  5
240
  8
TXT_DIM49
 10
1027.51759938
 20
544.17965404
 30
0.0
 40
2.5
  1
8
  7
ARIAL
  0
LINE
  5
241
  8
0
 62
     4
 10
1027.44505153
 20
543.67965404
 30
0.0
 11
1025.44505153
 21
541.67965404
 31
0.0
  0
LINE
  5
242
  8
0
 62
     4
 10
1029.69505153
 20
541.92965404
 30
0.0
 11
1031.19505153
 21
543.42965404
 31
0.0
  0
LINE
  5
243
  8
0
 62
     4
 10
1026.44505153
 20
542.67965404
 30
0.0
 11
1030.44505153
 21
542.67965404
 31
0.0
  0
LINE
  5
244
  8
0
 62
     4
 10
1026.44505153
 20
540.67965404
 30
0.0
 11
1026.44505153
 21
544.67965404
 31
0.0
  0
LINE
  5
245
  8
0
 62
     4
 10
1030.44505153
 20
540.67965404
 30
0.0
 11
1030.44505153
 21
544.67965404
 31
0.0
  0
TEXT
  5
246
  8
TXT_DIM49
 10
1155.66269502
 20
544.17965404
 30
0.0
 40
2.5
  1
512
  7
ARIAL
  0
LINE
  5
247
  8
0
 62
     4
 10
1031.44505153
 20
543.67965404
 30
0.0
 11
1029.44505153
 21
541.67965404
 31
0.0
  0
LINE
  5
248
  8
0
 62
     4
 10
1285.69505153
 20
541.92965404
 30
0.0
 11
1287.19505153
 21
543.42965404
 31
0.0
  0
LINE
  5
249
  8
0
 62
     4
 10
1030.44505153
 20
542.67965404
 30
0.0
 11
1286.44505153
 21
542.67965404
 31
0.0
  0
LINE
  5
24A
  8
0
 62
     4
 10
1030.44505153
 20
540.67965404
 30
0.0
 11
1030.44505153
 21
544.67965404
 31
0.0
  0
LINE
  5
24B
  8
0
 62
     4
 10
1286.44505153
 20
540.67965404
 30
0.0
 11
1286.44505153
 21
544.67965404
 31
0.0
  0
TEXT
  5
24C
  8
TXT_DIM49
 10
1153.66269502
 20
484.07410946
 30
0.0
 40
2.5
  1
520
  7
ARIAL
  0
LINE
  5
24D
  8
0
 62
     4
 10
1027.44505153
 20
483.57410946
 30
0.0
 11
1025.44505153
 21
481.57410946
 31
0.0
  0
LINE
  5
24E
  8
0
 62
     4
 10
1285.69505153
 20
481.82410946
 30
0.0
 11
1287.19505153
 21
483.32410946
 31
0.0
  0
LINE
  5
24F
  8
0
 62
     4
 10
1026.44505153
 20
482.57410946
 30
0.0
 11
1286.44505153
 21
482.57410946
 31
0.0
  0
LINE
  5
250
  8
0
 62
     4
 10
1026.44505153
 20
484.57410946
 30
0.0
 11
1026.44505153
 21
480.57410946
 31
0.0
  0
LINE
  5
251
  8
0
 62
     4
 10
1286.44505153
 20
484.57410946
 30
0.0
 11
1286.44505153
 21
480.57410946
 31
0.0
  0
TEXT
  5
252
  8
TXT_DIM49
 10
1292.62774255
 20
493.7522019
 30
0.0
 40
2.5
  1
8
 50
90.00020741
  7
ARIAL
  0
LINE
  5
253
  8
0
 62
     4
 10
1295.12774255
 20
495.67965404
 30
0.0
 11
1293.12774255
 21
497.67965404
 31
0.0
  0
LINE
  5
254
  8
0
 62
     4
 10
1293.37774255
 20
493.42965404
 30
0.0
 11
1294.87774255
 21
491.92965404
 31
0.0
  0
LINE
  5
255
  8
0
 62
     4
 10
1294.12774255
 20
496.67965404
 30
0.0
 11
1294.12774255
 21
492.67965404
 31
0.0
  0
LINE
  5
256
  8
0
 62
     4
 10
1292.12774255
 20
496.67965404
 30
0.0
 11
1296.12774255
 21
496.67965404
 31
0.0
  0
LINE
  5
257
  8
0
 62
     4
 10
1292.12774255
 20
492.67965404
 30
0.0
 11
1296.12774255
 21
492.67965404
 31
0.0
  0
TEXT
  5
258
  8
TXT_DIM49
 10
961.83930048
 20
543.2309482
 30
0.0
 40
2.5
  1
30
  7
ARIAL
  0
LINE
  5
259
  8
0
 62
     4
 10
957.19420478
 20
542.7309482
 30
0.0
 11
955.19420478
 21
540.7309482
 31
0.0
  0
LINE
  5
25A
  8
0
 62
     4
 10
970.44420478
 20
540.9809482
 30
0.0
 11
971.94420478
 21
542.4809482
 31
0.0
  0
LINE
  5
25B
  8
0
 62
     4
 10
956.19420478
 20
541.7309482
 30
0.0
 11
971.19420478
 21
541.7309482
 31
0.0
  0
LINE
  5
25C
  8
0
 62
     4
 10
956.19420478
 20
539.7309482
 30
0.0
 11
956.19420478
 21
543.7309482
 31
0.0
  0
LINE
  5
25D
  8
0
 62
     4
 10
971.19420478
 20
539.7309482
 30
0.0
 11
971.19420478
 21
543.7309482
 31
0.0
  0
TEXT
  5
25E
  8
TXT_DIM49
 10
976.83930048
 20
543.2309482
 30
0.0
 40
2.5
  1
30
  7
ARIAL
  0
LINE
  5
25F
  8
0
 62
     4
 10
972.19420478
 20
542.7309482
 30
0.0
 11
970.19420478
 21
540.7309482
 31
0.0
  0
LINE
  5
260
  8
0
 62
     4
 10
985.44420478
 20
540.9809482
 30
0.0
 11
986.94420478
 21
542.4809482
 31
0.0
  0
LINE
  5
261
  8
0
 62
     4
 10
971.19420478
 20
541.7309482
 30
0.0
 11
986.19420478
 21
541.7309482
 31
0.0
  0
LINE
  5
262
  8
0
 62
     4
 10
971.19420478
 20
539.7309482
 30
0.0
 11
971.19420478
 21
543.7309482
 31
0.0
  0
LINE
  5
263
  8
0
 62
     4
 10
986.19420478
 20
539.7309482
 30
0.0
 11
986.19420478
 21
543.7309482
 31
0.0
  0
LINE
  5
264
  8
0
 62
     5
 10
971.19420478
 20
517.67965404
 30
0.0
 11
974.91546617
 21
511.39842053
 31
0.0
  0
TEXT
  5
265
  8
TXT_DIM49
 10
974.91546617
 20
510.14842053
 30
0.0
 40
2.5
  1
Ø12
  7
ARIAL
  0
TEXT
  5
266
  8
TXT_DIM49
 10
1015.61190841
 20
435.323903
 30
0.0
 40
2.5
  1
60
 50
90.00020741
  7
ARIAL
  0
LINE
  5
267
  8
0
 62
     4
 10
1018.11190841
 20
451.1788073
 30
0.0
 11
1016.11190841
 21
453.1788073
 31
0.0
  0
LINE
  5
268
  8
0
 62
     4
 10
1016.36190841
 20
422.9288073
 30
0.0
 11
1017.86190841
 21
421.4288073
 31
0.0
  0
LINE
  5
269
  8
0
 62
     4
 10
1017.11190841
 20
452.1788073
 30
0.0
 11
1017.11190841
 21
422.1788073
 31
0.0
  0
LINE
  5
26A
  8
0
 62
     4
 10
1019.11190841
 20
452.1788073
 30
0.0
 11
1015.11190841
 21
452.1788073
 31
0.0
  0
LINE
  5
26B
  8
0
 62
     4
 10
1019.11190841
 20
422.1788073
 30
0.0
 11
1015.11190841
 21
422.1788073
 31
0.0
  0
TEXT
  5
26C
  8
TXT_DIM49
 10
1292.0790461
 20
442.823903
 30
0.0
 40
2.5
  1
30
 50
90.00020741
  7
ARIAL
  0
LINE
  5
26D
  8
0
 62
     4
 10
1294.5790461
 20
451.1788073
 30
0.0
 11
1292.5790461
 21
453.1788073
 31
0.0
  0
LINE
  5
26E
  8
0
 62
     4
 10
1292.8290461
 20
437.9288073
 30
0.0
 11
1294.3290461
 21
436.4288073
 31
0.0
  0
LINE
  5
26F
  8
0
 62
     4
 10
1293.5790461
 20
452.1788073
 30
0.0
 11
1293.5790461
 21
437.1788073
 31
0.0
  0
LINE
  5
270
  8
0
 62
     4
 10
1291.5790461
 20
452.1788073
 30
0.0
 11
1295.5790461
 21
452.1788073
 31
0.0
  0
LINE
  5
271
  8
0
 62
     4
 10
1291.5790461
 20
437.1788073
 30
0.0
 11
1295.5790461
 21
437.1788073
 31
0.0
  0
TEXT
  5
272
  8
TXT_DIM49
 10
1292.0790461
 20
427.823903
 30
0.0
 40
2.5
  1
30
 50
90.00020741
  7
ARIAL
  0
LINE
  5
273
  8
0
 62
     4
 10
1294.5790461
 20
436.1788073
 30
0.0
 11
1292.5790461
 21
438.1788073
 31
0.0
  0
LINE
  5
274
  8
0
 62
     4
 10
1292.8290461
 20
422.9288073
 30
0.0
 11
1294.3290461
 21
421.4288073
 31
0.0
  0
LINE
  5
275
  8
0
 62
     4
 10
1293.5790461
 20
437.1788073
 30
0.0
 11
1293.5790461
 21
422.1788073
 31
0.0
  0
LINE
  5
276
  8
0
 62
     4
 10
1291.5790461
 20
437.1788073
 30
0.0
 11
1295.5790461
 21
437.1788073
 31
0.0
  0
LINE
  5
277
  8
0
 62
     4
 10
1291.5790461
 20
422.1788073
 30
0.0
 11
1295.5790461
 21
422.1788073
 31
0.0
  0
TEXT
  5
278
  8
TXT_DIM49
 10
1096.16269502
 20
460.52077619
 30
0.0
 40
2.5
  1
290
  7
ARIAL
  0
LINE
  5
279
  8
0
 62
     4
 10
1027.44505153
 20
460.02077619
 30
0.0
 11
1025.44505153
 21
458.02077619
 31
0.0
  0
LINE
  5
27A
  8
0
 62
     4
 10
1170.69505153
 20
458.27077619
 30
0.0
 11
1172.19505153
 21
459.77077619
 31
0.0
  0
LINE
  5
27B
  8
0
 62
     4
 10
1026.44505153
 20
459.02077619
 30
0.0
 11
1171.44505153
 21
459.02077619
 31
0.0
  0
LINE
  5
27C
  8
0
 62
     4
 10
1026.44505153
 20
457.02077619
 30
0.0
 11
1026.44505153
 21
461.02077619
 31
0.0
  0
LINE
  5
27D
  8
0
 62
     4
 10
1171.44505153
 20
457.02077619
 30
0.0
 11
1171.44505153
 21
461.02077619
 31
0.0
  0
TEXT
  5
27E
  8
TXT_DIM49
 10
1213.66269502
 20
460.52077619
 30
0.0
 40
2.5
  1
180
  7
ARIAL
  0
LINE
  5
27F
  8
0
 62
     4
 10
1172.44505153
 20
460.02077619
 30
0.0
 11
1170.44505153
 21
458.02077619
 31
0.0
  0
LINE
  5
280
  8
0
 62
     4
 10
1260.69505153
 20
458.27077619
 30
0.0
 11
1262.19505153
 21
459.77077619
 31
0.0
  0
LINE
  5
281
  8
0
 62
     4
 10
1171.44505153
 20
459.02077619
 30
0.0
 11
1261.44505153
 21
459.02077619
 31
0.0
  0
LINE
  5
282
  8
0
 62
     4
 10
1171.44505153
 20
457.02077619
 30
0.0
 11
1171.44505153
 21
461.02077619
 31
0.0
  0
LINE
  5
283
  8
0
 62
     4
 10
1261.44505153
 20
457.02077619
 30
0.0
 11
1261.44505153
 21
461.02077619
 31
0.0
  0
TEXT
  5
284
  8
TXT_DIM49
 10
1272.09014723
 20
460.52077619
 30
0.0
 40
2.5
  1
50
  7
ARIAL
  0
LINE
  5
285
  8
0
 62
     4
 10
1262.44505153
 20
460.02077619
 30
0.0
 11
1260.44505153
 21
458.02077619
 31
0.0
  0
LINE
  5
286
  8
0
 62
     4
 10
1285.69505153
 20
458.27077619
 30
0.0
 11
1287.19505153
 21
459.77077619
 31
0.0
  0
LINE
  5
287
  8
0
 62
     4
 10
1261.44505153
 20
459.02077619
 30
0.0
 11
1286.44505153
 21
459.02077619
 31
0.0
  0
LINE
  5
288
  8
0
 62
     4
 10
1261.44505153
 20
457.02077619
 30
0.0
 11
1261.44505153
 21
461.02077619
 31
0.0
  0
LINE
  5
289
  8
0
 62
     4
 10
1286.44505153
 20
457.02077619
 30
0.0
 11
1286.44505153
 21
461.02077619
 31
0.0
  0
LINE
  5
28A
  8
0
 62
     5
 10
1171.44505153
 20
437.1788073
 30
0.0
 11
1174.05739546
 21
427.48033806
 31
0.0
  0
TEXT
  5
28B
  8
TXT_DIM49
 10
1174.05739546
 20
426.23033806
 30
0.0
 40
2.5
  1
Slobgat 14 x 40
  7
ARIAL
  0
LINE
  5
28C
  8
0
 62
     5
 10
1261.44505153
 20
437.1788073
 30
0.0
 11
1255.70668077
 21
427.83724677
 31
0.0
  0
TEXT
  5
28D
  8
TXT_DIM49
 10
1249.4229287
 20
426.58724677
 30
0.0
 40
2.5
  1
Ø14
  7
ARIAL
  0
ENDSEC
  0
EOF
