  0
SECTION
  2
HEADER
  9
$ACADVER
  1
AC1018
  9
$ACADMAINTVER
 70
     0
  9
$DWGCODEPAGE
  3
ANSI_1252
  9
$LASTSAVEDBY
  1
cloudconvert
  9
$INSBASE
 10
0.0
 20
0.0
 30
0.0
  9
$EXTMIN
 10
631.54609082
 20
350.24161391
 30
0.0
  9
$EXTMAX
 10
1790.27344977
 20
908.29557305
 30
0.0
  9
$LIMMIN
 10
631.54609082
 20
350.24161391
  9
$LIMMAX
 10
1790.27344977
 20
908.29557305
  9
$ORTHOMODE
 70
     0
  9
$REGENMODE
 70
     1
  9
$FILLMODE
 70
     1
  9
$QTEXTMODE
 70
     0
  9
$MIRRTEXT
 70
     1
  9
$LTSCALE
 40
1.0
  9
$ATTMODE
 70
     1
  9
$TEXTSIZE
 40
1.0
  9
$TRACEWID
 40
0.05
  9
$TEXTSTYLE
  7
STANDARD
  9
$CLAYER
  8
0
  9
$CELTYPE
  6
ByBlock
  9
$CECOLOR
 62
   256
  9
$CELTSCALE
 40
1.0
  9
$DISPSILH
 70
     0
  9
$DIMSCALE
 40
1.0
  9
$DIMASZ
 40
0.18
  9
$DIMEXO
 40
0.0625
  9
$DIMDLI
 40
0.38
  9
$DIMRND
 40
0.0
  9
$DIMDLE
 40
0.0
  9
$DIMEXE
 40
0.18
  9
$DIMTP
 40
0.0
  9
$DIMTM
 40
0.0
  9
$DIMTXT
 40
0.18
  9
$DIMCEN
 40
0.09
  9
$DIMTSZ
 40
0.0
  9
$DIMTOL
 70
     0
  9
$DIMLIM
 70
     0
  9
$DIMTIH
 70
     1
  9
$DIMTOH
 70
     1
  9
$DIMSE1
 70
     0
  9
$DIMSE2
 70
     0
  9
$DIMTAD
 70
     0
  9
$DIMZIN
 70
     0
  9
$DIMBLK
  1

  9
$DIMASO
 70
     1
  9
$DIMSHO
 70
     1
  9
$DIMPOST
  1

  9
$DIMAPOST
  1

  9
$DIMALT
 70
     0
  9
$DIMALTD
 70
     2
  9
$DIMALTF
 40
25.4
  9
$DIMLFAC
 40
1.0
  9
$DIMTOFL
 70
     0
  9
$DIMTVP
 40
0.0
  9
$DIMTIX
 70
     0
  9
$DIMSOXD
 70
     0
  9
$DIMSAH
 70
     0
  9
$DIMBLK1
  1

  9
$DIMBLK2
  1

  9
$DIMSTYLE
  2
ISO-25
  9
$DIMCLRD
 70
     0
  9
$DIMCLRE
 70
     0
  9
$DIMCLRT
 70
     0
  9
$DIMTFAC
 40
1.0
  9
$DIMGAP
 40
0.09
  9
$DIMJUST
 70
     0
  9
$DIMSD1
 70
     0
  9
$DIMSD2
 70
     0
  9
$DIMTOLJ
 70
     1
  9
$DIMTZIN
 70
     0
  9
$DIMALTZ
 70
     0
  9
$DIMALTTZ
 70
     0
  9
$DIMUPT
 70
     0
  9
$DIMDEC
 70
     4
  9
$DIMTDEC
 70
     4
  9
$DIMALTU
 70
     2
  9
$DIMALTTD
 70
     2
  9
$DIMTXSTY
  7
STANDARD
  9
$DIMAUNIT
 70
     0
  9
$DIMADEC
 70
     0
  9
$DIMALTRND
 40
0.0
  9
$DIMAZIN
 70
     0
  9
$DIMDSEP
 70
    46
  9
$DIMATFIT
 70
     3
  9
$DIMFRAC
 70
     0
  9
$DIMLDRBLK
  1

  9
$DIMLUNIT
 70
     2
  9
$DIMLWD
 70
    -2
  9
$DIMLWE
 70
    -2
  9
$DIMTMOVE
 70
     0
  9
$LUNITS
 70
     2
  9
$LUPREC
 70
     4
  9
$SKETCHINC
 40
0.1
  9
$FILLETRAD
 40
0.0
  9
$AUNITS
 70
     0
  9
$AUPREC
 70
     0
  9
$MENU
  1
.
  9
$ELEVATION
 40
0.0
  9
$PELEVATION
 40
0.0
  9
$THICKNESS
 40
0.0
  9
$LIMCHECK
 70
     0
  9
$CHAMFERA
 40
0.0
  9
$CHAMFERB
 40
0.0
  9
$CHAMFERC
 40
0.0
  9
$CHAMFERD
 40
0.0
  9
$SKPOLY
 70
     0
  9
$TDCREATE
 40
2447893.0
  9
$TDUCREATE
 40
0.0
  9
$TDUPDATE
 40
2460790.419725544
  9
$TDUUPDATE
 40
2460790.419725544
  9
$TDINDWG
 40
0.0
  9
$TDUSRTIMER
 40
0.0
  9
$USRTIMER
 70
     1
  9
$ANGBASE
 50
0.0
  9
$ANGDIR
 70
     0
  9
$PDMODE
 70
     0
  9
$PDSIZE
 40
0.0
  9
$PLINEWID
 40
0.0
  9
$SPLFRAME
 70
     0
  9
$SPLINETYPE
 70
     6
  9
$SPLINESEGS
 70
     8
  9
$HANDSEED
  5
3DA
  9
$SURFTAB1
 70
     6
  9
$SURFTAB2
 70
     6
  9
$SURFTYPE
 70
     6
  9
$SURFU
 70
     6
  9
$SURFV
 70
     6
  9
$UCSBASE
  2

  9
$UCSNAME
  2

  9
$UCSORG
 10
0.0
 20
0.0
 30
0.0
  9
$UCSXDIR
 10
1.0
 20
0.0
 30
0.0
  9
$UCSYDIR
 10
0.0
 20
1.0
 30
0.0
  9
$UCSORTHOREF
  2

  9
$UCSORTHOVIEW
 70
     0
  9
$UCSORGTOP
 10
0.0
 20
0.0
 30
0.0
  9
$UCSORGBOTTOM
 10
0.0
 20
0.0
 30
0.0
  9
$UCSORGLEFT
 10
0.0
 20
0.0
 30
0.0
  9
$UCSORGRIGHT
 10
0.0
 20
0.0
 30
0.0
  9
$UCSORGFRONT
 10
0.0
 20
0.0
 30
0.0
  9
$UCSORGBACK
 10
0.0
 20
0.0
 30
0.0
  9
$PUCSBASE
  2

  9
$PUCSNAME
  2

  9
$PUCSORG
 10
0.0
 20
0.0
 30
0.0
  9
$PUCSXDIR
 10
1.0
 20
0.0
 30
0.0
  9
$PUCSYDIR
 10
0.0
 20
1.0
 30
0.0
  9
$PUCSORTHOREF
  2

  9
$PUCSORTHOVIEW
 70
     0
  9
$PUCSORGTOP
 10
0.0
 20
0.0
 30
0.0
  9
$PUCSORGBOTTOM
 10
0.0
 20
0.0
 30
0.0
  9
$PUCSORGLEFT
 10
0.0
 20
0.0
 30
0.0
  9
$PUCSORGRIGHT
 10
0.0
 20
0.0
 30
0.0
  9
$PUCSORGFRONT
 10
0.0
 20
0.0
 30
0.0
  9
$PUCSORGBACK
 10
0.0
 20
0.0
 30
0.0
  9
$USERI1
 70
     0
  9
$USERI2
 70
     0
  9
$USERI3
 70
     0
  9
$USERI4
 70
     0
  9
$USERI5
 70
     0
  9
$USERR1
 40
0.0
  9
$USERR2
 40
0.0
  9
$USERR3
 40
0.0
  9
$USERR4
 40
0.0
  9
$USERR5
 40
0.0
  9
$WORLDVIEW
 70
     1
  9
$SHADEDGE
 70
     3
  9
$SHADEDIF
 70
    70
  9
$TILEMODE
 70
     1
  9
$MAXACTVP
 70
    64
  9
$PINSBASE
 10
0.0
 20
0.0
 30
0.0
  9
$PLIMCHECK
 70
     0
  9
$PEXTMIN
 10
1.000000000000000E+20
 20
1.000000000000000E+20
 30
1.000000000000000E+20
  9
$PEXTMAX
 10
-1.000000000000000E+20
 20
-1.000000000000000E+20
 30
-1.000000000000000E+20
  9
$PLIMMIN
 10
0.0
 20
0.0
  9
$PLIMMAX
 10
12.0
 20
9.0
  9
$UNITMODE
 70
     0
  9
$VISRETAIN
 70
     0
  9
$PLINEGEN
 70
     0
  9
$PSLTSCALE
 70
     1
  9
$TREEDEPTH
 70
  3020
  9
$CMLSTYLE
  2
Standard
  9
$CMLJUST
 70
     0
  9
$CMLSCALE
 40
1.0
  9
$PROXYGRAPHICS
 70
     1
  9
$MEASUREMENT
 70
     1
  9
$CELWEIGHT
370
    -1
  9
$ENDCAPS
280
     0
  9
$JOINSTYLE
280
     0
  9
$LWDISPLAY
290
     0
  9
$INSUNITS
 70
     4
  9
$HYPERLINKBASE
  1

  9
$STYLESHEET
  1

  9
$XEDIT
290
     1
  9
$CEPSNTYPE
380
     0
  9
$PSTYLEMODE
290
     1
  9
$FINGERPRINTGUID
  2
{45566850-599e-4395-aa3b-1c09761a2b41}
  9
$VERSIONGUID
  2
{FAEB1C32-E019-11D5-929B-00C0DF256EC4}
  9
$EXTNAMES
290
     1
  9
$PSVPSCALE
 40
0.0
  9
$OLESTARTUP
290
     0
  9
$SORTENTS
280
   127
  9
$INDEXCTL
280
     0
  9
$HIDETEXT
280
     1
  9
$XCLIPFRAME
290
     0
  9
$HALOGAP
280
     0
  9
$OBSCOLOR
 70
   257
  9
$OBSLTYPE
280
     0
  9
$INTERSECTIONDISPLAY
280
     0
  9
$INTERSECTIONCOLOR
 70
   257
  9
$DIMASSOC
280
     2
  9
$PROJECTNAME
  1

  0
ENDSEC
  0
SECTION
  2
CLASSES
  0
CLASS
  1
DICTIONARYVAR
  2
AcDbDictionaryVar
  3
ObjectDBX Classes
 90
        0
 91
        3
280
     0
281
     0
  0
CLASS
  1
ACDBDICTIONARYWDFLT
  2
AcDbDictionaryWithDefault
  3
ObjectDBX Classes
 90
        0
 91
        3
280
     0
281
     0
  0
CLASS
  1
SCALE
  2
AcDbScale
  3
ObjectDBX Classes
 90
     1153
 91
        3
280
     0
281
     0
  0
CLASS
  1
VISUALSTYLE
  2
AcDbVisualStyle
  3
ObjectDBX Classes
 90
     4095
 91
        3
280
     0
281
     0
  0
CLASS
  1
MATERIAL
  2
AcDbMaterial
  3
ObjectDBX Classes
 90
     1153
 91
        3
280
     0
281
     0
  0
CLASS
  1
TABLESTYLE
  2
AcDbTableStyle
  3
ObjectDBX Classes
 90
     4095
 91
        3
280
     0
281
     0
  0
CLASS
  1
MLEADERSTYLE
  2
AcDbMLeaderStyle
  3
ACDB_MLEADERSTYLE_CLASS
 90
     4095
 91
        3
280
     0
281
     0
  0
CLASS
  1
CELLSTYLEMAP
  2
AcDbCellStyleMap
  3
ObjectDBX Classes
 90
     1152
 91
        3
280
     0
281
     0
  0
ENDSEC
  0
SECTION
  2
TABLES
  0
TABLE
  2
VPORT
  5
1
102
{ACAD_XDICTIONARY
360
393
102
}
330
0
100
AcDbSymbolTable
 70
     1
  0
VPORT
  5
2
330
1
100
AcDbSymbolTableRecord
100
AcDbViewportTableRecord
  2
*Active
 70
     0
 10
0.0
 20
0.0
 11
1.0
 21
1.0
 12
1210.90977029
 22
629.26859348
 13
0.0
 23
0.0
 14
1.0
 24
1.0
 15
0.0
 25
0.0
 16
0.0
 26
0.0
 36
1.0
 17
0.0
 27
0.0
 37
0.0
 40
558.053959139
 41
2.076371541
 42
50.0
 43
0.0
 44
0.0
 50
0.0
 51
0.0
 71
     0
 72
   100
 73
     1
 74
     1
 75
     0
 76
     0
 77
     0
 78
     0
281
     0
 65
     1
110
0.0
120
0.0
130
0.0
111
1.0
121
0.0
131
0.0
112
0.0
122
1.0
132
0.0
 79
     0
146
0.0
  0
ENDTAB
  0
TABLE
  2
LTYPE
  5
3
330
0
100
AcDbSymbolTable
 70
    19
  0
LTYPE
  5
4
330
3
100
AcDbSymbolTableRecord
100
AcDbLinetypeTableRecord
  2
ByBlock
 70
     0
  3

 72
    65
 73
     0
 40
0.0
  0
LTYPE
  5
5
330
3
100
AcDbSymbolTableRecord
100
AcDbLinetypeTableRecord
  2
ByLayer
 70
     0
  3

 72
    65
 73
     0
 40
0.0
  0
LTYPE
  5
6
330
3
100
AcDbSymbolTableRecord
100
AcDbLinetypeTableRecord
  2
CONTINUOUS
 70
     0
  3
Solid line
 72
    65
 73
     0
 40
0.0
  0
LTYPE
  5
7
330
3
100
AcDbSymbolTableRecord
100
AcDbLinetypeTableRecord
  2
DOT
 70
     0
  3
..............
 72
    65
 73
     2
 40
2.0
 49
0.5
 74
     0
 49
-1.5
 74
     0
  0
LTYPE
  5
8
330
3
100
AcDbSymbolTableRecord
100
AcDbLinetypeTableRecord
  2
HIDDEN
 70
     0
  3
-- -- -- -- --
 72
    65
 73
     2
 40
7.0
 49
4.0
 74
     0
 49
-3.0
 74
     0
  0
LTYPE
  5
9
330
3
100
AcDbSymbolTableRecord
100
AcDbLinetypeTableRecord
  2
DASHDOT
 70
     0
  3
--.--.--.--.--
 72
    65
 73
     4
 40
8.5
 49
4.0
 74
     0
 49
-2.0
 74
     0
 49
0.5
 74
     0
 49
-2.0
 74
     0
  0
LTYPE
  5
A
330
3
100
AcDbSymbolTableRecord
100
AcDbLinetypeTableRecord
  2
STRICHPUNKT2
 70
     0
  3
--.--.--.--.--
 72
    65
 73
     4
 40
18.5
 49
10.0
 74
     0
 49
-4.0
 74
     0
 49
0.5
 74
     0
 49
-4.0
 74
     0
  0
LTYPE
  5
B
330
3
100
AcDbSymbolTableRecord
100
AcDbLinetypeTableRecord
  2
STRICHPUNKT3
 70
     0
  3
--.--.--.--.--
 72
    65
 73
     4
 40
35.5
 49
25.0
 74
     0
 49
-5.0
 74
     0
 49
0.5
 74
     0
 49
-5.0
 74
     0
  0
LTYPE
  5
13F
330
3
100
AcDbSymbolTableRecord
100
AcDbLinetypeTableRecord
  2
PHANTOM
 70
     0
  3
--..--..--..--
 72
    65
 73
     6
 40
23.0
 49
10.0
 74
     0
 49
-4.0
 74
     0
 49
0.5
 74
     0
 49
-4.0
 74
     0
 49
0.5
 74
     0
 49
-4.0
 74
     0
  0
LTYPE
  5
140
330
3
100
AcDbSymbolTableRecord
100
AcDbLinetypeTableRecord
  2
PHANTOM2
 70
     0
  3
--..--..--..--
 72
    65
 73
     6
 40
33.0
 49
20.0
 74
     0
 49
-4.0
 74
     0
 49
0.5
 74
     0
 49
-4.0
 74
     0
 49
0.5
 74
     0
 49
-4.0
 74
     0
  0
LTYPE
  5
141
330
3
100
AcDbSymbolTableRecord
100
AcDbLinetypeTableRecord
  2
PHANTOM3
 70
     0
  3
--..--..--..--
 72
    65
 73
     6
 40
50.0
 49
37.0
 74
     0
 49
-4.0
 74
     0
 49
0.5
 74
     0
 49
-4.0
 74
     0
 49
0.5
 74
     0
 49
-4.0
 74
     0
  0
LTYPE
  5
142
330
3
100
AcDbSymbolTableRecord
100
AcDbLinetypeTableRecord
  2
STR3PKT
 70
     0
  3
--...--...--...
 72
    65
 73
     8
 40
31.5
 49
20.0
 74
     0
 49
-2.5
 74
     0
 49
0.5
 74
     0
 49
-2.5
 74
     0
 49
0.5
 74
     0
 49
-2.5
 74
     0
 49
0.5
 74
     0
 49
-2.5
 74
     0
  0
LTYPE
  5
143
330
3
100
AcDbSymbolTableRecord
100
AcDbLinetypeTableRecord
  2
2STRPKT
 70
     0
  3
--.--.--.--.--
 72
    65
 73
     6
 40
28.0
 49
10.0
 74
     0
 49
-2.5
 74
     0
 49
10.0
 74
     0
 49
-2.5
 74
     0
 49
0.5
 74
     0
 49
-2.5
 74
     0
  0
LTYPE
  5
144
330
3
100
AcDbSymbolTableRecord
100
AcDbLinetypeTableRecord
  2
GESTRICHELT2
 70
     0
  3
-- -- -- -- --
 72
    65
 73
     2
 40
25.0
 49
10.0
 74
     0
 49
-15.0
 74
     0
  0
LTYPE
  5
145
330
3
100
AcDbSymbolTableRecord
100
AcDbLinetypeTableRecord
  2
2STR2PKT
 70
     0
  3
--..--..--..--
 72
    65
 73
     8
 40
31.0
 49
10.0
 74
     0
 49
-2.5
 74
     0
 49
10.0
 74
     0
 49
-2.5
 74
     0
 49
0.5
 74
     0
 49
-2.5
 74
     0
 49
0.5
 74
     0
 49
-2.5
 74
     0
  0
LTYPE
  5
146
330
3
100
AcDbSymbolTableRecord
100
AcDbLinetypeTableRecord
  2
STR3PKT2
 70
     0
  3
--...--...--...
 72
    65
 73
     8
 40
21.0
 49
10.0
 74
     0
 49
-2.5
 74
     0
 49
0.5
 74
     0
 49
-2.5
 74
     0
 49
0.5
 74
     0
 49
-2.5
 74
     0
 49
0.5
 74
     0
 49
-2.0
 74
     0
  0
LTYPE
  5
147
330
3
100
AcDbSymbolTableRecord
100
AcDbLinetypeTableRecord
  2
2STR3PKT
 70
     0
  3
--...--...--...
 72
    65
 73
    10
 40
34.0
 49
10.0
 74
     0
 49
-2.5
 74
     0
 49
10.0
 74
     0
 49
-2.5
 74
     0
 49
0.5
 74
     0
 49
-2.5
 74
     0
 49
0.5
 74
     0
 49
-2.5
 74
     0
 49
0.5
 74
     0
 49
-2.5
 74
     0
  0
LTYPE
  5
148
330
3
100
AcDbSymbolTableRecord
100
AcDbLinetypeTableRecord
  2
STRKSTR
 70
     0
  3
-- - -- - -- -
 72
    65
 73
     4
 40
30.0
 49
20.0
 74
     0
 49
-2.5
 74
     0
 49
5.0
 74
     0
 49
-2.5
 74
     0
  0
LTYPE
  5
149
330
3
100
AcDbSymbolTableRecord
100
AcDbLinetypeTableRecord
  2
STRKSTR2
 70
     0
  3
-- - -- - -- -
 72
    65
 73
     6
 40
37.5
 49
20.0
 74
     0
 49
-2.5
 74
     0
 49
5.0
 74
     0
 49
-2.5
 74
     0
 49
5.0
 74
     0
 49
-2.5
 74
     0
  0
LTYPE
  5
14A
330
3
100
AcDbSymbolTableRecord
100
AcDbLinetypeTableRecord
  2
STRKSTR3
 70
     0
  3
-- - -- - -- -
 72
    65
 73
     8
 40
45.0
 49
20.0
 74
     0
 49
-2.5
 74
     0
 49
5.0
 74
     0
 49
-2.5
 74
     0
 49
5.0
 74
     0
 49
-2.5
 74
     0
 49
5.0
 74
     0
 49
-2.5
 74
     0
  0
LTYPE
  5
14B
330
3
100
AcDbSymbolTableRecord
100
AcDbLinetypeTableRecord
  2
PUNKT2
 70
     0
  3
..............
 72
    65
 73
     2
 40
3.5
 49
0.5
 74
     0
 49
-3.0
 74
     0
  0
ENDTAB
  0
TABLE
  2
LAYER
  5
14C
330
0
100
AcDbSymbolTable
 70
    15
  0
LAYER
  5
14D
330
14C
100
AcDbSymbolTableRecord
100
AcDbLayerTableRecord
  2
0
 70
     0
 62
     7
  6
CONTINUOUS
370
    -3
390
35F
  0
LAYER
  5
14E
330
14C
100
AcDbSymbolTableRecord
100
AcDbLayerTableRecord
  2
LE_GREEN
 70
     0
 62
     3
  6
CONTINUOUS
370
    -3
390
35F
  0
LAYER
  5
14F
330
14C
100
AcDbSymbolTableRecord
100
AcDbLayerTableRecord
  2
LE_RED
 70
     0
 62
     1
  6
CONTINUOUS
370
    -3
390
35F
  0
LAYER
  5
150
330
14C
100
AcDbSymbolTableRecord
100
AcDbLayerTableRecord
  2
LE_ALL
 70
     0
 62
     7
  6
CONTINUOUS
370
    50
390
35F
  0
LAYER
  5
151
330
14C
100
AcDbSymbolTableRecord
100
AcDbLayerTableRecord
  2
LE_HIDDEN1
 70
     0
 62
     3
  6
HIDDEN
370
    -3
390
35F
  0
LAYER
  5
152
330
14C
100
AcDbSymbolTableRecord
100
AcDbLayerTableRecord
  2
LE_HIDDEN
 70
     0
 62
     7
  6
CONTINUOUS
370
    -3
390
35F
  0
LAYER
  5
153
330
14C
100
AcDbSymbolTableRecord
100
AcDbLayerTableRecord
  2
LE_MIDDLE
 70
     0
 62
     7
  6
CONTINUOUS
370
    -3
390
35F
  0
LAYER
  5
154
330
14C
100
AcDbSymbolTableRecord
100
AcDbLayerTableRecord
  2
TXT_YELLOW
 70
     0
 62
     2
  6
CONTINUOUS
370
    -3
390
35F
  0
LAYER
  5
155
330
14C
100
AcDbSymbolTableRecord
100
AcDbLayerTableRecord
  2
TXT_DIM49
 70
     0
 62
     2
  6
CONTINUOUS
370
    -3
390
35F
  0
LAYER
  5
156
330
14C
100
AcDbSymbolTableRecord
100
AcDbLayerTableRecord
  2
TXT_ALL
 70
     0
 62
     7
  6
CONTINUOUS
370
    -3
390
35F
  0
LAYER
  5
157
330
14C
100
AcDbSymbolTableRecord
100
AcDbLayerTableRecord
  2
DIM49
 70
     0
 62
     4
  6
CONTINUOUS
370
    -3
390
35F
  0
LAYER
  5
158
330
14C
100
AcDbSymbolTableRecord
100
AcDbLayerTableRecord
  2
HATCH
 70
     0
 62
     3
  6
CONTINUOUS
370
    -3
390
35F
  0
LAYER
  5
159
330
14C
100
AcDbSymbolTableRecord
100
AcDbLayerTableRecord
  2
APPLE
 70
     0
 62
     7
  6
CONTINUOUS
370
    -3
390
35F
  0
LAYER
  5
15A
330
14C
100
AcDbSymbolTableRecord
100
AcDbLayerTableRecord
  2
10
 70
     0
 62
     7
  6
CONTINUOUS
370
    -3
390
35F
  0
LAYER
  5
15B
330
14C
100
AcDbSymbolTableRecord
100
AcDbLayerTableRecord
  2
49
 70
     0
 62
     7
  6
CONTINUOUS
370
    -3
390
35F
  0
ENDTAB
  0
TABLE
  2
STYLE
  5
15C
330
0
100
AcDbSymbolTable
 70
     5
  0
STYLE
  5
15D
330
15C
100
AcDbSymbolTableRecord
100
AcDbTextStyleTableRecord
  2
MONOTXT
 70
     0
 40
0.0
 41
1.0
 50
0.0
 71
     0
 42
1.0
  3
monotxt.shx
  4

  0
STYLE
  5
15E
330
15C
100
AcDbSymbolTableRecord
100
AcDbTextStyleTableRecord
  2
STANDARD
 70
     0
 40
0.0
 41
1.0
 50
0.0
 71
     0
 42
1.0
  3
txt
  4

  0
STYLE
  5
15F
330
15C
100
AcDbSymbolTableRecord
100
AcDbTextStyleTableRecord
  2
ARIAL
 70
     0
 40
0.0
 41
1.0
 50
0.0
 71
     0
 42
1.0
  3
arial.ttf
  4

  0
STYLE
  5
160
330
15C
100
AcDbSymbolTableRecord
100
AcDbTextStyleTableRecord
  2
ARIAL Narrow
 70
     0
 40
0.0
 41
1.0
 50
0.0
 71
     0
 42
1.0
  3
ArialN.ttf
  4

  0
STYLE
  5
161
330
15C
100
AcDbSymbolTableRecord
100
AcDbTextStyleTableRecord
  2
ISOCPEUR
 70
     0
 40
0.0
 41
1.0
 50
0.0
 71
     0
 42
1.0
  3
ISOCPEUR.ttf
  4

  0
ENDTAB
  0
TABLE
  2
VIEW
  5
162
330
0
100
AcDbSymbolTable
 70
     0
  0
ENDTAB
  0
TABLE
  2
UCS
  5
163
330
0
100
AcDbSymbolTable
 70
     0
  0
ENDTAB
  0
TABLE
  2
APPID
  5
164
330
0
100
AcDbSymbolTable
 70
     2
  0
APPID
  5
165
330
164
100
AcDbSymbolTableRecord
100
AcDbRegAppTableRecord
  2
ACAD
 70
     0
  0
APPID
  5
3D1
330
164
100
AcDbSymbolTableRecord
100
AcDbRegAppTableRecord
  2
ACAD_MLEADERVER
 70
     0
  0
ENDTAB
  0
TABLE
  2
DIMSTYLE
  5
166
330
0
100
AcDbSymbolTable
 70
     1
100
AcDbDimStyleTable
  0
DIMSTYLE
105
35C
330
166
100
AcDbSymbolTableRecord
100
AcDbDimStyleTableRecord
  2
ISO-25
 70
     0
 41
2.5
 42
0.625
 43
3.75
 44
1.25
 73
     0
 74
     0
 77
     1
 78
     8
140
2.5
141
2.5
143
0.03937007874016
147
0.625
171
     3
172
     1
178
     0
271
     2
272
     2
274
     3
278
    44
283
     0
284
     8
340
15E
  0
ENDTAB
  0
TABLE
  2
BLOCK_RECORD
  5
167
330
0
100
AcDbSymbolTable
 70
     0
  0
BLOCK_RECORD
  5
1E
330
167
100
AcDbSymbolTableRecord
100
AcDbBlockTableRecord
  2
*Model_Space
340
21
  0
BLOCK_RECORD
  5
1A
330
167
100
AcDbSymbolTableRecord
100
AcDbBlockTableRecord
  2
*Paper_Space
340
1D
  0
ENDTAB
  0
ENDSEC
  0
SECTION
  2
BLOCKS
  0
BLOCK
  5
168
330
1E
100
AcDbEntity
  8
0
100
AcDbBlockBegin
  2
*Model_Space
 70
     0
 10
0.0
 20
0.0
 30
0.0
  3
*Model_Space
  1

  0
ENDBLK
  5
169
330
1E
100
AcDbEntity
  8
0
100
AcDbBlockEnd
  0
BLOCK
  5
16A
330
1A
100
AcDbEntity
 67
     1
  8
0
100
AcDbBlockBegin
  2
*Paper_Space
 70
     0
 10
0.0
 20
0.0
 30
0.0
  3
*Paper_Space
  1

  0
ENDBLK
  5
16B
330
1A
100
AcDbEntity
 67
     1
  8
0
100
AcDbBlockEnd
  0
ENDSEC
  0
SECTION
  2
ENTITIES
  0
POLYLINE
  5
16C
330
1E
100
AcDbEntity
  8
0
100
AcDb2dPolyline
 66
     1
 10
0.0
 20
0.0
 30
0.0
 70
     1
  0
VERTEX
  5
16D
330
16C
100
AcDbEntity
  8
0
100
AcDbVertex
100
AcDb2dVertex
 10
860.05671858
 20
478.81118062
 30
0.0
  0
VERTEX
  5
16E
330
16C
100
AcDbEntity
  8
0
100
AcDbVertex
100
AcDb2dVertex
 10
1280.05671858
 20
478.81118062
 30
0.0
  0
VERTEX
  5
16F
330
16C
100
AcDbEntity
  8
0
100
AcDbVertex
100
AcDb2dVertex
 10
1280.05671858
 20
775.81118062
 30
0.0
  0
VERTEX
  5
170
330
16C
100
AcDbEntity
  8
0
100
AcDbVertex
100
AcDb2dVertex
 10
860.05671858
 20
775.81118062
 30
0.0
  0
SEQEND
  5
171
330
16C
100
AcDbEntity
  8
0
  0
POLYLINE
  5
172
330
1E
100
AcDbEntity
  8
0
100
AcDb2dPolyline
 66
     1
 10
0.0
 20
0.0
 30
0.0
 70
     1
  0
VERTEX
  5
173
330
172
100
AcDbEntity
  8
0
100
AcDbVertex
100
AcDb2dVertex
 10
865.05671858
 20
483.81118062
 30
0.0
  0
VERTEX
  5
174
330
172
100
AcDbEntity
  8
0
100
AcDbVertex
100
AcDb2dVertex
 10
1275.05671858
 20
483.81118062
 30
0.0
  0
VERTEX
  5
175
330
172
100
AcDbEntity
  8
0
100
AcDbVertex
100
AcDb2dVertex
 10
1275.05671858
 20
770.81118062
 30
0.0
  0
VERTEX
  5
176
330
172
100
AcDbEntity
  8
0
100
AcDbVertex
100
AcDb2dVertex
 10
865.05671858
 20
770.81118062
 30
0.0
  0
SEQEND
  5
177
330
172
100
AcDbEntity
  8
0
  0
LINE
  5
178
330
1E
100
AcDbEntity
  8
0
100
AcDbLine
 10
1090.05671858
 20
483.81118062
 30
0.0
 11
1090.05671858
 21
478.81118062
 31
0.0
  0
LINE
  5
179
330
1E
100
AcDbEntity
  8
0
100
AcDbLine
 10
1090.05671858
 20
770.81118062
 30
0.0
 11
1090.05671858
 21
775.81118062
 31
0.0
  0
LINE
  5
17A
330
1E
100
AcDbEntity
  8
0
100
AcDbLine
 10
880.05671858
 20
483.81118062
 30
0.0
 11
880.05671858
 21
478.81118062
 31
0.0
  0
LINE
  5
17B
330
1E
100
AcDbEntity
  8
0
100
AcDbLine
 10
880.05671858
 20
770.81118062
 30
0.0
 11
880.05671858
 21
775.81118062
 31
0.0
  0
TEXT
  5
17C
330
1E
100
AcDbEntity
  8
TXT_ALL
 62
     4
100
AcDbText
 10
1279.05671858
 20
479.81118062
 30
0.0
 40
2.5
  1

 50
90.00020741
100
AcDbText
  0
POLYLINE
  5
17D
330
1E
100
AcDbEntity
  8
0
100
AcDb2dPolyline
 66
     1
 10
0.0
 20
0.0
 30
0.0
  0
VERTEX
  5
17E
330
17D
100
AcDbEntity
  8
0
100
AcDbVertex
100
AcDb2dVertex
 10
1275.05671858
 20
760.81118062
 30
0.0
  0
VERTEX
  5
17F
330
17D
100
AcDbEntity
  8
0
100
AcDbVertex
100
AcDb2dVertex
 10
1206.06341858
 20
760.81118062
 30
0.0
  0
VERTEX
  5
180
330
17D
100
AcDbEntity
  8
0
100
AcDbVertex
100
AcDb2dVertex
 10
1206.06341858
 20
770.81118062
 30
0.0
  0
SEQEND
  5
181
330
17D
100
AcDbEntity
  8
0
  0
LINE
  5
182
330
1E
100
AcDbEntity
  8
0
100
AcDbLine
 10
1207.96671858
 20
503.31118062
 30
0.0
 11
1068.07671858
 21
503.31118062
 31
0.0
  0
LINE
  5
183
330
1E
100
AcDbEntity
  8
0
100
AcDbLine
 10
1068.07671858
 20
493.56118062
 30
0.0
 11
1207.96671858
 21
493.56118062
 31
0.0
  0
POLYLINE
  5
184
330
1E
100
AcDbEntity
  8
0
100
AcDb2dPolyline
 66
     1
 10
0.0
 20
0.0
 30
0.0
  0
VERTEX
  5
185
330
184
100
AcDbEntity
  8
0
100
AcDbVertex
100
AcDb2dVertex
 10
1068.07671858
 20
503.31118062
 30
0.0
  0
VERTEX
  5
186
330
184
100
AcDbEntity
  8
0
100
AcDbVertex
100
AcDb2dVertex
 10
1068.07671858
 20
493.56118062
 30
0.0
  0
VERTEX
  5
187
330
184
100
AcDbEntity
  8
0
100
AcDbVertex
100
AcDb2dVertex
 10
1068.07671858
 20
483.81118062
 30
0.0
  0
SEQEND
  5
188
330
184
100
AcDbEntity
  8
0
  0
POLYLINE
  5
189
330
1E
100
AcDbEntity
  8
0
100
AcDb2dPolyline
 66
     1
 10
0.0
 20
0.0
 30
0.0
  0
VERTEX
  5
18A
330
189
100
AcDbEntity
  8
0
100
AcDbVertex
100
AcDb2dVertex
 10
1138.02171858
 20
503.31118062
 30
0.0
  0
VERTEX
  5
18B
330
189
100
AcDbEntity
  8
0
100
AcDbVertex
100
AcDb2dVertex
 10
1138.02171858
 20
493.56118062
 30
0.0
  0
VERTEX
  5
18C
330
189
100
AcDbEntity
  8
0
100
AcDbVertex
100
AcDb2dVertex
 10
1138.02171858
 20
483.81118062
 30
0.0
  0
SEQEND
  5
18D
330
189
100
AcDbEntity
  8
0
  0
TEXT
  5
18E
330
1E
100
AcDbEntity
  8
TXT_ALL
100
AcDbText
 10
1070.07671858
 20
497.13618067
 30
0.0
 40
2.5999999
  1
E-mail: verkoop@jonkers-bouwmetaal.nl
  7
ARIAL
 11
1070.07671858
 21
498.43618062
 31
0.0
100
AcDbText
 73
     2
  0
TEXT
  5
18F
330
1E
100
AcDbEntity
  8
TXT_ALL
100
AcDbText
 10
1070.07671858
 20
487.38618067
 30
0.0
 40
2.5999999
  1
Telefoon: 0527-685156
  7
ARIAL
 11
1070.07671858
 21
488.68618062
 31
0.0
100
AcDbText
 73
     2
  0
TEXT
  5
190
330
1E
100
AcDbEntity
  8
TXT_ALL
100
AcDbText
 10
1140.02171858
 20
487.38618067
 30
0.0
 40
2.5999999
  1
Website: www.jonkers-bouwmetaal.nl
  7
ARIAL
 11
1140.02171858
 21
488.68618062
 31
0.0
100
AcDbText
 73
     2
  0
TEXT
  5
191
330
1E
100
AcDbEntity
  8
TXT_ALL
100
AcDbText
 10
1140.02171858
 20
497.13618067
 30
0.0
 40
2.5999999
  1
Adres: Hoornse Hop 10, 8321 WX Urk
  7
ARIAL
 11
1140.02171858
 21
498.43618062
 31
0.0
100
AcDbText
 73
     2
  0
TEXT
  5
192
330
1E
100
AcDbEntity
  8
TXT_ALL
100
AcDbText
 10
868.49867883
 20
764.56118062
 30
0.0
 40
2.5
  1
Art. nr. 91001357
  7
ARIAL
 11
868.49867883
 21
765.81118062
 31
0.0
100
AcDbText
 73
     2
  0
TEXT
  5
193
330
1E
100
AcDbEntity
  8
TXT_ALL
100
AcDbText
 10
911.23671565
 20
764.56118062
 30
0.0
 40
2.5
  1
Omschrijving: F1-anker 315x100 80x8
  7
ARIAL
 11
911.23671565
 21
765.81118062
 31
0.0
100
AcDbText
 73
     2
  0
LINE
  5
194
330
1E
100
AcDbEntity
  8
0
100
AcDbLine
 10
1275.05671858
 20
760.81118062
 30
0.0
 11
865.05671858
 21
760.81118062
 31
0.0
  0
LINE
  5
195
330
1E
100
AcDbEntity
  8
0
100
AcDbLine
 10
908.07671858
 20
760.81118062
 30
0.0
 11
908.07671858
 21
770.81118062
 31
0.0
  0
LINE
  5
196
330
1E
100
AcDbEntity
  8
0
100
AcDbLine
 10
1068.07671858
 20
760.81118062
 30
0.0
 11
1068.07671858
 21
770.81118062
 31
0.0
  0
TEXT
  5
197
330
1E
100
AcDbEntity
  8
TXT_ALL
100
AcDbText
 10
1139.07041858
 20
764.56118062
 30
0.0
 40
2.5
  1
Behandeling: Thermisch Verzinkt
  7
ARIAL
 11
1139.07041858
 21
765.81118062
 31
0.0
100
AcDbText
 73
     2
  0
LINE
  5
198
330
1E
100
AcDbEntity
  8
0
100
AcDbLine
 10
1207.96671858
 20
503.31118062
 30
0.0
 11
1275.05671858
 21
503.31118062
 31
0.0
  0
LINE
  5
199
330
1E
100
AcDbEntity
  8
0
100
AcDbLine
 10
1207.96671858
 20
483.81118062
 30
0.0
 11
1207.96671858
 21
503.31118062
 31
0.0
  0
LINE
  5
19A
330
1E
100
AcDbEntity
  8
0
100
AcDbLine
 10
1207.96671858
 20
483.81118062
 30
0.0
 11
1207.96671858
 21
503.31118062
 31
0.0
  0
TEXT
  5
19B
330
1E
100
AcDbEntity
  8
TXT_ALL
100
AcDbText
 10
1002.42191667
 20
484.96571404
 30
0.0
 40
2.5
  1

 11
1002.42191667
 21
486.21571404
 31
0.0
100
AcDbText
 73
     2
  0
TEXT
  5
19C
330
1E
100
AcDbEntity
  8
TXT_ALL
100
AcDbText
 10
1123.55709964
 20
495.06118062
 30
0.0
 40
2.5
  1

 11
1123.55709964
 21
496.31118062
 31
0.0
100
AcDbText
 73
     2
  0
POLYLINE
  5
19D
330
1E
100
AcDbEntity
  8
0
100
AcDb2dPolyline
 66
     1
 10
0.0
 20
0.0
 30
0.0
  0
VERTEX
  5
19E
330
19D
100
AcDbEntity
  8
0
100
AcDbVertex
100
AcDb2dVertex
 10
1206.06341858
 20
760.81118062
 30
0.0
  0
VERTEX
  5
19F
330
19D
100
AcDbEntity
  8
0
100
AcDbVertex
100
AcDb2dVertex
 10
1137.07041858
 20
760.81118062
 30
0.0
  0
VERTEX
  5
1A0
330
19D
100
AcDbEntity
  8
0
100
AcDbVertex
100
AcDb2dVertex
 10
1137.07041858
 20
770.81118062
 30
0.0
  0
SEQEND
  5
1A1
330
19D
100
AcDbEntity
  8
0
  0
TEXT
  5
1A2
330
1E
100
AcDbEntity
  8
TXT_ALL
100
AcDbText
 10
1208.06341858
 20
764.56118062
 30
0.0
 40
2.5
  1
Verpakkingshoeveelheid: 1 st.
  7
ARIAL
 11
1208.06341858
 21
765.81118062
 31
0.0
100
AcDbText
 73
     2
  0
TEXT
  5
1A3
330
1E
100
AcDbEntity
  8
TXT_ALL
100
AcDbText
 10
1070.07671858
 20
764.56118062
 30
0.0
 40
2.5
  1
Materiaal: S355
  7
ARIAL
 11
1070.07671858
 21
765.81118062
 31
0.0
100
AcDbText
 73
     2
  0
TEXT
  5
1A4
330
1E
100
AcDbEntity
  8
TXT_ALL
100
AcDbText
 10
1242.27882899
 20
480.56167077
 30
0.0
 40
1.5
  1
Onderdeel van
  7
ARIAL
 11
1242.27882899
 21
481.31167077
 31
0.0
100
AcDbText
 73
     2
  0
ELLIPSE
  5
1A5
330
1E
100
AcDbEntity
  8
0
100
AcDbEllipse
 10
923.99910232
 20
552.16624184
 30
0.0
 11
-0.26363103
 21
-1.98254853
 31
0.0
210
0.0
220
0.0
230
1.0
 40
0.4458689
 41
3.14159265
 42
6.28318531
  0
ELLIPSE
  5
1A6
330
1E
100
AcDbEntity
  8
0
100
AcDbEllipse
 10
923.99910232
 20
552.16624184
 30
0.0
 11
-0.26363103
 21
-1.98254853
 31
0.0
210
0.0
220
0.0
230
1.0
 40
0.4458689
 41
0.0
 42
3.14159265
  0
ELLIPSE
  5
1A7
330
1E
100
AcDbEntity
  8
0
100
AcDbEllipse
 10
928.61126245
 20
552.50264391
 30
0.0
 11
-0.31635724
 21
-2.37905824
 31
0.0
210
0.0
220
0.0
230
1.0
 40
0.4458689
 41
0.0
 42
3.14159265
  0
ELLIPSE
  5
1A8
330
1E
100
AcDbEntity
  8
0
100
AcDbEllipse
 10
928.61126245
 20
552.50264391
 30
0.0
 11
-0.31635724
 21
-2.37905824
 31
0.0
210
0.0
220
0.0
230
1.0
 40
0.4458689
 41
3.14159265
 42
6.283185307179586
  0
LINE
  5
1A9
330
1E
100
AcDbEntity
  8
0
100
AcDbLine
 10
918.39248502
 20
558.91568954
 30
0.0
 11
918.39248502
 21
523.34022119
 31
0.0
  0
LINE
  5
1AA
330
1E
100
AcDbEntity
  8
0
100
AcDbLine
 10
921.23180625
 20
522.9626601
 30
0.0
 11
918.39248502
 21
523.34022119
 31
0.0
  0
LINE
  5
1AB
330
1E
100
AcDbEntity
  8
0
100
AcDbLine
 10
921.23180625
 20
558.53812845
 30
0.0
 11
921.23180625
 21
522.9626601
 31
0.0
  0
POLYLINE
  5
1AC
330
1E
100
AcDbEntity
  8
0
100
AcDb2dPolyline
 66
     1
 10
0.0
 20
0.0
 30
0.0
  0
VERTEX
  5
1AD
330
1AC
100
AcDbEntity
  8
0
100
AcDbVertex
100
AcDb2dVertex
 10
921.23180625
 20
558.53812845
 30
0.0
  0
VERTEX
  5
1AE
330
1AC
100
AcDbEntity
  8
0
100
AcDbVertex
100
AcDb2dVertex
 10
918.39248502
 20
558.91568954
 30
0.0
  0
VERTEX
  5
1AF
330
1AC
100
AcDbEntity
  8
0
100
AcDbVertex
100
AcDb2dVertex
 10
933.15139741
 20
566.17921414
 30
0.0
  0
VERTEX
  5
1B0
330
1AC
100
AcDbEntity
  8
0
100
AcDbVertex
100
AcDb2dVertex
 10
935.99071864
 20
565.80165305
 30
0.0
  0
VERTEX
  5
1B1
330
1AC
100
AcDbEntity
  8
0
100
AcDbVertex
100
AcDb2dVertex
 10
935.99071864
 20
530.2261847
 30
0.0
  0
VERTEX
  5
1B2
330
1AC
100
AcDbEntity
  8
0
100
AcDbVertex
100
AcDb2dVertex
 10
921.23180625
 20
522.9626601
 30
0.0
  0
SEQEND
  5
1B3
330
1AC
100
AcDbEntity
  8
0
  0
LINE
  5
1B4
330
1E
100
AcDbEntity
  8
0
100
AcDbLine
 10
935.99071864
 20
565.80165305
 30
0.0
 11
921.23180625
 21
558.53812845
 31
0.0
  0
LINE
  5
1B5
330
1E
100
AcDbEntity
  8
0
  6
STRICHPUNKT2
 62
     1
100
AcDbLine
 10
929.67600791
 20
552.3610585
 30
0.0
 11
927.55051436
 21
552.64369777
 31
0.0
  0
LINE
  5
1B6
330
1E
100
AcDbEntity
  8
0
  6
STRICHPUNKT2
 62
     1
100
AcDbLine
 10
928.61126245
 20
552.50264391
 30
0.0
 11
928.61126245
 21
549.02243505
 31
0.0
  0
LINE
  5
1B7
330
1E
100
AcDbEntity
  8
0
  6
STRICHPUNKT2
 62
     1
100
AcDbLine
 10
928.61126245
 20
552.50264391
 30
0.0
 11
928.61126245
 21
555.98285277
 31
0.0
  0
LINE
  5
1B8
330
1E
100
AcDbEntity
  8
0
  6
STRICHPUNKT2
 62
     1
100
AcDbLine
 10
928.61126245
 20
552.50264391
 30
0.0
 11
930.27164009
 21
553.31979043
 31
0.0
  0
LINE
  5
1B9
330
1E
100
AcDbEntity
  8
0
  6
STRICHPUNKT2
 62
     1
100
AcDbLine
 10
928.61126245
 20
552.50264391
 30
0.0
 11
926.9508848
 21
551.6854974
 31
0.0
  0
LINE
  5
1BA
330
1E
100
AcDbEntity
  8
0
  6
STRICHPUNKT2
 62
     1
100
AcDbLine
 10
924.88639021
 20
552.048254
 30
0.0
 11
923.11514558
 21
552.28378672
 31
0.0
  0
LINE
  5
1BB
330
1E
100
AcDbEntity
  8
0
  6
STRICHPUNKT2
 62
     1
100
AcDbLine
 10
923.99910232
 20
552.16624184
 30
0.0
 11
925.38275036
 21
552.84719727
 31
0.0
  0
LINE
  5
1BC
330
1E
100
AcDbEntity
  8
0
  6
STRICHPUNKT2
 62
     1
100
AcDbLine
 10
923.99910232
 20
552.16624184
 30
0.0
 11
922.61545429
 21
551.48528641
 31
0.0
  0
LINE
  5
1BD
330
1E
100
AcDbEntity
  8
0
  6
STRICHPUNKT2
 62
     1
100
AcDbLine
 10
923.99910232
 20
552.16624184
 30
0.0
 11
923.99910232
 21
555.06641589
 31
0.0
  0
LINE
  5
1BE
330
1E
100
AcDbEntity
  8
0
  6
STRICHPUNKT2
 62
     1
100
AcDbLine
 10
923.99910232
 20
552.16624184
 30
0.0
 11
923.99910232
 21
549.26606779
 31
0.0
  0
ELLIPSE
  5
1BF
330
1E
100
AcDbEntity
  8
0
100
AcDbEllipse
 10
905.18512542
 20
556.56746179
 30
0.0
 11
-0.26363103
 21
-1.98254853
 31
0.0
210
0.0
220
0.0
230
1.0
 40
0.4458689
 41
3.14159265
 42
6.283185307179586
  0
ELLIPSE
  5
1C0
330
1E
100
AcDbEntity
  8
0
100
AcDbEllipse
 10
905.18512542
 20
556.56746179
 30
0.0
 11
-0.26363103
 21
-1.98254853
 31
0.0
210
0.0
220
0.0
230
1.0
 40
0.4458689
 41
0.0
 42
3.14159265
  0
ELLIPSE
  5
1C1
330
1E
100
AcDbEntity
  8
0
100
AcDbEllipse
 10
900.57296529
 20
556.23105972
 30
0.0
 11
-0.31635724
 21
-2.37905824
 31
0.0
210
0.0
220
0.0
230
1.0
 40
0.4458689
 41
0.0
 42
3.14159265
  0
ELLIPSE
  5
1C2
330
1E
100
AcDbEntity
  8
0
100
AcDbEllipse
 10
900.57296529
 20
556.23105972
 30
0.0
 11
-0.31635724
 21
-2.37905824
 31
0.0
210
0.0
220
0.0
230
1.0
 40
0.4458689
 41
3.14159265
 42
6.28318531
  0
ELLIPSE
  5
1C3
330
1E
100
AcDbEntity
  8
0
100
AcDbEllipse
 10
913.17245326
 20
528.64741085
 30
0.0
 11
2.8
 21
0.0
 31
0.0
210
0.0
220
0.0
230
1.0
 40
0.25581905
 41
0.0
 42
3.14159265
  0
ELLIPSE
  5
1C4
330
1E
100
AcDbEntity
  8
0
100
AcDbEllipse
 10
913.17245326
 20
528.64741085
 30
0.0
 11
2.8
 21
0.0
 31
0.0
210
0.0
220
0.0
230
1.0
 40
0.25581905
 41
3.14159265
 42
6.283185307179586
  0
ELLIPSE
  5
1C5
330
1E
100
AcDbEntity
  8
0
100
AcDbEllipse
 10
935.35465037
 20
525.6977148
 30
0.0
 11
2.8
 21
0.0
 31
0.0
210
0.0
220
0.0
230
1.0
 40
0.25581905
 41
3.14159265
 42
4.23302379
  0
POLYLINE
  5
1C6
330
1E
100
AcDbEntity
  8
0
100
AcDb2dPolyline
 66
     1
 10
0.0
 20
0.0
 30
0.0
  0
VERTEX
  5
1C7
330
1C6
100
AcDbEntity
  8
0
100
AcDbVertex
100
AcDb2dVertex
 10
934.06324553
 20
525.06215639
 30
0.0
  0
VERTEX
  5
1C8
330
1C6
100
AcDbEntity
  8
0
100
AcDbVertex
100
AcDb2dVertex
 10
943.29103953
 20
523.83508284
 30
0.0
  0
SEQEND
  5
1C9
330
1C6
100
AcDbEntity
  8
0
  0
ELLIPSE
  5
1CA
330
1E
100
AcDbEntity
  8
0
100
AcDbEllipse
 10
944.58244437
 20
524.47064124
 30
0.0
 11
2.8
 21
0.0
 31
0.0
210
0.0
220
0.0
230
1.0
 40
0.25581905
 41
4.23302379
 42
6.283185307179586
  0
ELLIPSE
  5
1CB
330
1E
100
AcDbEntity
  8
0
100
AcDbEllipse
 10
944.58244437
 20
524.47064124
 30
0.0
 11
2.8
 21
0.0
 31
0.0
210
0.0
220
0.0
230
1.0
 40
0.25581905
 41
0.0
 42
1.09143113
  0
POLYLINE
  5
1CC
330
1E
100
AcDbEntity
  8
0
100
AcDb2dPolyline
 66
     1
 10
0.0
 20
0.0
 30
0.0
  0
VERTEX
  5
1CD
330
1CC
100
AcDbEntity
  8
0
100
AcDbVertex
100
AcDb2dVertex
 10
945.8738492
 20
525.10619964
 30
0.0
  0
VERTEX
  5
1CE
330
1CC
100
AcDbEntity
  8
0
100
AcDbVertex
100
AcDb2dVertex
 10
936.6460552
 20
526.3332732
 30
0.0
  0
SEQEND
  5
1CF
330
1CC
100
AcDbEntity
  8
0
  0
ELLIPSE
  5
1D0
330
1E
100
AcDbEntity
  8
0
100
AcDbEllipse
 10
935.35465037
 20
525.6977148
 30
0.0
 11
2.8
 21
0.0
 31
0.0
210
0.0
220
0.0
230
1.0
 40
0.25581905
 41
1.09143113
 42
3.14159265
  0
ELLIPSE
  5
1D1
330
1E
100
AcDbEntity
  8
0
100
AcDbEllipse
 10
993.20582044
 20
518.00490749
 30
0.0
 11
2.8
 21
0.0
 31
0.0
210
0.0
220
0.0
230
1.0
 40
0.25581905
 41
3.14159265
 42
6.283185307179586
  0
ELLIPSE
  5
1D2
330
1E
100
AcDbEntity
  8
0
100
AcDbEllipse
 10
993.20582044
 20
518.00490749
 30
0.0
 11
2.8
 21
0.0
 31
0.0
210
0.0
220
0.0
230
1.0
 40
0.25581905
 41
0.0
 42
3.14159265
  0
ELLIPSE
  5
1D3
330
1E
100
AcDbEntity
  8
0
100
AcDbEllipse
 10
910.43682757
 20
536.33106366
 30
0.0
 11
1.23638623
 21
-2.51223986
 31
0.0
210
0.0
220
0.0
230
1.0
 40
0.8577631
 41
4.19149164
 42
5.76228796
  0
ELLIPSE
  5
1D4
330
1E
100
AcDbEntity
  8
0
100
AcDbEllipse
 10
895.67791518
 20
529.06753906
 30
0.0
 11
1.23638623
 21
-2.51223986
 31
0.0
210
0.0
220
0.0
230
1.0
 40
0.8577631
 41
4.19149164
 42
5.76228796
  0
LINE
  5
1D5
330
1E
100
AcDbEntity
  8
0
100
AcDbLine
 10
907.95242149
 20
569.53006886
 30
0.0
 11
907.95242149
 21
536.66142962
 31
0.0
  0
LINE
  5
1D6
330
1E
100
AcDbEntity
  8
0
100
AcDbLine
 10
893.1935091
 20
562.26654426
 30
0.0
 11
907.95242149
 21
569.53006886
 31
0.0
  0
LINE
  5
1D7
330
1E
100
AcDbEntity
  8
0
100
AcDbLine
 10
890.35418787
 20
562.64410535
 30
0.0
 11
893.1935091
 21
562.26654426
 31
0.0
  0
LINE
  5
1D8
330
1E
100
AcDbEntity
  8
0
100
AcDbLine
 10
890.35418787
 20
562.64410535
 30
0.0
 11
890.35418787
 21
529.77546612
 31
0.0
  0
LINE
  5
1D9
330
1E
100
AcDbEntity
  8
0
100
AcDbLine
 10
893.1935091
 20
562.26654426
 30
0.0
 11
893.1935091
 21
529.39790502
 31
0.0
  0
ELLIPSE
  5
1DA
330
1E
100
AcDbEntity
  8
0
100
AcDbEllipse
 10
895.67791518
 20
529.06753906
 30
0.0
 11
2.64939906
 21
-5.38337112
 31
0.0
210
0.0
220
0.0
230
1.0
 40
0.8577630999999999
 41
4.19149164
 42
5.76228796
  0
LINE
  5
1DB
330
1E
100
AcDbEntity
  8
0
100
AcDbLine
 10
895.67791518
 20
526.36070995
 30
0.0
 11
1002.15246132
 21
512.2021689
 31
0.0
  0
LINE
  5
1DC
330
1E
100
AcDbEntity
  8
0
100
AcDbLine
 10
1016.91137371
 20
519.4656935
 30
0.0
 11
1002.15246132
 21
512.2021689
 31
0.0
  0
LINE
  5
1DD
330
1E
100
AcDbEntity
  8
0
100
AcDbLine
 10
935.99071864
 20
530.2261847
 30
0.0
 11
1016.91137371
 21
519.4656935
 31
0.0
  0
LINE
  5
1DE
330
1E
100
AcDbEntity
  8
0
100
AcDbLine
 10
910.43682757
 20
533.62423455
 30
0.0
 11
918.39248502
 21
532.5663244
 31
0.0
  0
LINE
  5
1DF
330
1E
100
AcDbEntity
  8
0
100
AcDbLine
 10
1016.91137371
 20
516.37217451
 30
0.0
 11
1016.91137371
 21
519.4656935
 31
0.0
  0
LINE
  5
1E0
330
1E
100
AcDbEntity
  8
0
100
AcDbLine
 10
1002.15246132
 20
509.10864991
 30
0.0
 11
1016.91137371
 21
516.37217451
 31
0.0
  0
LINE
  5
1E1
330
1E
100
AcDbEntity
  8
0
100
AcDbLine
 10
895.67791518
 20
523.26719096
 30
0.0
 11
1002.15246132
 21
509.10864991
 31
0.0
  0
LINE
  5
1E2
330
1E
100
AcDbEntity
  8
0
100
AcDbLine
 10
1002.15246132
 20
512.2021689
 30
0.0
 11
1002.15246132
 21
509.10864991
 31
0.0
  0
LINE
  5
1E3
330
1E
100
AcDbEntity
  8
0
100
AcDbLine
 10
905.11310026
 20
569.90762995
 30
0.0
 11
890.35418787
 21
562.64410535
 31
0.0
  0
LINE
  5
1E4
330
1E
100
AcDbEntity
  8
0
100
AcDbLine
 10
907.95242149
 20
569.53006886
 30
0.0
 11
905.11310026
 21
569.90762995
 31
0.0
  0
LINE
  5
1E5
330
1E
100
AcDbEntity
  8
0
  6
STRICHPUNKT2
 62
     1
100
AcDbLine
 10
993.20582044
 20
519.35832205
 30
0.0
 11
993.20582044
 21
517.28861415
 31
0.0
  0
LINE
  5
1E6
330
1E
100
AcDbEntity
  8
0
  6
STRICHPUNKT2
 62
     1
100
AcDbLine
 10
993.20582044
 20
518.00490749
 30
0.0
 11
989.47921133
 21
518.50045643
 31
0.0
  0
LINE
  5
1E7
330
1E
100
AcDbEntity
  8
0
  6
STRICHPUNKT2
 62
     1
100
AcDbLine
 10
993.20582044
 20
518.00490749
 30
0.0
 11
996.93242956
 21
517.50935855
 31
0.0
  0
LINE
  5
1E8
330
1E
100
AcDbEntity
  8
0
  6
STRICHPUNKT2
 62
     1
100
AcDbLine
 10
993.20582044
 20
518.00490749
 30
0.0
 11
991.26871319
 21
517.05156989
 31
0.0
  0
LINE
  5
1E9
330
1E
100
AcDbEntity
  8
0
  6
STRICHPUNKT2
 62
     1
100
AcDbLine
 10
993.20582044
 20
518.00490749
 30
0.0
 11
995.14292769
 21
518.95824509
 31
0.0
  0
LINE
  5
1EA
330
1E
100
AcDbEntity
  8
0
  6
STRICHPUNKT2
 62
     1
100
AcDbLine
 10
935.35465037
 20
527.05112935
 30
0.0
 11
935.35465037
 21
524.89043077
 31
0.0
  0
LINE
  5
1EB
330
1E
100
AcDbEntity
  8
0
  6
STRICHPUNKT2
 62
     1
100
AcDbLine
 10
944.58244437
 20
525.8240558
 30
0.0
 11
944.58244437
 21
523.7543479
 31
0.0
  0
LINE
  5
1EC
330
1E
100
AcDbEntity
  8
0
  6
STRICHPUNKT2
 62
     1
100
AcDbLine
 10
931.62804125
 20
526.19326373
 30
0.0
 11
948.30905348
 21
523.9750923
 31
0.0
  0
LINE
  5
1ED
330
1E
100
AcDbEntity
  8
0
  6
STRICHPUNKT2
 62
     1
100
AcDbLine
 10
933.41754312
 20
524.74437719
 30
0.0
 11
937.29175762
 21
526.6510524
 31
0.0
  0
LINE
  5
1EE
330
1E
100
AcDbEntity
  8
0
  6
STRICHPUNKT2
 62
     1
100
AcDbLine
 10
942.64533712
 20
523.51730363
 30
0.0
 11
946.51955162
 21
525.42397884
 31
0.0
  0
LINE
  5
1EF
330
1E
100
AcDbEntity
  8
0
  6
STRICHPUNKT2
 62
     1
100
AcDbLine
 10
901.63771076
 20
556.08947431
 30
0.0
 11
899.51221721
 21
556.37211358
 31
0.0
  0
LINE
  5
1F0
330
1E
100
AcDbEntity
  8
0
  6
STRICHPUNKT2
 62
     1
100
AcDbLine
 10
900.57296529
 20
556.23105972
 30
0.0
 11
900.57296529
 21
552.75085086
 31
0.0
  0
LINE
  5
1F1
330
1E
100
AcDbEntity
  8
0
  6
STRICHPUNKT2
 62
     1
100
AcDbLine
 10
900.57296529
 20
556.23105972
 30
0.0
 11
900.57296529
 21
559.71126858
 31
0.0
  0
LINE
  5
1F2
330
1E
100
AcDbEntity
  8
0
  6
STRICHPUNKT2
 62
     1
100
AcDbLine
 10
900.57296529
 20
556.23105972
 30
0.0
 11
902.23334294
 21
557.04820624
 31
0.0
  0
LINE
  5
1F3
330
1E
100
AcDbEntity
  8
0
  6
STRICHPUNKT2
 62
     1
100
AcDbLine
 10
900.57296529
 20
556.23105972
 30
0.0
 11
898.91258765
 21
555.41391321
 31
0.0
  0
LINE
  5
1F4
330
1E
100
AcDbEntity
  8
0
  6
STRICHPUNKT2
 62
     1
100
AcDbLine
 10
906.0724133
 20
556.44947395
 30
0.0
 11
904.30116868
 21
556.68500668
 31
0.0
  0
LINE
  5
1F5
330
1E
100
AcDbEntity
  8
0
  6
STRICHPUNKT2
 62
     1
100
AcDbLine
 10
905.18512542
 20
556.56746179
 30
0.0
 11
903.80147738
 21
555.88650636
 31
0.0
  0
LINE
  5
1F6
330
1E
100
AcDbEntity
  8
0
  6
STRICHPUNKT2
 62
     1
100
AcDbLine
 10
905.18512542
 20
556.56746179
 30
0.0
 11
906.56877345
 21
557.24841723
 31
0.0
  0
LINE
  5
1F7
330
1E
100
AcDbEntity
  8
0
  6
STRICHPUNKT2
 62
     1
100
AcDbLine
 10
905.18512542
 20
556.56746179
 30
0.0
 11
905.18512542
 21
553.66728774
 31
0.0
  0
LINE
  5
1F8
330
1E
100
AcDbEntity
  8
0
  6
STRICHPUNKT2
 62
     1
100
AcDbLine
 10
905.18512542
 20
556.56746179
 30
0.0
 11
905.18512542
 21
559.46763585
 31
0.0
  0
LINE
  5
1F9
330
1E
100
AcDbEntity
  8
0
  6
STRICHPUNKT2
 62
     1
100
AcDbLine
 10
913.17245326
 20
530.00082541
 30
0.0
 11
913.17245326
 21
527.93111751
 31
0.0
  0
LINE
  5
1FA
330
1E
100
AcDbEntity
  8
0
  6
STRICHPUNKT2
 62
     1
100
AcDbLine
 10
913.17245326
 20
528.64741085
 30
0.0
 11
916.89906237
 21
528.15186191
 31
0.0
  0
LINE
  5
1FB
330
1E
100
AcDbEntity
  8
0
  6
STRICHPUNKT2
 62
     1
100
AcDbLine
 10
913.17245326
 20
528.64741085
 30
0.0
 11
909.44584414
 21
529.14295979
 31
0.0
  0
LINE
  5
1FC
330
1E
100
AcDbEntity
  8
0
  6
STRICHPUNKT2
 62
     1
100
AcDbLine
 10
913.17245326
 20
528.64741085
 30
0.0
 11
915.10956051
 21
529.60074845
 31
0.0
  0
LINE
  5
1FD
330
1E
100
AcDbEntity
  8
0
  6
STRICHPUNKT2
 62
     1
100
AcDbLine
 10
913.17245326
 20
528.64741085
 30
0.0
 11
911.235346
 21
527.69407325
 31
0.0
  0
LINE
  5
1FE
330
1E
100
AcDbEntity
  8
0
100
AcDbLine
 10
1031.33113153
 20
731.05710572
 30
0.0
 11
1031.33113153
 21
685.05710572
 31
0.0
  0
LINE
  5
1FF
330
1E
100
AcDbEntity
  8
0
100
AcDbLine
 10
1035.33113153
 20
685.05710572
 30
0.0
 11
1031.33113153
 21
685.05710572
 31
0.0
  0
LINE
  5
200
330
1E
100
AcDbEntity
  8
0
100
AcDbLine
 10
1035.33113153
 20
731.05710572
 30
0.0
 11
1035.33113153
 21
685.05710572
 31
0.0
  0
LINE
  5
201
330
1E
100
AcDbEntity
  8
0
100
AcDbLine
 10
1035.33113153
 20
731.05710572
 30
0.0
 11
1031.33113153
 21
731.05710572
 31
0.0
  0
LINE
  5
202
330
1E
100
AcDbEntity
  8
0
  6
STRICHPUNKT2
 62
     1
100
AcDbLine
 10
1031.33113153
 20
718.55710572
 30
0.0
 11
1029.83113153
 21
718.55710572
 31
0.0
  0
LINE
  5
203
330
1E
100
AcDbEntity
  8
0
  6
STRICHPUNKT2
 62
     1
100
AcDbLine
 10
1036.83113153
 20
718.55710572
 30
0.0
 11
1035.33113153
 21
718.55710572
 31
0.0
  0
LINE
  5
204
330
1E
100
AcDbEntity
  8
0
  6
STRICHPUNKT2
 62
     1
100
AcDbLine
 10
1031.33113153
 20
721.05710572
 30
0.0
 11
1030.08113153
 21
721.05710572
 31
0.0
  0
LINE
  5
205
330
1E
100
AcDbEntity
  8
0
  6
STRICHPUNKT2
 62
     1
100
AcDbLine
 10
1036.58113153
 20
721.05710572
 30
0.0
 11
1035.33113153
 21
721.05710572
 31
0.0
  0
POLYLINE
  5
206
330
1E
100
AcDbEntity
  8
0
100
AcDb2dPolyline
 66
     1
 10
0.0
 20
0.0
 30
0.0
  0
VERTEX
  5
207
330
206
100
AcDbEntity
  8
0
100
AcDbVertex
100
AcDb2dVertex
 10
991.83113153
 20
731.05710572
 30
0.0
  0
VERTEX
  5
208
330
206
100
AcDbEntity
  8
0
100
AcDbVertex
100
AcDb2dVertex
 10
995.83113153
 20
731.05710572
 30
0.0
  0
VERTEX
  5
209
330
206
100
AcDbEntity
  8
0
100
AcDbVertex
100
AcDb2dVertex
 10
995.83113153
 20
688.55710572
 30
0.0
  0
SEQEND
  5
20A
330
206
100
AcDbEntity
  8
0
  0
POLYLINE
  5
20B
330
1E
100
AcDbEntity
  8
0
100
AcDb2dPolyline
 66
     1
 10
0.0
 20
0.0
 30
0.0
  0
VERTEX
  5
20C
330
20B
100
AcDbEntity
  8
0
100
AcDbVertex
100
AcDb2dVertex
 10
991.83113153
 20
731.05710572
 30
0.0
  0
VERTEX
  5
20D
330
20B
100
AcDbEntity
  8
0
100
AcDbVertex
100
AcDb2dVertex
 10
991.83113153
 20
688.55710572
 30
0.0
 42
0.414213562
  0
VERTEX
  5
20E
330
20B
100
AcDbEntity
  8
0
100
AcDbVertex
100
AcDb2dVertex
 10
999.33113153
 20
681.05710572
 30
0.0
  0
SEQEND
  5
20F
330
20B
100
AcDbEntity
  8
0
  0
POLYLINE
  5
210
330
1E
100
AcDbEntity
  8
0
100
AcDb2dPolyline
 66
     1
 10
0.0
 20
0.0
 30
0.0
  0
VERTEX
  5
211
330
210
100
AcDbEntity
  8
0
100
AcDbVertex
100
AcDb2dVertex
 10
995.83113153
 20
688.55710572
 30
0.0
 42
0.414213562
  0
VERTEX
  5
212
330
210
100
AcDbEntity
  8
0
100
AcDbVertex
100
AcDb2dVertex
 10
999.33113153
 20
685.05710572
 30
0.0
  0
VERTEX
  5
213
330
210
100
AcDbEntity
  8
0
100
AcDbVertex
100
AcDb2dVertex
 10
1149.33113153
 20
685.05710572
 30
0.0
  0
VERTEX
  5
214
330
210
100
AcDbEntity
  8
0
100
AcDbVertex
100
AcDb2dVertex
 10
1149.33113153
 20
681.05710572
 30
0.0
  0
SEQEND
  5
215
330
210
100
AcDbEntity
  8
0
  0
LINE
  5
216
330
1E
100
AcDbEntity
  8
0
100
AcDbLine
 10
999.33113153
 20
681.05710572
 30
0.0
 11
1149.33113153
 21
681.05710572
 31
0.0
  0
LINE
  5
217
330
1E
100
AcDbEntity
  8
0
  6
STRICHPUNKT2
 62
     1
100
AcDbLine
 10
1126.33113153
 20
681.05710572
 30
0.0
 11
1126.33113153
 21
679.30710572
 31
0.0
  0
LINE
  5
218
330
1E
100
AcDbEntity
  8
0
  6
STRICHPUNKT2
 62
     1
100
AcDbLine
 10
1126.33113153
 20
686.80710572
 30
0.0
 11
1126.33113153
 21
685.05710572
 31
0.0
  0
LINE
  5
219
330
1E
100
AcDbEntity
  8
0
  6
STRICHPUNKT2
 62
     1
100
AcDbLine
 10
991.83113153
 20
716.05710572
 30
0.0
 11
990.58113153
 21
716.05710572
 31
0.0
  0
LINE
  5
21A
330
1E
100
AcDbEntity
  8
0
  6
STRICHPUNKT2
 62
     1
100
AcDbLine
 10
997.08113153
 20
716.05710572
 30
0.0
 11
995.83113153
 21
716.05710572
 31
0.0
  0
LINE
  5
21B
330
1E
100
AcDbEntity
  8
0
  6
STRICHPUNKT2
 62
     1
100
AcDbLine
 10
1013.58113153
 20
681.05710572
 30
0.0
 11
1013.58113153
 21
679.30710572
 31
0.0
  0
LINE
  5
21C
330
1E
100
AcDbEntity
  8
0
  6
STRICHPUNKT2
 62
     1
100
AcDbLine
 10
1013.58113153
 20
686.80710572
 30
0.0
 11
1013.58113153
 21
685.05710572
 31
0.0
  0
LINE
  5
21D
330
1E
100
AcDbEntity
  8
0
  6
STRICHPUNKT2
 62
     1
100
AcDbLine
 10
1057.83113153
 20
681.05710572
 30
0.0
 11
1057.83113153
 21
679.30710572
 31
0.0
  0
LINE
  5
21E
330
1E
100
AcDbEntity
  8
0
  6
STRICHPUNKT2
 62
     1
100
AcDbLine
 10
1057.83113153
 20
686.80710572
 30
0.0
 11
1057.83113153
 21
685.05710572
 31
0.0
  0
LINE
  5
21F
330
1E
100
AcDbEntity
  8
0
  6
STRICHPUNKT2
 62
     1
100
AcDbLine
 10
1044.83113153
 20
681.05710572
 30
0.0
 11
1044.83113153
 21
679.30710572
 31
0.0
  0
LINE
  5
220
330
1E
100
AcDbEntity
  8
0
  6
STRICHPUNKT2
 62
     1
100
AcDbLine
 10
1044.83113153
 20
686.80710572
 30
0.0
 11
1044.83113153
 21
685.05710572
 31
0.0
  0
LINE
  5
221
330
1E
100
AcDbEntity
  8
0
  6
STRICHPUNKT2
 62
     1
100
AcDbLine
 10
991.83113153
 20
718.55710572
 30
0.0
 11
990.33113153
 21
718.55710572
 31
0.0
  0
LINE
  5
222
330
1E
100
AcDbEntity
  8
0
  6
STRICHPUNKT2
 62
     1
100
AcDbLine
 10
997.33113153
 20
718.55710572
 30
0.0
 11
995.83113153
 21
718.55710572
 31
0.0
  0
POLYLINE
  5
223
330
1E
100
AcDbEntity
  8
0
100
AcDb2dPolyline
 66
     1
 10
0.0
 20
0.0
 30
0.0
 70
     1
  0
VERTEX
  5
224
330
223
100
AcDbEntity
  8
0
100
AcDbVertex
100
AcDb2dVertex
 10
1031.33113153
 20
632.61545824
 30
0.0
  0
VERTEX
  5
225
330
223
100
AcDbEntity
  8
0
100
AcDbVertex
100
AcDb2dVertex
 10
1035.33113153
 20
632.61545824
 30
0.0
  0
VERTEX
  5
226
330
223
100
AcDbEntity
  8
0
100
AcDbVertex
100
AcDb2dVertex
 10
1035.33113153
 20
592.61545824
 30
0.0
  0
VERTEX
  5
227
330
223
100
AcDbEntity
  8
0
100
AcDbVertex
100
AcDb2dVertex
 10
1031.33113153
 20
592.61545824
 30
0.0
  0
SEQEND
  5
228
330
223
100
AcDbEntity
  8
0
  0
LINE
  5
229
330
1E
100
AcDbEntity
  8
0
  6
STRICHPUNKT2
 62
     1
100
AcDbLine
 10
1031.33113153
 20
612.61545824
 30
0.0
 11
1029.83113153
 21
612.61545824
 31
0.0
  0
LINE
  5
22A
330
1E
100
AcDbEntity
  8
0
  6
STRICHPUNKT2
 62
     1
100
AcDbLine
 10
1036.83113153
 20
612.61545824
 30
0.0
 11
1035.33113153
 21
612.61545824
 31
0.0
  0
LINE
  5
22B
330
1E
100
AcDbEntity
  8
0
  6
STRICHPUNKT2
 62
     1
100
AcDbLine
 10
1031.33113153
 20
600.11545824
 30
0.0
 11
1030.08113153
 21
600.11545824
 31
0.0
  0
LINE
  5
22C
330
1E
100
AcDbEntity
  8
0
  6
STRICHPUNKT2
 62
     1
100
AcDbLine
 10
1036.58113153
 20
600.11545824
 30
0.0
 11
1035.33113153
 21
600.11545824
 31
0.0
  0
POLYLINE
  5
22D
330
1E
100
AcDbEntity
  8
0
100
AcDb2dPolyline
 66
     1
 10
0.0
 20
0.0
 30
0.0
 70
     1
  0
VERTEX
  5
22E
330
22D
100
AcDbEntity
  8
0
100
AcDbVertex
100
AcDb2dVertex
 10
995.83113153
 20
592.61545824
 30
0.0
  0
VERTEX
  5
22F
330
22D
100
AcDbEntity
  8
0
100
AcDbVertex
100
AcDb2dVertex
 10
995.83113153
 20
632.61545824
 30
0.0
  0
VERTEX
  5
230
330
22D
100
AcDbEntity
  8
0
100
AcDbVertex
100
AcDb2dVertex
 10
991.83113153
 20
632.61545824
 30
0.0
  0
VERTEX
  5
231
330
22D
100
AcDbEntity
  8
0
100
AcDbVertex
100
AcDb2dVertex
 10
991.83113153
 20
592.61545824
 30
0.0
  0
SEQEND
  5
232
330
22D
100
AcDbEntity
  8
0
  0
CIRCLE
  5
233
330
1E
100
AcDbEntity
  8
0
100
AcDbCircle
 10
1013.58113153
 20
612.61545824
 30
0.0
 40
3.5
  0
POLYLINE
  5
234
330
1E
100
AcDbEntity
  8
0
100
AcDb2dPolyline
 66
     1
 10
0.0
 20
0.0
 30
0.0
 70
     1
  0
VERTEX
  5
235
330
234
100
AcDbEntity
  8
0
100
AcDbVertex
100
AcDb2dVertex
 10
1044.83113153
 20
616.11545824
 30
0.0
 42
1.0
  0
VERTEX
  5
236
330
234
100
AcDbEntity
  8
0
100
AcDbVertex
100
AcDb2dVertex
 10
1044.83113153
 20
609.11545824
 30
0.0
  0
VERTEX
  5
237
330
234
100
AcDbEntity
  8
0
100
AcDbVertex
100
AcDb2dVertex
 10
1057.83113153
 20
609.11545824
 30
0.0
 42
1.0
  0
VERTEX
  5
238
330
234
100
AcDbEntity
  8
0
100
AcDbVertex
100
AcDb2dVertex
 10
1057.83113153
 20
616.11545824
 30
0.0
  0
SEQEND
  5
239
330
234
100
AcDbEntity
  8
0
  0
CIRCLE
  5
23A
330
1E
100
AcDbEntity
  8
0
100
AcDbCircle
 10
1126.33113153
 20
612.61545824
 30
0.0
 40
3.5
  0
LINE
  5
23B
330
1E
100
AcDbEntity
  8
0
100
AcDbLine
 10
995.83113153
 20
632.61545824
 30
0.0
 11
999.33113153
 21
632.61545824
 31
0.0
  0
LINE
  5
23C
330
1E
100
AcDbEntity
  8
0
100
AcDbLine
 10
995.83113153
 20
592.61545824
 30
0.0
 11
999.33113153
 21
592.61545824
 31
0.0
  0
LINE
  5
23D
330
1E
100
AcDbEntity
  8
0
100
AcDbLine
 10
1035.33113153
 20
592.61545824
 30
0.0
 11
1149.33113153
 21
592.61545824
 31
0.0
  0
LINE
  5
23E
330
1E
100
AcDbEntity
  8
0
100
AcDbLine
 10
999.33113153
 20
592.61545824
 30
0.0
 11
1031.33113153
 21
592.61545824
 31
0.0
  0
LINE
  5
23F
330
1E
100
AcDbEntity
  8
0
100
AcDbLine
 10
1149.33113153
 20
632.61545824
 30
0.0
 11
1149.33113153
 21
592.61545824
 31
0.0
  0
LINE
  5
240
330
1E
100
AcDbEntity
  8
0
100
AcDbLine
 10
1035.33113153
 20
632.61545824
 30
0.0
 11
1149.33113153
 21
632.61545824
 31
0.0
  0
LINE
  5
241
330
1E
100
AcDbEntity
  8
0
100
AcDbLine
 10
999.33113153
 20
632.61545824
 30
0.0
 11
1031.33113153
 21
632.61545824
 31
0.0
  0
LINE
  5
242
330
1E
100
AcDbEntity
  8
0
  6
STRICHPUNKT2
 62
     1
100
AcDbLine
 10
1126.33113153
 20
612.61545824
 30
0.0
 11
1121.08113153
 21
612.61545824
 31
0.0
  0
LINE
  5
243
330
1E
100
AcDbEntity
  8
0
  6
STRICHPUNKT2
 62
     1
100
AcDbLine
 10
1126.33113153
 20
612.61545824
 30
0.0
 11
1131.58113153
 21
612.61545824
 31
0.0
  0
LINE
  5
244
330
1E
100
AcDbEntity
  8
0
  6
STRICHPUNKT2
 62
     1
100
AcDbLine
 10
1126.33113153
 20
612.61545824
 30
0.0
 11
1126.33113153
 21
607.36545824
 31
0.0
  0
LINE
  5
245
330
1E
100
AcDbEntity
  8
0
  6
STRICHPUNKT2
 62
     1
100
AcDbLine
 10
1126.33113153
 20
612.61545824
 30
0.0
 11
1126.33113153
 21
617.86545824
 31
0.0
  0
LINE
  5
246
330
1E
100
AcDbEntity
  8
0
  6
STRICHPUNKT2
 62
     1
100
AcDbLine
 10
1039.58113153
 20
612.61545824
 30
0.0
 11
1063.08113153
 21
612.61545824
 31
0.0
  0
LINE
  5
247
330
1E
100
AcDbEntity
  8
0
  6
STRICHPUNKT2
 62
     1
100
AcDbLine
 10
1044.83113153
 20
607.36545824
 30
0.0
 11
1044.83113153
 21
617.86545824
 31
0.0
  0
LINE
  5
248
330
1E
100
AcDbEntity
  8
0
  6
STRICHPUNKT2
 62
     1
100
AcDbLine
 10
1057.83113153
 20
607.36545824
 30
0.0
 11
1057.83113153
 21
617.86545824
 31
0.0
  0
LINE
  5
249
330
1E
100
AcDbEntity
  8
0
  6
STRICHPUNKT2
 62
     1
100
AcDbLine
 10
991.83113153
 20
612.61545824
 30
0.0
 11
990.33113153
 21
612.61545824
 31
0.0
  0
LINE
  5
24A
330
1E
100
AcDbEntity
  8
0
  6
STRICHPUNKT2
 62
     1
100
AcDbLine
 10
997.33113153
 20
612.61545824
 30
0.0
 11
995.83113153
 21
612.61545824
 31
0.0
  0
LINE
  5
24B
330
1E
100
AcDbEntity
  8
0
  6
STRICHPUNKT2
 62
     1
100
AcDbLine
 10
1013.58113153
 20
612.61545824
 30
0.0
 11
1018.83113153
 21
612.61545824
 31
0.0
  0
LINE
  5
24C
330
1E
100
AcDbEntity
  8
0
  6
STRICHPUNKT2
 62
     1
100
AcDbLine
 10
1013.58113153
 20
612.61545824
 30
0.0
 11
1008.33113153
 21
612.61545824
 31
0.0
  0
LINE
  5
24D
330
1E
100
AcDbEntity
  8
0
  6
STRICHPUNKT2
 62
     1
100
AcDbLine
 10
1013.58113153
 20
612.61545824
 30
0.0
 11
1013.58113153
 21
617.86545824
 31
0.0
  0
LINE
  5
24E
330
1E
100
AcDbEntity
  8
0
  6
STRICHPUNKT2
 62
     1
100
AcDbLine
 10
1013.58113153
 20
612.61545824
 30
0.0
 11
1013.58113153
 21
607.36545824
 31
0.0
  0
LINE
  5
24F
330
1E
100
AcDbEntity
  8
0
  6
STRICHPUNKT2
 62
     1
100
AcDbLine
 10
991.83113153
 20
625.11545824
 30
0.0
 11
990.58113153
 21
625.11545824
 31
0.0
  0
LINE
  5
250
330
1E
100
AcDbEntity
  8
0
  6
STRICHPUNKT2
 62
     1
100
AcDbLine
 10
997.08113153
 20
625.11545824
 30
0.0
 11
995.83113153
 21
625.11545824
 31
0.0
  0
CIRCLE
  5
251
330
1E
100
AcDbEntity
  8
0
100
AcDbCircle
 10
906.43189032
 20
716.05710572
 30
0.0
 40
2.5
  0
CIRCLE
  5
252
330
1E
100
AcDbEntity
  8
0
100
AcDbCircle
 10
918.93189032
 20
718.55710572
 30
0.0
 40
3.0
  0
LINE
  5
253
330
1E
100
AcDbEntity
  8
0
100
AcDbLine
 10
938.93189032
 20
731.05710572
 30
0.0
 11
938.93189032
 21
688.55710572
 31
0.0
  0
LINE
  5
254
330
1E
100
AcDbEntity
  8
0
100
AcDbLine
 10
898.93189032
 20
731.05710572
 30
0.0
 11
938.93189032
 21
731.05710572
 31
0.0
  0
POLYLINE
  5
255
330
1E
100
AcDbEntity
  8
0
100
AcDb2dPolyline
 66
     1
 10
0.0
 20
0.0
 30
0.0
  0
VERTEX
  5
256
330
255
100
AcDbEntity
  8
0
100
AcDbVertex
100
AcDb2dVertex
 10
898.93189032
 20
731.05710572
 30
0.0
  0
VERTEX
  5
257
330
255
100
AcDbEntity
  8
0
100
AcDbVertex
100
AcDb2dVertex
 10
898.93189032
 20
688.55710572
 30
0.0
  0
VERTEX
  5
258
330
255
100
AcDbEntity
  8
0
100
AcDbVertex
100
AcDb2dVertex
 10
898.93189032
 20
681.05710572
 30
0.0
  0
VERTEX
  5
259
330
255
100
AcDbEntity
  8
0
100
AcDbVertex
100
AcDb2dVertex
 10
938.93189032
 20
681.05710572
 30
0.0
  0
SEQEND
  5
25A
330
255
100
AcDbEntity
  8
0
  0
LINE
  5
25B
330
1E
100
AcDbEntity
  8
0
100
AcDbLine
 10
938.93189032
 20
688.55710572
 30
0.0
 11
938.93189032
 21
681.05710572
 31
0.0
  0
LINE
  5
25C
330
1E
100
AcDbEntity
  8
0
  6
STRICHPUNKT2
 62
     1
100
AcDbLine
 10
918.93189032
 20
681.05710572
 30
0.0
 11
918.93189032
 21
679.30710572
 31
0.0
  0
LINE
  5
25D
330
1E
100
AcDbEntity
  8
0
  6
STRICHPUNKT2
 62
     1
100
AcDbLine
 10
906.43189032
 20
716.05710572
 30
0.0
 11
906.43189032
 21
719.80710572
 31
0.0
  0
LINE
  5
25E
330
1E
100
AcDbEntity
  8
0
  6
STRICHPUNKT2
 62
     1
100
AcDbLine
 10
906.43189032
 20
716.05710572
 30
0.0
 11
906.43189032
 21
712.30710572
 31
0.0
  0
LINE
  5
25F
330
1E
100
AcDbEntity
  8
0
  6
STRICHPUNKT2
 62
     1
100
AcDbLine
 10
906.43189032
 20
716.05710572
 30
0.0
 11
902.68189032
 21
716.05710572
 31
0.0
  0
LINE
  5
260
330
1E
100
AcDbEntity
  8
0
  6
STRICHPUNKT2
 62
     1
100
AcDbLine
 10
906.43189032
 20
716.05710572
 30
0.0
 11
910.18189032
 21
716.05710572
 31
0.0
  0
LINE
  5
261
330
1E
100
AcDbEntity
  8
0
  6
STRICHPUNKT2
 62
     1
100
AcDbLine
 10
918.93189032
 20
718.55710572
 30
0.0
 11
923.43189032
 21
718.55710572
 31
0.0
  0
LINE
  5
262
330
1E
100
AcDbEntity
  8
0
  6
STRICHPUNKT2
 62
     1
100
AcDbLine
 10
918.93189032
 20
718.55710572
 30
0.0
 11
914.43189032
 21
718.55710572
 31
0.0
  0
LINE
  5
263
330
1E
100
AcDbEntity
  8
0
  6
STRICHPUNKT2
 62
     1
100
AcDbLine
 10
918.93189032
 20
718.55710572
 30
0.0
 11
918.93189032
 21
723.05710572
 31
0.0
  0
LINE
  5
264
330
1E
100
AcDbEntity
  8
0
  6
STRICHPUNKT2
 62
     1
100
AcDbLine
 10
918.93189032
 20
718.55710572
 30
0.0
 11
918.93189032
 21
714.05710572
 31
0.0
  0
CIRCLE
  5
265
330
1E
100
AcDbEntity
  8
0
100
AcDbCircle
 10
1201.13791953
 20
721.05710572
 30
0.0
 40
2.5
  0
CIRCLE
  5
266
330
1E
100
AcDbEntity
  8
0
100
AcDbCircle
 10
1213.63791953
 20
718.55710572
 30
0.0
 40
3.0
  0
LINE
  5
267
330
1E
100
AcDbEntity
  8
0
100
AcDbLine
 10
1233.63791953
 20
685.05710572
 30
0.0
 11
1193.63791953
 21
685.05710572
 31
0.0
  0
LINE
  5
268
330
1E
100
AcDbEntity
  8
0
100
AcDbLine
 10
1193.63791953
 20
731.05710572
 30
0.0
 11
1193.63791953
 21
685.05710572
 31
0.0
  0
LINE
  5
269
330
1E
100
AcDbEntity
  8
0
100
AcDbLine
 10
1233.63791953
 20
731.05710572
 30
0.0
 11
1193.63791953
 21
731.05710572
 31
0.0
  0
LINE
  5
26A
330
1E
100
AcDbEntity
  8
0
100
AcDbLine
 10
1233.63791953
 20
731.05710572
 30
0.0
 11
1233.63791953
 21
685.05710572
 31
0.0
  0
LINE
  5
26B
330
1E
100
AcDbEntity
  8
0
  6
STRICHPUNKT2
 62
     1
100
AcDbLine
 10
1213.63791953
 20
718.55710572
 30
0.0
 11
1213.63791953
 21
714.05710572
 31
0.0
  0
LINE
  5
26C
330
1E
100
AcDbEntity
  8
0
  6
STRICHPUNKT2
 62
     1
100
AcDbLine
 10
1213.63791953
 20
718.55710572
 30
0.0
 11
1213.63791953
 21
723.05710572
 31
0.0
  0
LINE
  5
26D
330
1E
100
AcDbEntity
  8
0
  6
STRICHPUNKT2
 62
     1
100
AcDbLine
 10
1213.63791953
 20
718.55710572
 30
0.0
 11
1218.13791953
 21
718.55710572
 31
0.0
  0
LINE
  5
26E
330
1E
100
AcDbEntity
  8
0
  6
STRICHPUNKT2
 62
     1
100
AcDbLine
 10
1213.63791953
 20
718.55710572
 30
0.0
 11
1209.13791953
 21
718.55710572
 31
0.0
  0
LINE
  5
26F
330
1E
100
AcDbEntity
  8
0
  6
STRICHPUNKT2
 62
     1
100
AcDbLine
 10
1201.13791953
 20
721.05710572
 30
0.0
 11
1204.88791953
 21
721.05710572
 31
0.0
  0
LINE
  5
270
330
1E
100
AcDbEntity
  8
0
  6
STRICHPUNKT2
 62
     1
100
AcDbLine
 10
1201.13791953
 20
721.05710572
 30
0.0
 11
1197.38791953
 21
721.05710572
 31
0.0
  0
LINE
  5
271
330
1E
100
AcDbEntity
  8
0
  6
STRICHPUNKT2
 62
     1
100
AcDbLine
 10
1201.13791953
 20
721.05710572
 30
0.0
 11
1201.13791953
 21
724.80710572
 31
0.0
  0
LINE
  5
272
330
1E
100
AcDbEntity
  8
0
  6
STRICHPUNKT2
 62
     1
100
AcDbLine
 10
1201.13791953
 20
721.05710572
 30
0.0
 11
1201.13791953
 21
717.30710572
 31
0.0
  0
POLYLINE
  5
273
330
1E
100
AcDbEntity
  8
0
100
AcDb2dPolyline
 66
     1
 10
0.0
 20
0.0
 30
0.0
 70
     1
  0
VERTEX
  5
274
330
273
100
AcDbEntity
  8
0
100
AcDbVertex
100
AcDb2dVertex
 10
1233.63791953
 20
681.05710572
 30
0.0
  0
VERTEX
  5
275
330
273
100
AcDbEntity
  8
0
100
AcDbVertex
100
AcDb2dVertex
 10
1233.63791953
 20
685.05710572
 30
0.0
  0
VERTEX
  5
276
330
273
100
AcDbEntity
  8
0
100
AcDbVertex
100
AcDb2dVertex
 10
1193.63791953
 20
685.05710572
 30
0.0
  0
VERTEX
  5
277
330
273
100
AcDbEntity
  8
0
100
AcDbVertex
100
AcDb2dVertex
 10
1193.63791953
 20
681.05710572
 30
0.0
  0
SEQEND
  5
278
330
273
100
AcDbEntity
  8
0
  0
LINE
  5
279
330
1E
100
AcDbEntity
  8
0
  6
STRICHPUNKT2
 62
     1
100
AcDbLine
 10
1213.63791953
 20
681.05710572
 30
0.0
 11
1213.63791953
 21
679.30710572
 31
0.0
  0
LINE
  5
27A
330
1E
100
AcDbEntity
  8
0
  6
STRICHPUNKT2
 62
     1
100
AcDbLine
 10
1213.63791953
 20
686.80710572
 30
0.0
 11
1213.63791953
 21
685.05710572
 31
0.0
  0
TEXT
  5
27B
330
1E
100
AcDbEntity
  8
TXT_DIM49
100
AcDbText
 10
992.90371336
 20
743.01371133
 30
0.0
 40
2.5
  1
8
  7
ARIAL
100
AcDbText
  0
LINE
  5
27C
330
1E
100
AcDbEntity
  8
0
 62
     4
100
AcDbLine
 10
992.83113153
 20
742.51371133
 30
0.0
 11
990.83113153
 21
740.51371133
 31
0.0
  0
LINE
  5
27D
330
1E
100
AcDbEntity
  8
0
 62
     4
100
AcDbLine
 10
995.08113153
 20
740.76371133
 30
0.0
 11
996.58113153
 21
742.26371133
 31
0.0
  0
LINE
  5
27E
330
1E
100
AcDbEntity
  8
0
 62
     4
100
AcDbLine
 10
991.83113153
 20
741.51371133
 30
0.0
 11
995.83113153
 21
741.51371133
 31
0.0
  0
LINE
  5
27F
330
1E
100
AcDbEntity
  8
0
 62
     4
100
AcDbLine
 10
991.83113153
 20
739.51371133
 30
0.0
 11
991.83113153
 21
743.51371133
 31
0.0
  0
LINE
  5
280
330
1E
100
AcDbEntity
  8
0
 62
     4
100
AcDbLine
 10
995.83113153
 20
739.51371133
 30
0.0
 11
995.83113153
 21
743.51371133
 31
0.0
  0
TEXT
  5
281
330
1E
100
AcDbEntity
  8
TXT_DIM49
100
AcDbText
 10
1011.72629518
 20
743.01371133
 30
0.0
 40
2.5
  1
71
  7
ARIAL
100
AcDbText
  0
LINE
  5
282
330
1E
100
AcDbEntity
  8
0
 62
     4
100
AcDbLine
 10
996.83113153
 20
742.51371133
 30
0.0
 11
994.83113153
 21
740.51371133
 31
0.0
  0
LINE
  5
283
330
1E
100
AcDbEntity
  8
0
 62
     4
100
AcDbLine
 10
1030.58113153
 20
740.76371133
 30
0.0
 11
1032.08113153
 21
742.26371133
 31
0.0
  0
LINE
  5
284
330
1E
100
AcDbEntity
  8
0
 62
     4
100
AcDbLine
 10
995.83113153
 20
741.51371133
 30
0.0
 11
1031.33113153
 21
741.51371133
 31
0.0
  0
LINE
  5
285
330
1E
100
AcDbEntity
  8
0
 62
     4
100
AcDbLine
 10
995.83113153
 20
739.51371133
 30
0.0
 11
995.83113153
 21
743.51371133
 31
0.0
  0
LINE
  5
286
330
1E
100
AcDbEntity
  8
0
 62
     4
100
AcDbLine
 10
1031.33113153
 20
739.51371133
 30
0.0
 11
1031.33113153
 21
743.51371133
 31
0.0
  0
TEXT
  5
287
330
1E
100
AcDbEntity
  8
TXT_DIM49
100
AcDbText
 10
1032.40371336
 20
743.01371133
 30
0.0
 40
2.5
  1
8
  7
ARIAL
100
AcDbText
  0
LINE
  5
288
330
1E
100
AcDbEntity
  8
0
 62
     4
100
AcDbLine
 10
1032.33113153
 20
742.51371133
 30
0.0
 11
1030.33113153
 21
740.51371133
 31
0.0
  0
LINE
  5
289
330
1E
100
AcDbEntity
  8
0
 62
     4
100
AcDbLine
 10
1034.58113153
 20
740.76371133
 30
0.0
 11
1036.08113153
 21
742.26371133
 31
0.0
  0
LINE
  5
28A
330
1E
100
AcDbEntity
  8
0
 62
     4
100
AcDbLine
 10
1031.33113153
 20
741.51371133
 30
0.0
 11
1035.33113153
 21
741.51371133
 31
0.0
  0
LINE
  5
28B
330
1E
100
AcDbEntity
  8
0
 62
     4
100
AcDbLine
 10
1031.33113153
 20
739.51371133
 30
0.0
 11
1031.33113153
 21
743.51371133
 31
0.0
  0
LINE
  5
28C
330
1E
100
AcDbEntity
  8
0
 62
     4
100
AcDbLine
 10
1035.33113153
 20
739.51371133
 30
0.0
 11
1035.33113153
 21
743.51371133
 31
0.0
  0
TEXT
  5
28D
330
1E
100
AcDbEntity
  8
TXT_DIM49
100
AcDbText
 10
1089.54887707
 20
743.01371133
 30
0.0
 40
2.5
  1
228
  7
ARIAL
100
AcDbText
  0
LINE
  5
28E
330
1E
100
AcDbEntity
  8
0
 62
     4
100
AcDbLine
 10
1036.33113153
 20
742.51371133
 30
0.0
 11
1034.33113153
 21
740.51371133
 31
0.0
  0
LINE
  5
28F
330
1E
100
AcDbEntity
  8
0
 62
     4
100
AcDbLine
 10
1148.58113153
 20
740.76371133
 30
0.0
 11
1150.08113153
 21
742.26371133
 31
0.0
  0
LINE
  5
290
330
1E
100
AcDbEntity
  8
0
 62
     4
100
AcDbLine
 10
1035.33113153
 20
741.51371133
 30
0.0
 11
1149.33113153
 21
741.51371133
 31
0.0
  0
LINE
  5
291
330
1E
100
AcDbEntity
  8
0
 62
     4
100
AcDbLine
 10
1035.33113153
 20
739.51371133
 30
0.0
 11
1035.33113153
 21
743.51371133
 31
0.0
  0
LINE
  5
292
330
1E
100
AcDbEntity
  8
0
 62
     4
100
AcDbLine
 10
1149.33113153
 20
739.51371133
 30
0.0
 11
1149.33113153
 21
743.51371133
 31
0.0
  0
TEXT
  5
293
330
1E
100
AcDbEntity
  8
TXT_DIM49
100
AcDbText
 10
980.33113153
 20
703.27485127
 30
0.0
 40
2.5
  1
100
 50
90.00020741
  7
ARIAL
100
AcDbText
  0
LINE
  5
294
330
1E
100
AcDbEntity
  8
0
 62
     4
100
AcDbLine
 10
982.83113153
 20
730.05710572
 30
0.0
 11
980.83113153
 21
732.05710572
 31
0.0
  0
LINE
  5
295
330
1E
100
AcDbEntity
  8
0
 62
     4
100
AcDbLine
 10
981.08113153
 20
681.80710572
 30
0.0
 11
982.58113153
 21
680.30710572
 31
0.0
  0
LINE
  5
296
330
1E
100
AcDbEntity
  8
0
 62
     4
100
AcDbLine
 10
981.83113153
 20
731.05710572
 30
0.0
 11
981.83113153
 21
681.05710572
 31
0.0
  0
LINE
  5
297
330
1E
100
AcDbEntity
  8
0
 62
     4
100
AcDbLine
 10
983.83113153
 20
731.05710572
 30
0.0
 11
979.83113153
 21
731.05710572
 31
0.0
  0
LINE
  5
298
330
1E
100
AcDbEntity
  8
0
 62
     4
100
AcDbLine
 10
983.83113153
 20
681.05710572
 30
0.0
 11
979.83113153
 21
681.05710572
 31
0.0
  0
TEXT
  5
299
330
1E
100
AcDbEntity
  8
TXT_DIM49
100
AcDbText
 10
1067.79887707
 20
668.37487243
 30
0.0
 40
2.5
  1
315
  7
ARIAL
100
AcDbText
  0
LINE
  5
29A
330
1E
100
AcDbEntity
  8
0
 62
     4
100
AcDbLine
 10
992.83113153
 20
667.87487243
 30
0.0
 11
990.83113153
 21
665.87487243
 31
0.0
  0
LINE
  5
29B
330
1E
100
AcDbEntity
  8
0
 62
     4
100
AcDbLine
 10
1148.58113153
 20
666.12487243
 30
0.0
 11
1150.08113153
 21
667.62487243
 31
0.0
  0
LINE
  5
29C
330
1E
100
AcDbEntity
  8
0
 62
     4
100
AcDbLine
 10
991.83113153
 20
666.87487243
 30
0.0
 11
1149.33113153
 21
666.87487243
 31
0.0
  0
LINE
  5
29D
330
1E
100
AcDbEntity
  8
0
 62
     4
100
AcDbLine
 10
991.83113153
 20
668.87487243
 30
0.0
 11
991.83113153
 21
664.87487243
 31
0.0
  0
LINE
  5
29E
330
1E
100
AcDbEntity
  8
0
 62
     4
100
AcDbLine
 10
1149.33113153
 20
668.87487243
 30
0.0
 11
1149.33113153
 21
664.87487243
 31
0.0
  0
TEXT
  5
29F
330
1E
100
AcDbEntity
  8
TXT_DIM49
100
AcDbText
 10
1158.78230563
 20
682.12968755
 30
0.0
 40
2.5
  1
8
 50
90.00020741
  7
ARIAL
100
AcDbText
  0
LINE
  5
2A0
330
1E
100
AcDbEntity
  8
0
 62
     4
100
AcDbLine
 10
1161.28230563
 20
684.05710572
 30
0.0
 11
1159.28230563
 21
686.05710572
 31
0.0
  0
LINE
  5
2A1
330
1E
100
AcDbEntity
  8
0
 62
     4
100
AcDbLine
 10
1159.53230563
 20
681.80710572
 30
0.0
 11
1161.03230563
 21
680.30710572
 31
0.0
  0
LINE
  5
2A2
330
1E
100
AcDbEntity
  8
0
 62
     4
100
AcDbLine
 10
1160.28230563
 20
685.05710572
 30
0.0
 11
1160.28230563
 21
681.05710572
 31
0.0
  0
LINE
  5
2A3
330
1E
100
AcDbEntity
  8
0
 62
     4
100
AcDbLine
 10
1158.28230563
 20
685.05710572
 30
0.0
 11
1162.28230563
 21
685.05710572
 31
0.0
  0
LINE
  5
2A4
330
1E
100
AcDbEntity
  8
0
 62
     4
100
AcDbLine
 10
1158.28230563
 20
681.05710572
 30
0.0
 11
1162.28230563
 21
681.05710572
 31
0.0
  0
TEXT
  5
2A5
330
1E
100
AcDbEntity
  8
TXT_DIM49
100
AcDbText
 10
1000.85129518
 20
640.07369207
 30
0.0
 40
2.5
  1
44
  7
ARIAL
100
AcDbText
  0
LINE
  5
2A6
330
1E
100
AcDbEntity
  8
0
 62
     4
100
AcDbLine
 10
992.83113153
 20
639.57369207
 30
0.0
 11
990.83113153
 21
637.57369207
 31
0.0
  0
LINE
  5
2A7
330
1E
100
AcDbEntity
  8
0
 62
     4
100
AcDbLine
 10
1012.83113153
 20
637.82369207
 30
0.0
 11
1014.33113153
 21
639.32369207
 31
0.0
  0
LINE
  5
2A8
330
1E
100
AcDbEntity
  8
0
 62
     4
100
AcDbLine
 10
991.83113153
 20
638.57369207
 30
0.0
 11
1013.58113153
 21
638.57369207
 31
0.0
  0
LINE
  5
2A9
330
1E
100
AcDbEntity
  8
0
 62
     4
100
AcDbLine
 10
991.83113153
 20
636.57369207
 30
0.0
 11
991.83113153
 21
640.57369207
 31
0.0
  0
LINE
  5
2AA
330
1E
100
AcDbEntity
  8
0
 62
     4
100
AcDbLine
 10
1013.58113153
 20
636.57369207
 30
0.0
 11
1013.58113153
 21
640.57369207
 31
0.0
  0
TEXT
  5
2AB
330
1E
100
AcDbEntity
  8
TXT_DIM49
100
AcDbText
 10
1030.60129518
 20
640.07369207
 30
0.0
 40
2.5
  1
76
  7
ARIAL
100
AcDbText
  0
LINE
  5
2AC
330
1E
100
AcDbEntity
  8
0
 62
     4
100
AcDbLine
 10
1014.58113153
 20
639.57369207
 30
0.0
 11
1012.58113153
 21
637.57369207
 31
0.0
  0
LINE
  5
2AD
330
1E
100
AcDbEntity
  8
0
 62
     4
100
AcDbLine
 10
1050.58113153
 20
637.82369207
 30
0.0
 11
1052.08113153
 21
639.32369207
 31
0.0
  0
LINE
  5
2AE
330
1E
100
AcDbEntity
  8
0
 62
     4
100
AcDbLine
 10
1013.58113153
 20
638.57369207
 30
0.0
 11
1051.33113153
 21
638.57369207
 31
0.0
  0
LINE
  5
2AF
330
1E
100
AcDbEntity
  8
0
 62
     4
100
AcDbLine
 10
1013.58113153
 20
636.57369207
 30
0.0
 11
1013.58113153
 21
640.57369207
 31
0.0
  0
LINE
  5
2B0
330
1E
100
AcDbEntity
  8
0
 62
     4
100
AcDbLine
 10
1051.33113153
 20
636.57369207
 30
0.0
 11
1051.33113153
 21
640.57369207
 31
0.0
  0
TEXT
  5
2B1
330
1E
100
AcDbEntity
  8
TXT_DIM49
100
AcDbText
 10
1086.04887707
 20
640.07369207
 30
0.0
 40
2.5
  1
150
  7
ARIAL
100
AcDbText
  0
LINE
  5
2B2
330
1E
100
AcDbEntity
  8
0
 62
     4
100
AcDbLine
 10
1052.33113153
 20
639.57369207
 30
0.0
 11
1050.33113153
 21
637.57369207
 31
0.0
  0
LINE
  5
2B3
330
1E
100
AcDbEntity
  8
0
 62
     4
100
AcDbLine
 10
1125.58113153
 20
637.82369207
 30
0.0
 11
1127.08113153
 21
639.32369207
 31
0.0
  0
LINE
  5
2B4
330
1E
100
AcDbEntity
  8
0
 62
     4
100
AcDbLine
 10
1051.33113153
 20
638.57369207
 30
0.0
 11
1126.33113153
 21
638.57369207
 31
0.0
  0
LINE
  5
2B5
330
1E
100
AcDbEntity
  8
0
 62
     4
100
AcDbLine
 10
1051.33113153
 20
636.57369207
 30
0.0
 11
1051.33113153
 21
640.57369207
 31
0.0
  0
LINE
  5
2B6
330
1E
100
AcDbEntity
  8
0
 62
     4
100
AcDbLine
 10
1126.33113153
 20
636.57369207
 30
0.0
 11
1126.33113153
 21
640.57369207
 31
0.0
  0
TEXT
  5
2B7
330
1E
100
AcDbEntity
  8
TXT_DIM49
100
AcDbText
 10
1135.97629518
 20
640.07369207
 30
0.0
 40
2.5
  1
46
  7
ARIAL
100
AcDbText
  0
LINE
  5
2B8
330
1E
100
AcDbEntity
  8
0
 62
     4
100
AcDbLine
 10
1127.33113153
 20
639.57369207
 30
0.0
 11
1125.33113153
 21
637.57369207
 31
0.0
  0
LINE
  5
2B9
330
1E
100
AcDbEntity
  8
0
 62
     4
100
AcDbLine
 10
1148.58113153
 20
637.82369207
 30
0.0
 11
1150.08113153
 21
639.32369207
 31
0.0
  0
LINE
  5
2BA
330
1E
100
AcDbEntity
  8
0
 62
     4
100
AcDbLine
 10
1126.33113153
 20
638.57369207
 30
0.0
 11
1149.33113153
 21
638.57369207
 31
0.0
  0
LINE
  5
2BB
330
1E
100
AcDbEntity
  8
0
 62
     4
100
AcDbLine
 10
1126.33113153
 20
636.57369207
 30
0.0
 11
1126.33113153
 21
640.57369207
 31
0.0
  0
LINE
  5
2BC
330
1E
100
AcDbEntity
  8
0
 62
     4
100
AcDbLine
 10
1149.33113153
 20
636.57369207
 30
0.0
 11
1149.33113153
 21
640.57369207
 31
0.0
  0
TEXT
  5
2BD
330
1E
100
AcDbEntity
  8
TXT_DIM49
100
AcDbText
 10
1155.36063999
 20
620.7606219
 30
0.0
 40
2.5
  1
40
 50
90.00020741
  7
ARIAL
100
AcDbText
  0
LINE
  5
2BE
330
1E
100
AcDbEntity
  8
0
 62
     4
100
AcDbLine
 10
1157.86063999
 20
631.61545824
 30
0.0
 11
1155.86063999
 21
633.61545824
 31
0.0
  0
LINE
  5
2BF
330
1E
100
AcDbEntity
  8
0
 62
     4
100
AcDbLine
 10
1156.11063999
 20
613.36545824
 30
0.0
 11
1157.61063999
 21
611.86545824
 31
0.0
  0
LINE
  5
2C0
330
1E
100
AcDbEntity
  8
0
 62
     4
100
AcDbLine
 10
1156.86063999
 20
632.61545824
 30
0.0
 11
1156.86063999
 21
612.61545824
 31
0.0
  0
LINE
  5
2C1
330
1E
100
AcDbEntity
  8
0
 62
     4
100
AcDbLine
 10
1154.86063999
 20
632.61545824
 30
0.0
 11
1158.86063999
 21
632.61545824
 31
0.0
  0
LINE
  5
2C2
330
1E
100
AcDbEntity
  8
0
 62
     4
100
AcDbLine
 10
1154.86063999
 20
612.61545824
 30
0.0
 11
1158.86063999
 21
612.61545824
 31
0.0
  0
TEXT
  5
2C3
330
1E
100
AcDbEntity
  8
TXT_DIM49
100
AcDbText
 10
1155.36063999
 20
600.7606219
 30
0.0
 40
2.5
  1
40
 50
90.00020741
  7
ARIAL
100
AcDbText
  0
LINE
  5
2C4
330
1E
100
AcDbEntity
  8
0
 62
     4
100
AcDbLine
 10
1157.86063999
 20
611.61545824
 30
0.0
 11
1155.86063999
 21
613.61545824
 31
0.0
  0
LINE
  5
2C5
330
1E
100
AcDbEntity
  8
0
 62
     4
100
AcDbLine
 10
1156.11063999
 20
593.36545824
 30
0.0
 11
1157.61063999
 21
591.86545824
 31
0.0
  0
LINE
  5
2C6
330
1E
100
AcDbEntity
  8
0
 62
     4
100
AcDbLine
 10
1156.86063999
 20
612.61545824
 30
0.0
 11
1156.86063999
 21
592.61545824
 31
0.0
  0
LINE
  5
2C7
330
1E
100
AcDbEntity
  8
0
 62
     4
100
AcDbLine
 10
1154.86063999
 20
612.61545824
 30
0.0
 11
1158.86063999
 21
612.61545824
 31
0.0
  0
LINE
  5
2C8
330
1E
100
AcDbEntity
  8
0
 62
     4
100
AcDbLine
 10
1154.86063999
 20
592.61545824
 30
0.0
 11
1158.86063999
 21
592.61545824
 31
0.0
  0
LINE
  5
2C9
330
1E
100
AcDbEntity
  8
0
 62
     5
100
AcDbLine
 10
1013.58113153
 20
612.61545824
 30
0.0
 11
1016.35793537
 21
601.98489612
 31
0.0
  0
TEXT
  5
2CA
330
1E
100
AcDbEntity
  8
TXT_DIM49
100
AcDbText
 10
1016.35793537
 20
600.73489612
 30
0.0
 40
2.5
  1
Ø14
  7
ARIAL
 11
1016.35793537
 21
601.98489612
 31
0.0
100
AcDbText
 73
     2
  0
LINE
  5
2CB
330
1E
100
AcDbEntity
  8
0
 62
     5
100
AcDbLine
 10
1051.33113153
 20
612.61545824
 30
0.0
 11
1054.36555646
 21
602.73424231
 31
0.0
  0
TEXT
  5
2CC
330
1E
100
AcDbEntity
  8
TXT_DIM49
100
AcDbText
 10
1054.36555646
 20
601.48424231
 30
0.0
 40
2.5
  1
Slobgat 14 x 40
  7
ARIAL
 11
1054.36555646
 21
602.73424231
 31
0.0
100
AcDbText
 73
     2
  0
LINE
  5
2CD
330
1E
100
AcDbEntity
  8
0
 62
     5
100
AcDbLine
 10
1126.33113153
 20
612.61545824
 30
0.0
 11
1129.27030244
 21
602.93021223
 31
0.0
  0
TEXT
  5
2CE
330
1E
100
AcDbEntity
  8
TXT_DIM49
100
AcDbText
 10
1129.27030244
 20
601.68021223
 30
0.0
 40
2.5
  1
Ø14
  7
ARIAL
 11
1129.27030244
 21
602.93021223
 31
0.0
100
AcDbText
 73
     2
  0
LINE
  5
2CF
330
1E
100
AcDbEntity
  8
0
 62
     5
100
AcDbLine
 10
918.93189032
 20
718.55710572
 30
0.0
 11
923.03182589
 21
707.86419776
 31
0.0
  0
TEXT
  5
2D0
330
1E
100
AcDbEntity
  8
TXT_DIM49
100
AcDbText
 10
924.03182589
 20
706.61419776
 30
0.0
 40
2.5
  1
Ø12
  7
ARIAL
 11
924.03182589
 21
707.86419776
 31
0.0
100
AcDbText
 73
     2
  0
POLYLINE
  5
2D1
330
1E
100
AcDbEntity
  8
0
 62
     5
100
AcDb2dPolyline
 66
     1
 10
0.0
 20
0.0
 30
0.0
 70
     1
  0
VERTEX
  5
2D2
330
2D1
100
AcDbEntity
  8
0
 62
     5
100
AcDbVertex
100
AcDb2dVertex
 10
923.03182589
 20
709.36419776
 30
0.0
  0
VERTEX
  5
2D3
330
2D1
100
AcDbEntity
  8
0
 62
     5
100
AcDbVertex
100
AcDb2dVertex
 10
931.31542518
 20
709.36419776
 30
0.0
  0
VERTEX
  5
2D4
330
2D1
100
AcDbEntity
  8
0
 62
     5
100
AcDbVertex
100
AcDb2dVertex
 10
931.31542518
 20
706.36419776
 30
0.0
  0
VERTEX
  5
2D5
330
2D1
100
AcDbEntity
  8
0
 62
     5
100
AcDbVertex
100
AcDb2dVertex
 10
923.03182589
 20
706.36419776
 30
0.0
  0
SEQEND
  5
2D6
330
2D1
100
AcDbEntity
  8
0
  0
LINE
  5
2D7
330
1E
100
AcDbEntity
  8
0
 62
     5
100
AcDbLine
 10
906.43189032
 20
716.05710572
 30
0.0
 11
910.02889698
 21
704.61377114
 31
0.0
  0
TEXT
  5
2D8
330
1E
100
AcDbEntity
  8
TXT_DIM49
100
AcDbText
 10
910.02889698
 20
703.36377114
 30
0.0
 40
2.5
  1
Ø10
  7
ARIAL
 11
910.02889698
 21
704.61377114
 31
0.0
100
AcDbText
 73
     2
  0
TEXT
  5
2D9
330
1E
100
AcDbEntity
  8
TXT_DIM49
100
AcDbText
 10
900.82705397
 20
737.09069399
 30
0.0
 40
2.5
  1
15
  7
ARIAL
100
AcDbText
  0
LINE
  5
2DA
330
1E
100
AcDbEntity
  8
0
 62
     4
100
AcDbLine
 10
899.93189032
 20
736.59069399
 30
0.0
 11
897.93189032
 21
734.59069399
 31
0.0
  0
LINE
  5
2DB
330
1E
100
AcDbEntity
  8
0
 62
     4
100
AcDbLine
 10
905.68189032
 20
734.84069399
 30
0.0
 11
907.18189032
 21
736.34069399
 31
0.0
  0
LINE
  5
2DC
330
1E
100
AcDbEntity
  8
0
 62
     4
100
AcDbLine
 10
898.93189032
 20
735.59069399
 30
0.0
 11
906.43189032
 21
735.59069399
 31
0.0
  0
LINE
  5
2DD
330
1E
100
AcDbEntity
  8
0
 62
     4
100
AcDbLine
 10
898.93189032
 20
733.59069399
 30
0.0
 11
898.93189032
 21
737.59069399
 31
0.0
  0
LINE
  5
2DE
330
1E
100
AcDbEntity
  8
0
 62
     4
100
AcDbLine
 10
906.43189032
 20
733.59069399
 30
0.0
 11
906.43189032
 21
737.59069399
 31
0.0
  0
TEXT
  5
2DF
330
1E
100
AcDbEntity
  8
TXT_DIM49
100
AcDbText
 10
910.82705397
 20
737.09069399
 30
0.0
 40
2.5
  1
25
  7
ARIAL
100
AcDbText
  0
LINE
  5
2E0
330
1E
100
AcDbEntity
  8
0
 62
     4
100
AcDbLine
 10
907.43189032
 20
736.59069399
 30
0.0
 11
905.43189032
 21
734.59069399
 31
0.0
  0
LINE
  5
2E1
330
1E
100
AcDbEntity
  8
0
 62
     4
100
AcDbLine
 10
918.18189032
 20
734.84069399
 30
0.0
 11
919.68189032
 21
736.34069399
 31
0.0
  0
LINE
  5
2E2
330
1E
100
AcDbEntity
  8
0
 62
     4
100
AcDbLine
 10
906.43189032
 20
735.59069399
 30
0.0
 11
918.93189032
 21
735.59069399
 31
0.0
  0
LINE
  5
2E3
330
1E
100
AcDbEntity
  8
0
 62
     4
100
AcDbLine
 10
906.43189032
 20
733.59069399
 30
0.0
 11
906.43189032
 21
737.59069399
 31
0.0
  0
LINE
  5
2E4
330
1E
100
AcDbEntity
  8
0
 62
     4
100
AcDbLine
 10
918.93189032
 20
733.59069399
 30
0.0
 11
918.93189032
 21
737.59069399
 31
0.0
  0
TEXT
  5
2E5
330
1E
100
AcDbEntity
  8
TXT_DIM49
100
AcDbText
 10
927.07705397
 20
737.09069399
 30
0.0
 40
2.5
  1
40
  7
ARIAL
100
AcDbText
  0
LINE
  5
2E6
330
1E
100
AcDbEntity
  8
0
 62
     4
100
AcDbLine
 10
919.93189032
 20
736.59069399
 30
0.0
 11
917.93189032
 21
734.59069399
 31
0.0
  0
LINE
  5
2E7
330
1E
100
AcDbEntity
  8
0
 62
     4
100
AcDbLine
 10
938.18189032
 20
734.84069399
 30
0.0
 11
939.68189032
 21
736.34069399
 31
0.0
  0
LINE
  5
2E8
330
1E
100
AcDbEntity
  8
0
 62
     4
100
AcDbLine
 10
918.93189032
 20
735.59069399
 30
0.0
 11
938.93189032
 21
735.59069399
 31
0.0
  0
LINE
  5
2E9
330
1E
100
AcDbEntity
  8
0
 62
     4
100
AcDbLine
 10
918.93189032
 20
733.59069399
 30
0.0
 11
918.93189032
 21
737.59069399
 31
0.0
  0
LINE
  5
2EA
330
1E
100
AcDbEntity
  8
0
 62
     4
100
AcDbLine
 10
938.93189032
 20
733.59069399
 30
0.0
 11
938.93189032
 21
737.59069399
 31
0.0
  0
TEXT
  5
2EB
330
1E
100
AcDbEntity
  8
TXT_DIM49
100
AcDbText
 10
945.37568412
 20
722.95226938
 30
0.0
 40
2.5
  1
25
 50
90.00020741
  7
ARIAL
100
AcDbText
  0
LINE
  5
2EC
330
1E
100
AcDbEntity
  8
0
 62
     4
100
AcDbLine
 10
947.87568412
 20
730.05710572
 30
0.0
 11
945.87568412
 21
732.05710572
 31
0.0
  0
LINE
  5
2ED
330
1E
100
AcDbEntity
  8
0
 62
     4
100
AcDbLine
 10
946.12568412
 20
719.30710572
 30
0.0
 11
947.62568412
 21
717.80710572
 31
0.0
  0
LINE
  5
2EE
330
1E
100
AcDbEntity
  8
0
 62
     4
100
AcDbLine
 10
946.87568412
 20
731.05710572
 30
0.0
 11
946.87568412
 21
718.55710572
 31
0.0
  0
LINE
  5
2EF
330
1E
100
AcDbEntity
  8
0
 62
     4
100
AcDbLine
 10
944.87568412
 20
731.05710572
 30
0.0
 11
948.87568412
 21
731.05710572
 31
0.0
  0
LINE
  5
2F0
330
1E
100
AcDbEntity
  8
0
 62
     4
100
AcDbLine
 10
944.87568412
 20
718.55710572
 30
0.0
 11
948.87568412
 21
718.55710572
 31
0.0
  0
TEXT
  5
2F1
330
1E
100
AcDbEntity
  8
TXT_DIM49
100
AcDbText
 10
945.37568412
 20
697.95226938
 30
0.0
 40
2.5
  1
75
 50
90.00020741
  7
ARIAL
100
AcDbText
  0
LINE
  5
2F2
330
1E
100
AcDbEntity
  8
0
 62
     4
100
AcDbLine
 10
947.87568412
 20
717.55710572
 30
0.0
 11
945.87568412
 21
719.55710572
 31
0.0
  0
LINE
  5
2F3
330
1E
100
AcDbEntity
  8
0
 62
     4
100
AcDbLine
 10
946.12568412
 20
681.80710572
 30
0.0
 11
947.62568412
 21
680.30710572
 31
0.0
  0
LINE
  5
2F4
330
1E
100
AcDbEntity
  8
0
 62
     4
100
AcDbLine
 10
946.87568412
 20
718.55710572
 30
0.0
 11
946.87568412
 21
681.05710572
 31
0.0
  0
LINE
  5
2F5
330
1E
100
AcDbEntity
  8
0
 62
     4
100
AcDbLine
 10
944.87568412
 20
718.55710572
 30
0.0
 11
948.87568412
 21
718.55710572
 31
0.0
  0
LINE
  5
2F6
330
1E
100
AcDbEntity
  8
0
 62
     4
100
AcDbLine
 10
944.87568412
 20
681.05710572
 30
0.0
 11
948.87568412
 21
681.05710572
 31
0.0
  0
TEXT
  5
2F7
330
1E
100
AcDbEntity
  8
TXT_DIM49
100
AcDbText
 10
885.37568412
 20
721.70226938
 30
0.0
 40
2.5
  1
30
 50
90.00020741
  7
ARIAL
100
AcDbText
  0
LINE
  5
2F8
330
1E
100
AcDbEntity
  8
0
 62
     4
100
AcDbLine
 10
887.87568412
 20
730.05710572
 30
0.0
 11
885.87568412
 21
732.05710572
 31
0.0
  0
LINE
  5
2F9
330
1E
100
AcDbEntity
  8
0
 62
     4
100
AcDbLine
 10
886.12568412
 20
716.80710572
 30
0.0
 11
887.62568412
 21
715.30710572
 31
0.0
  0
LINE
  5
2FA
330
1E
100
AcDbEntity
  8
0
 62
     4
100
AcDbLine
 10
886.87568412
 20
731.05710572
 30
0.0
 11
886.87568412
 21
716.05710572
 31
0.0
  0
LINE
  5
2FB
330
1E
100
AcDbEntity
  8
0
 62
     4
100
AcDbLine
 10
888.87568412
 20
731.05710572
 30
0.0
 11
884.87568412
 21
731.05710572
 31
0.0
  0
LINE
  5
2FC
330
1E
100
AcDbEntity
  8
0
 62
     4
100
AcDbLine
 10
888.87568412
 20
716.05710572
 30
0.0
 11
884.87568412
 21
716.05710572
 31
0.0
  0
TEXT
  5
2FD
330
1E
100
AcDbEntity
  8
TXT_DIM49
100
AcDbText
 10
885.37568412
 20
696.70226938
 30
0.0
 40
2.5
  1
70
 50
90.00020741
  7
ARIAL
100
AcDbText
  0
LINE
  5
2FE
330
1E
100
AcDbEntity
  8
0
 62
     4
100
AcDbLine
 10
887.87568412
 20
715.05710572
 30
0.0
 11
885.87568412
 21
717.05710572
 31
0.0
  0
LINE
  5
2FF
330
1E
100
AcDbEntity
  8
0
 62
     4
100
AcDbLine
 10
886.12568412
 20
681.80710572
 30
0.0
 11
887.62568412
 21
680.30710572
 31
0.0
  0
LINE
  5
300
330
1E
100
AcDbEntity
  8
0
 62
     4
100
AcDbLine
 10
886.87568412
 20
716.05710572
 30
0.0
 11
886.87568412
 21
681.05710572
 31
0.0
  0
LINE
  5
301
330
1E
100
AcDbEntity
  8
0
 62
     4
100
AcDbLine
 10
888.87568412
 20
716.05710572
 30
0.0
 11
884.87568412
 21
716.05710572
 31
0.0
  0
LINE
  5
302
330
1E
100
AcDbEntity
  8
0
 62
     4
100
AcDbLine
 10
888.87568412
 20
681.05710572
 30
0.0
 11
884.87568412
 21
681.05710572
 31
0.0
  0
TEXT
  5
303
330
1E
100
AcDbEntity
  8
TXT_DIM49
100
AcDbText
 10
1182.14424184
 20
699.20226938
 30
0.0
 40
2.5
  1
80
 50
90.00020741
  7
ARIAL
100
AcDbText
  0
LINE
  5
304
330
1E
100
AcDbEntity
  8
0
 62
     4
100
AcDbLine
 10
1182.64424184
 20
682.05710572
 30
0.0
 11
1184.64424184
 21
680.05710572
 31
0.0
  0
LINE
  5
305
330
1E
100
AcDbEntity
  8
0
 62
     4
100
AcDbLine
 10
1184.39424184
 20
720.30710572
 30
0.0
 11
1182.89424184
 21
721.80710572
 31
0.0
  0
LINE
  5
306
330
1E
100
AcDbEntity
  8
0
 62
     4
100
AcDbLine
 10
1183.64424184
 20
681.05710572
 30
0.0
 11
1183.64424184
 21
721.05710572
 31
0.0
  0
LINE
  5
307
330
1E
100
AcDbEntity
  8
0
 62
     4
100
AcDbLine
 10
1185.64424184
 20
681.05710572
 30
0.0
 11
1181.64424184
 21
681.05710572
 31
0.0
  0
LINE
  5
308
330
1E
100
AcDbEntity
  8
0
 62
     4
100
AcDbLine
 10
1185.64424184
 20
721.05710572
 30
0.0
 11
1181.64424184
 21
721.05710572
 31
0.0
  0
TEXT
  5
309
330
1E
100
AcDbEntity
  8
TXT_DIM49
100
AcDbText
 10
1182.14424184
 20
724.20226938
 30
0.0
 40
2.5
  1
20
 50
90.00020741
  7
ARIAL
100
AcDbText
  0
LINE
  5
30A
330
1E
100
AcDbEntity
  8
0
 62
     4
100
AcDbLine
 10
1182.64424184
 20
722.05710572
 30
0.0
 11
1184.64424184
 21
720.05710572
 31
0.0
  0
LINE
  5
30B
330
1E
100
AcDbEntity
  8
0
 62
     4
100
AcDbLine
 10
1184.39424184
 20
730.30710572
 30
0.0
 11
1182.89424184
 21
731.80710572
 31
0.0
  0
LINE
  5
30C
330
1E
100
AcDbEntity
  8
0
 62
     4
100
AcDbLine
 10
1183.64424184
 20
721.05710572
 30
0.0
 11
1183.64424184
 21
731.05710572
 31
0.0
  0
LINE
  5
30D
330
1E
100
AcDbEntity
  8
0
 62
     4
100
AcDbLine
 10
1185.64424184
 20
721.05710572
 30
0.0
 11
1181.64424184
 21
721.05710572
 31
0.0
  0
LINE
  5
30E
330
1E
100
AcDbEntity
  8
0
 62
     4
100
AcDbLine
 10
1185.64424184
 20
731.05710572
 30
0.0
 11
1181.64424184
 21
731.05710572
 31
0.0
  0
TEXT
  5
30F
330
1E
100
AcDbEntity
  8
TXT_DIM49
100
AcDbText
 10
1242.14424184
 20
722.95226938
 30
0.0
 40
2.5
  1
25
 50
90.00020741
  7
ARIAL
100
AcDbText
  0
LINE
  5
310
330
1E
100
AcDbEntity
  8
0
 62
     4
100
AcDbLine
 10
1244.64424184
 20
730.05710572
 30
0.0
 11
1242.64424184
 21
732.05710572
 31
0.0
  0
LINE
  5
311
330
1E
100
AcDbEntity
  8
0
 62
     4
100
AcDbLine
 10
1242.89424184
 20
719.30710572
 30
0.0
 11
1244.39424184
 21
717.80710572
 31
0.0
  0
LINE
  5
312
330
1E
100
AcDbEntity
  8
0
 62
     4
100
AcDbLine
 10
1243.64424184
 20
731.05710572
 30
0.0
 11
1243.64424184
 21
718.55710572
 31
0.0
  0
LINE
  5
313
330
1E
100
AcDbEntity
  8
0
 62
     4
100
AcDbLine
 10
1241.64424184
 20
731.05710572
 30
0.0
 11
1245.64424184
 21
731.05710572
 31
0.0
  0
LINE
  5
314
330
1E
100
AcDbEntity
  8
0
 62
     4
100
AcDbLine
 10
1241.64424184
 20
718.55710572
 30
0.0
 11
1245.64424184
 21
718.55710572
 31
0.0
  0
TEXT
  5
315
330
1E
100
AcDbEntity
  8
TXT_DIM49
100
AcDbText
 10
1242.14424184
 20
697.95226938
 30
0.0
 40
2.5
  1
75
 50
90.00020741
  7
ARIAL
100
AcDbText
  0
LINE
  5
316
330
1E
100
AcDbEntity
  8
0
 62
     4
100
AcDbLine
 10
1244.64424184
 20
717.55710572
 30
0.0
 11
1242.64424184
 21
719.55710572
 31
0.0
  0
LINE
  5
317
330
1E
100
AcDbEntity
  8
0
 62
     4
100
AcDbLine
 10
1242.89424184
 20
681.80710572
 30
0.0
 11
1244.39424184
 21
680.30710572
 31
0.0
  0
LINE
  5
318
330
1E
100
AcDbEntity
  8
0
 62
     4
100
AcDbLine
 10
1243.64424184
 20
718.55710572
 30
0.0
 11
1243.64424184
 21
681.05710572
 31
0.0
  0
LINE
  5
319
330
1E
100
AcDbEntity
  8
0
 62
     4
100
AcDbLine
 10
1241.64424184
 20
718.55710572
 30
0.0
 11
1245.64424184
 21
718.55710572
 31
0.0
  0
LINE
  5
31A
330
1E
100
AcDbEntity
  8
0
 62
     4
100
AcDbLine
 10
1241.64424184
 20
681.05710572
 30
0.0
 11
1245.64424184
 21
681.05710572
 31
0.0
  0
TEXT
  5
31B
330
1E
100
AcDbEntity
  8
TXT_DIM49
100
AcDbText
 10
1195.53308318
 20
737.34146758
 30
0.0
 40
2.5
  1
15
  7
ARIAL
100
AcDbText
  0
LINE
  5
31C
330
1E
100
AcDbEntity
  8
0
 62
     4
100
AcDbLine
 10
1194.63791953
 20
736.84146758
 30
0.0
 11
1192.63791953
 21
734.84146758
 31
0.0
  0
LINE
  5
31D
330
1E
100
AcDbEntity
  8
0
 62
     4
100
AcDbLine
 10
1200.38791953
 20
735.09146758
 30
0.0
 11
1201.88791953
 21
736.59146758
 31
0.0
  0
LINE
  5
31E
330
1E
100
AcDbEntity
  8
0
 62
     4
100
AcDbLine
 10
1193.63791953
 20
735.84146758
 30
0.0
 11
1201.13791953
 21
735.84146758
 31
0.0
  0
LINE
  5
31F
330
1E
100
AcDbEntity
  8
0
 62
     4
100
AcDbLine
 10
1193.63791953
 20
733.84146758
 30
0.0
 11
1193.63791953
 21
737.84146758
 31
0.0
  0
LINE
  5
320
330
1E
100
AcDbEntity
  8
0
 62
     4
100
AcDbLine
 10
1201.13791953
 20
733.84146758
 30
0.0
 11
1201.13791953
 21
737.84146758
 31
0.0
  0
TEXT
  5
321
330
1E
100
AcDbEntity
  8
TXT_DIM49
100
AcDbText
 10
1205.53308318
 20
737.34146758
 30
0.0
 40
2.5
  1
25
  7
ARIAL
100
AcDbText
  0
LINE
  5
322
330
1E
100
AcDbEntity
  8
0
 62
     4
100
AcDbLine
 10
1202.13791953
 20
736.84146758
 30
0.0
 11
1200.13791953
 21
734.84146758
 31
0.0
  0
LINE
  5
323
330
1E
100
AcDbEntity
  8
0
 62
     4
100
AcDbLine
 10
1212.88791953
 20
735.09146758
 30
0.0
 11
1214.38791953
 21
736.59146758
 31
0.0
  0
LINE
  5
324
330
1E
100
AcDbEntity
  8
0
 62
     4
100
AcDbLine
 10
1201.13791953
 20
735.84146758
 30
0.0
 11
1213.63791953
 21
735.84146758
 31
0.0
  0
LINE
  5
325
330
1E
100
AcDbEntity
  8
0
 62
     4
100
AcDbLine
 10
1201.13791953
 20
733.84146758
 30
0.0
 11
1201.13791953
 21
737.84146758
 31
0.0
  0
LINE
  5
326
330
1E
100
AcDbEntity
  8
0
 62
     4
100
AcDbLine
 10
1213.63791953
 20
733.84146758
 30
0.0
 11
1213.63791953
 21
737.84146758
 31
0.0
  0
TEXT
  5
327
330
1E
100
AcDbEntity
  8
TXT_DIM49
100
AcDbText
 10
1221.78308318
 20
737.34146758
 30
0.0
 40
2.5
  1
40
  7
ARIAL
100
AcDbText
  0
LINE
  5
328
330
1E
100
AcDbEntity
  8
0
 62
     4
100
AcDbLine
 10
1214.63791953
 20
736.84146758
 30
0.0
 11
1212.63791953
 21
734.84146758
 31
0.0
  0
LINE
  5
329
330
1E
100
AcDbEntity
  8
0
 62
     4
100
AcDbLine
 10
1232.88791953
 20
735.09146758
 30
0.0
 11
1234.38791953
 21
736.59146758
 31
0.0
  0
LINE
  5
32A
330
1E
100
AcDbEntity
  8
0
 62
     4
100
AcDbLine
 10
1213.63791953
 20
735.84146758
 30
0.0
 11
1233.63791953
 21
735.84146758
 31
0.0
  0
LINE
  5
32B
330
1E
100
AcDbEntity
  8
0
 62
     4
100
AcDbLine
 10
1213.63791953
 20
733.84146758
 30
0.0
 11
1213.63791953
 21
737.84146758
 31
0.0
  0
LINE
  5
32C
330
1E
100
AcDbEntity
  8
0
 62
     4
100
AcDbLine
 10
1233.63791953
 20
733.84146758
 30
0.0
 11
1233.63791953
 21
737.84146758
 31
0.0
  0
LINE
  5
32D
330
1E
100
AcDbEntity
  8
0
 62
     5
100
AcDbLine
 10
1213.63791953
 20
718.55710572
 30
0.0
 11
1217.10169805
 21
708.93738329
 31
0.0
  0
TEXT
  5
32E
330
1E
100
AcDbEntity
  8
TXT_DIM49
100
AcDbText
 10
1217.10169805
 20
707.68738329
 30
0.0
 40
2.5
  1
Ø12
  7
ARIAL
 11
1217.10169805
 21
708.93738329
 31
0.0
100
AcDbText
 73
     2
  0
LINE
  5
32F
330
1E
100
AcDbEntity
  8
0
 62
     5
100
AcDbLine
 10
1201.13791953
 20
721.05710572
 30
0.0
 11
1205.38017557
 21
710.8122768
 31
0.0
  0
TEXT
  5
330
330
1E
100
AcDbEntity
  8
TXT_DIM49
100
AcDbText
 10
1205.38017557
 20
709.5622768
 30
0.0
 40
2.5
  1
Ø10
  7
ARIAL
 11
1205.38017557
 21
710.8122768
 31
0.0
100
AcDbText
 73
     2
  0
POINT
  5
331
330
1E
100
AcDbEntity
  8
0
100
AcDbPoint
 10
1070.05671858
 20
654.94118062
 30
0.0
  0
POINT
  5
332
330
1E
100
AcDbEntity
  8
0
 62
     3
100
AcDbPoint
 10
1208.7260859
 20
484.60386268
 30
0.0
  0
POINT
  5
333
330
1E
100
AcDbEntity
  8
0
 62
     3
100
AcDbPoint
 10
1274.5904996
 20
502.52285758
 30
0.0
  0
POINT
  5
334
330
1E
100
AcDbEntity
  8
0
 62
     3
100
AcDbPoint
 10
1208.7260859
 20
502.52285758
 30
0.0
  0
POINT
  5
335
330
1E
100
AcDbEntity
  8
0
 62
     3
100
AcDbPoint
 10
1274.5904996
 20
484.60386268
 30
0.0
  0
POINT
  5
336
330
1E
100
AcDbEntity
  8
0
 62
     3
100
AcDbPoint
 10
1256.89914466
 20
478.92118062
 30
0.0
  0
POINT
  5
337
330
1E
100
AcDbEntity
  8
0
 62
     3
100
AcDbPoint
 10
1274.59117662
 20
483.73445402
 30
0.0
  0
POINT
  5
338
330
1E
100
AcDbEntity
  8
0
 62
     3
100
AcDbPoint
 10
1256.89914466
 20
483.73445402
 30
0.0
  0
POINT
  5
339
330
1E
100
AcDbEntity
  8
0
 62
     3
100
AcDbPoint
 10
1274.59117662
 20
478.92118062
 30
0.0
  0
ENDSEC
  0
SECTION
  2
OBJECTS
  0
DICTIONARY
  5
C
330
0
100
AcDbDictionary
281
     1
  3
ACAD_DETAILVIEWSTYLE
350
3D8
  3
ACAD_GROUP
350
D
  3
ACAD_LAYOUT
350
19
  3
ACAD_MATERIAL
350
38B
  3
ACAD_MLEADERSTYLE
350
391
  3
ACAD_MLINESTYLE
350
16
  3
ACAD_PLOTSETTINGS
350
35D
  3
ACAD_PLOTSTYLENAME
350
35E
  3
ACAD_SCALELIST
350
360
  3
ACAD_SECTIONVIEWSTYLE
350
3D9
  3
ACAD_TABLESTYLE
350
38F
  3
ACAD_VISUALSTYLE
350
372
  3
ACDB_RECOMPOSE_DATA
350
3D4
  3
AcDbVariableDictionary
350
395
  0
DICTIONARY
  5
393
330
1
100
AcDbDictionary
280
     1
281
     1
  3
ACAD_XREC_ROUNDTRIP
360
394
  0
DICTIONARY
  5
3D8
102
{ACAD_REACTORS
330
C
102
}
330
C
100
AcDbDictionary
281
     1
  0
DICTIONARY
  5
D
330
C
100
AcDbDictionary
281
     1
  0
DICTIONARY
  5
19
330
C
100
AcDbDictionary
281
     1
  3
Layout1
350
1D
  3
Model
350
21
  0
DICTIONARY
  5
38B
102
{ACAD_REACTORS
330
C
102
}
330
C
100
AcDbDictionary
281
     1
  3
ByBlock
350
38D
  3
ByLayer
350
38C
  3
Global
350
38E
  0
DICTIONARY
  5
391
102
{ACAD_REACTORS
330
C
102
}
330
C
100
AcDbDictionary
281
     1
  3
Standard
350
392
  0
DICTIONARY
  5
16
330
C
100
AcDbDictionary
281
     1
  3
Standard
350
17
  0
DICTIONARY
  5
35D
102
{ACAD_REACTORS
330
C
102
}
330
C
100
AcDbDictionary
281
     1
  0
ACDBDICTIONARYWDFLT
  5
35E
102
{ACAD_REACTORS
330
C
102
}
330
C
100
AcDbDictionary
281
     1
  3
Normal
350
35F
100
AcDbDictionaryWithDefault
340
35F
  0
DICTIONARY
  5
360
102
{ACAD_REACTORS
330
C
102
}
330
C
100
AcDbDictionary
281
     1
  3
A0
350
361
  3
A1
350
362
  3
A2
350
363
  3
A3
350
364
  3
A4
350
365
  3
A5
350
366
  3
A6
350
367
  3
A7
350
368
  3
A8
350
369
  3
A9
350
36A
  3
B0
350
36B
  3
B1
350
36C
  3
B2
350
36D
  3
B3
350
36E
  3
B4
350
36F
  3
B5
350
370
  3
B6
350
371
  0
DICTIONARY
  5
3D9
102
{ACAD_REACTORS
330
C
102
}
330
C
100
AcDbDictionary
281
     1
  0
DICTIONARY
  5
38F
102
{ACAD_REACTORS
330
C
102
}
330
C
100
AcDbDictionary
281
     1
  3
Standard
350
390
  0
DICTIONARY
  5
372
102
{ACAD_REACTORS
330
C
102
}
330
C
100
AcDbDictionary
281
     1
  3
2dWireframe
350
377
  3
Basic
350
37A
  3
Brighten
350
37E
  3
ColorChange
350
382
  3
Conceptual
350
37C
  3
Dim
350
37D
  3
EdgeColorOff
350
385
  3
Facepattern
350
381
  3
Flat
350
373
  3
FlatWithEdges
350
374
  3
Gouraud
350
375
  3
GouraudWithEdges
350
376
  3
Hidden
350
379
  3
JitterOff
350
383
  3
Linepattern
350
380
  3
OverhangOff
350
384
  3
Realistic
350
37B
  3
Shaded
350
38A
  3
Shaded with edges
350
389
  3
Shades of Gray
350
386
  3
Sketchy
350
387
  3
Thicken
350
37F
  3
Wireframe
350
378
  3
X-Ray
350
388
  0
XRECORD
  5
3D4
102
{ACAD_REACTORS
330
C
102
}
330
C
100
AcDbXrecord
280
     1
 90
        1
330
390
  0
DICTIONARY
  5
395
102
{ACAD_REACTORS
330
C
102
}
330
C
100
AcDbDictionary
281
     1
  3
CANNOSCALE
350
396
  3
CMLEADERSTYLE
350
3D6
  3
CTABLESTYLE
350
3D5
  3
MSLTSCALE
350
3D7
  3
XCLIPFRAME
350
397
  0
XRECORD
  5
394
102
{ACAD_REACTORS
330
393
102
}
330
393
100
AcDbXrecord
280
     1
102
VTR_0.000_0.000_1.000_1.000_VISUALSTYLE
340
377
102
VTR_0.000_0.000_1.000_1.000_GRIDDISPLAY
 70
     3
102
VTR_0.000_0.000_1.000_1.000_GRIDMAJOR
 70
     5
102
VTR_0.000_0.000_1.000_1.000_DEFAULTLIGHTING
280
     1
102
VTR_0.000_0.000_1.000_1.000_DEFAULTLIGHTINGTYPE
 70
     1
102
VTR_0.000_0.000_1.000_1.000_BRIGHTNESS
141
0.0
102
VTR_0.000_0.000_1.000_1.000_CONTRAST
142
0.0
  0
LAYOUT
  5
1D
330
19
100
AcDbPlotSettings
  1

  2
C:\Programme\MDT\plotters\DWF Classic.pc3
  4

  6

 40
0.0
 41
0.0
 42
0.0
 43
0.0
 44
0.0
 45
0.0
 46
0.0
 47
0.0
 48
0.0
 49
0.0
140
0.0
141
0.0
142
1.0
143
1.0
 70
   688
 72
     0
 73
     0
 74
     5
  7

 75
    16
 76
     0
 77
     2
 78
   300
147
1.0
148
0.0
149
0.0
100
AcDbLayout
  1
Layout1
 70
     1
 71
     1
 10
0.0
 20
0.0
 11
12.0
 21
9.0
 12
0.0
 22
0.0
 32
0.0
 14
1.000000000000000E+20
 24
1.000000000000000E+20
 34
1.000000000000000E+20
 15
-1.000000000000000E+20
 25
-1.000000000000000E+20
 35
-1.000000000000000E+20
146
0.0
 13
0.0
 23
0.0
 33
0.0
 16
1.0
 26
0.0
 36
0.0
 17
0.0
 27
1.0
 37
0.0
 76
     0
330
1A
  0
LAYOUT
  5
21
330
19
100
AcDbPlotSettings
  1

  2
C:\Programme\MDT\plotters\DWF Classic.pc3
  4

  6

 40
0.0
 41
0.0
 42
0.0
 43
0.0
 44
0.0
 45
0.0
 46
0.0
 47
0.0
 48
0.0
 49
0.0
140
0.0
141
0.0
142
1.0
143
1.0
 70
  1712
 72
     0
 73
     0
 74
     0
  7

 75
     0
 76
     0
 77
     2
 78
   300
147
1.0
148
0.0
149
0.0
100
AcDbLayout
  1
Model
 70
     1
 71
     0
 10
0.0
 20
0.0
 11
12.0
 21
9.0
 12
0.0
 22
0.0
 32
0.0
 14
0.0
 24
0.0
 34
0.0
 15
0.0
 25
0.0
 35
0.0
146
0.0
 13
0.0
 23
0.0
 33
0.0
 16
1.0
 26
0.0
 36
0.0
 17
0.0
 27
1.0
 37
0.0
 76
     0
330
1E
331
2
  0
MATERIAL
  5
38D
102
{ACAD_REACTORS
330
38B
102
}
102
{ACAD_XDICTIONARY
360
3CA
102
}
330
38B
100
AcDbMaterial
  1
ByBlock
  0
MATERIAL
  5
38C
102
{ACAD_REACTORS
330
38B
102
}
102
{ACAD_XDICTIONARY
360
3C8
102
}
330
38B
100
AcDbMaterial
  1
ByLayer
  0
MATERIAL
  5
38E
102
{ACAD_REACTORS
330
38B
102
}
102
{ACAD_XDICTIONARY
360
3CC
102
}
330
38B
100
AcDbMaterial
  1
Global
  0
MLEADERSTYLE
  5
392
102
{ACAD_REACTORS
330
391
102
}
102
{ACAD_XDICTIONARY
360
3D2
102
}
330
391
100
AcDbMLeaderStyle
170
     2
171
     1
172
     0
 90
        2
 40
0.0
 41
0.0
173
     1
 91
-1056964608
340
4
 92
       -2
290
     1
 42
2.0
291
     1
 43
8.0
  3
Standard
341
0
 44
4.0
300

342
15D
174
     1
178
     6
175
     1
176
     0
 93
-1056964608
 45
4.0
292
     0
297
     0
 46
4.0
343
0
 94
-1056964608
 47
1.0
 49
1.0
140
1.0
293
     1
141
0.0
294
     1
177
     0
142
1.0
295
     0
296
     0
143
3.75
1001
ACAD_MLEADERVER
1070
     2
  0
MLINESTYLE
  5
17
330
16
100
AcDbMlineStyle
  2
STANDARD
 70
     0
  3

 62
   256
 51
90.0
 52
90.0
 71
     2
 49
0.5
 62
   256
  6
BYLAYER
 49
-0.5
 62
   256
  6
BYLAYER
  0
ACDBPLACEHOLDER
  5
35F
102
{ACAD_REACTORS
330
35E
102
}
330
35E
  0
SCALE
  5
361
102
{ACAD_REACTORS
330
360
102
}
330
360
100
AcDbScale
 70
     0
300
1:1
140
1.0
141
1.0
290
     1
  0
SCALE
  5
362
102
{ACAD_REACTORS
330
360
102
}
330
360
100
AcDbScale
 70
     0
300
1:2
140
1.0
141
2.0
290
     0
  0
SCALE
  5
363
102
{ACAD_REACTORS
330
360
102
}
330
360
100
AcDbScale
 70
     0
300
1:4
140
1.0
141
4.0
290
     0
  0
SCALE
  5
364
102
{ACAD_REACTORS
330
360
102
}
330
360
100
AcDbScale
 70
     0
300
1:5
140
1.0
141
5.0
290
     0
  0
SCALE
  5
365
102
{ACAD_REACTORS
330
360
102
}
330
360
100
AcDbScale
 70
     0
300
1:8
140
1.0
141
8.0
290
     0
  0
SCALE
  5
366
102
{ACAD_REACTORS
330
360
102
}
330
360
100
AcDbScale
 70
     0
300
1:10
140
1.0
141
10.0
290
     0
  0
SCALE
  5
367
102
{ACAD_REACTORS
330
360
102
}
330
360
100
AcDbScale
 70
     0
300
1:16
140
1.0
141
16.0
290
     0
  0
SCALE
  5
368
102
{ACAD_REACTORS
330
360
102
}
330
360
100
AcDbScale
 70
     0
300
1:20
140
1.0
141
20.0
290
     0
  0
SCALE
  5
369
102
{ACAD_REACTORS
330
360
102
}
330
360
100
AcDbScale
 70
     0
300
1:30
140
1.0
141
30.0
290
     0
  0
SCALE
  5
36A
102
{ACAD_REACTORS
330
360
102
}
330
360
100
AcDbScale
 70
     0
300
1:40
140
1.0
141
40.0
290
     0
  0
SCALE
  5
36B
102
{ACAD_REACTORS
330
360
102
}
330
360
100
AcDbScale
 70
     0
300
1:50
140
1.0
141
50.0
290
     0
  0
SCALE
  5
36C
102
{ACAD_REACTORS
330
360
102
}
330
360
100
AcDbScale
 70
     0
300
1:100
140
1.0
141
100.0
290
     0
  0
SCALE
  5
36D
102
{ACAD_REACTORS
330
360
102
}
330
360
100
AcDbScale
 70
     0
300
2:1
140
2.0
141
1.0
290
     0
  0
SCALE
  5
36E
102
{ACAD_REACTORS
330
360
102
}
330
360
100
AcDbScale
 70
     0
300
4:1
140
4.0
141
1.0
290
     0
  0
SCALE
  5
36F
102
{ACAD_REACTORS
330
360
102
}
330
360
100
AcDbScale
 70
     0
300
8:1
140
8.0
141
1.0
290
     0
  0
SCALE
  5
370
102
{ACAD_REACTORS
330
360
102
}
330
360
100
AcDbScale
 70
     0
300
10:1
140
10.0
141
1.0
290
     0
  0
SCALE
  5
371
102
{ACAD_REACTORS
330
360
102
}
330
360
100
AcDbScale
 70
     0
300
100:1
140
100.0
141
1.0
290
     0
  0
TABLESTYLE
  5
390
102
{ACAD_REACTORS
330
38F
102
}
102
{ACAD_XDICTIONARY
360
3CE
102
}
330
38F
100
AcDbTableStyle
  3
Standard
 70
     0
 71
     0
 40
0.06
 41
0.06
280
     0
281
     0
  7
MONOTXT
140
4.5
170
     2
 62
     0
 63
   257
283
     0
274
    -2
284
     1
 64
     0
275
    -2
285
     1
 65
     0
276
    -2
286
     1
 66
     0
277
    -2
287
     1
 67
     0
278
    -2
288
     1
 68
     0
279
    -2
289
     1
 69
     0
  7
MONOTXT
140
6.0
170
     5
 62
     0
 63
   257
283
     0
274
    -2
284
     1
 64
     0
275
    -2
285
     1
 65
     0
276
    -2
286
     1
 66
     0
277
    -2
287
     1
 67
     0
278
    -2
288
     1
 68
     0
279
    -2
289
     1
 69
     0
  7
MONOTXT
140
4.5
170
     5
 62
     0
 63
   257
283
     0
274
    -2
284
     1
 64
     0
275
    -2
285
     1
 65
     0
276
    -2
286
     1
 66
     0
277
    -2
287
     1
 67
     0
278
    -2
288
     1
 68
     0
279
    -2
289
     1
 69
     0
  0
VISUALSTYLE
  5
377
102
{ACAD_REACTORS
330
372
102
}
102
{ACAD_XDICTIONARY
360
3A0
102
}
330
372
100
AcDbVisualStyle
  2
2dWireframe
 70
     4
 71
     0
 72
     2
 73
     0
 90
        0
 40
0.6
 41
30.0
 62
     5
 63
     7
421
 16777215
 74
     1
 91
        4
 64
     7
 65
   257
 75
     1
175
     1
 42
1.0
 92
        0
 66
   257
 43
1.0
 76
     1
 77
     6
 78
     2
 67
     7
 79
     5
170
     0
171
     0
290
     0
174
     0
 93
        1
 44
0.0
173
     0
291
     0
 45
0.0
1001
ACAD
1000
AcDbSavedByObjectVersion
1070
     0
  0
VISUALSTYLE
  5
37A
102
{ACAD_REACTORS
330
372
102
}
102
{ACAD_XDICTIONARY
360
3A6
102
}
330
372
100
AcDbVisualStyle
  2
Basic
 70
     7
 71
     1
 72
     0
 73
     1
 90
        0
 40
0.6
 41
30.0
 62
     5
 63
     7
421
 16777215
 74
     0
 91
        4
 64
     7
 65
   257
 75
     1
175
     1
 42
1.0
 92
        8
 66
     7
 43
1.0
 76
     1
 77
     6
 78
     2
 67
     7
 79
     5
170
     0
171
     0
290
     0
174
     0
 93
        1
 44
0.0
173
     0
291
     1
 45
0.0
1001
ACAD
1000
AcDbSavedByObjectVersion
1070
     0
  0
VISUALSTYLE
  5
37E
102
{ACAD_REACTORS
330
372
102
}
102
{ACAD_XDICTIONARY
360
3AE
102
}
330
372
100
AcDbVisualStyle
  2
Brighten
 70
    12
 71
     2
 72
     2
 73
     0
 90
        0
 40
0.6
 41
30.0
 62
     5
 63
     7
421
 16777215
 74
     1
 91
        4
 64
     7
 65
   257
 75
     1
175
     1
 42
1.0
 92
        8
 66
     7
 43
1.0
 76
     1
 77
     6
 78
     2
 67
     7
 79
     5
170
     0
171
     0
290
     0
174
     0
 93
        1
 44
50.0
173
     0
291
     1
 45
0.0
1001
ACAD
1000
AcDbSavedByObjectVersion
1070
     0
  0
VISUALSTYLE
  5
382
102
{ACAD_REACTORS
330
372
102
}
102
{ACAD_XDICTIONARY
360
3B6
102
}
330
372
100
AcDbVisualStyle
  2
ColorChange
 70
    16
 71
     2
 72
     2
 73
     3
 90
        0
 40
0.6
 41
30.0
 62
     5
 63
     8
421
  8421504
 74
     1
 91
        4
 64
     7
 65
   257
 75
     1
175
     1
 42
1.0
 92
        8
 66
     8
424
  8421504
 43
1.0
 76
     1
 77
     6
 78
     2
 67
     7
 79
     5
170
     0
171
     0
290
     0
174
     0
 93
        1
 44
0.0
173
     0
291
     1
 45
0.0
1001
ACAD
1000
AcDbSavedByObjectVersion
1070
     0
  0
VISUALSTYLE
  5
37C
102
{ACAD_REACTORS
330
372
102
}
102
{ACAD_XDICTIONARY
360
3AA
102
}
330
372
100
AcDbVisualStyle
  2
Conceptual
 70
     9
 71
     3
 72
     2
 73
     0
 90
        0
 40
0.6
 41
30.0
 62
     5
 63
     7
421
 16777215
 74
     2
 91
        2
 64
     7
 65
   257
 75
     1
175
     1
 42
179.0
 92
        8
 66
     7
 43
1.0
 76
     1
 77
     6
 78
     2
 67
     7
 79
     3
170
     0
171
     0
290
     0
174
     0
 93
        1
 44
0.0
173
     0
291
     0
 45
0.0
1001
ACAD
1000
AcDbSavedByObjectVersion
1070
     0
  0
VISUALSTYLE
  5
37D
102
{ACAD_REACTORS
330
372
102
}
102
{ACAD_XDICTIONARY
360
3AC
102
}
330
372
100
AcDbVisualStyle
  2
Dim
 70
    11
 71
     2
 72
     2
 73
     0
 90
        0
 40
0.6
 41
30.0
 62
     5
 63
     7
421
 16777215
 74
     1
 91
        4
 64
     7
 65
   257
 75
     1
175
     1
 42
1.0
 92
        8
 66
     7
 43
1.0
 76
     1
 77
     6
 78
     2
 67
     7
 79
     5
170
     0
171
     0
290
     0
174
     0
 93
        1
 44
-50.0
173
     0
291
     1
 45
0.0
1001
ACAD
1000
AcDbSavedByObjectVersion
1070
     0
  0
VISUALSTYLE
  5
385
102
{ACAD_REACTORS
330
372
102
}
102
{ACAD_XDICTIONARY
360
3BC
102
}
330
372
100
AcDbVisualStyle
  2
EdgeColorOff
 70
    22
 71
     2
 72
     2
 73
     0
 90
        0
 40
0.6
 41
30.0
 62
     5
 63
     7
421
 16777215
 74
     1
 91
        4
 64
     7
 65
   257
 75
     1
175
     1
 42
1.0
 92
        8
 66
     7
 43
1.0
 76
     1
 77
     6
 78
     2
 67
     7
 79
     5
170
     0
171
     0
290
     0
174
     0
 93
        1
 44
0.0
173
     0
291
     1
 45
0.0
1001
ACAD
1000
AcDbSavedByObjectVersion
1070
     0
  0
VISUALSTYLE
  5
381
102
{ACAD_REACTORS
330
372
102
}
102
{ACAD_XDICTIONARY
360
3B4
102
}
330
372
100
AcDbVisualStyle
  2
Facepattern
 70
    15
 71
     2
 72
     2
 73
     0
 90
        0
 40
0.6
 41
30.0
 62
     5
 63
     7
421
 16777215
 74
     1
 91
        4
 64
     7
 65
   257
 75
     1
175
     1
 42
1.0
 92
        8
 66
     7
 43
1.0
 76
     1
 77
     6
 78
     2
 67
     7
 79
     5
170
     0
171
     0
290
     0
174
     0
 93
        1
 44
0.0
173
     0
291
     1
 45
0.0
1001
ACAD
1000
AcDbSavedByObjectVersion
1070
     0
  0
VISUALSTYLE
  5
373
102
{ACAD_REACTORS
330
372
102
}
102
{ACAD_XDICTIONARY
360
398
102
}
330
372
100
AcDbVisualStyle
  2
Flat
 70
     0
 71
     2
 72
     1
 73
     1
 90
        2
 40
0.6
 41
30.0
 62
     5
 63
     7
421
 16777215
 74
     0
 91
        0
 64
     7
 65
   257
 75
     1
175
     1
 42
1.0
 92
        8
 66
     7
 43
1.0
 76
     1
 77
     6
 78
     2
 67
     7
 79
     5
170
     0
171
     0
290
     0
174
     0
 93
       13
 44
0.0
173
     0
291
     1
 45
0.0
1001
ACAD
1000
AcDbSavedByObjectVersion
1070
     0
  0
VISUALSTYLE
  5
374
102
{ACAD_REACTORS
330
372
102
}
102
{ACAD_XDICTIONARY
360
39A
102
}
330
372
100
AcDbVisualStyle
  2
FlatWithEdges
 70
     1
 71
     2
 72
     1
 73
     1
 90
        2
 40
0.6
 41
30.0
 62
     5
 63
     7
421
 16777215
 74
     1
 91
        0
 64
     7
 65
   257
 75
     1
175
     1
 42
1.0
 92
        0
 66
   257
 43
1.0
 76
     1
 77
     6
 78
     2
 67
     7
 79
     5
170
     0
171
     0
290
     0
174
     0
 93
       13
 44
0.0
173
     0
291
     1
 45
0.0
1001
ACAD
1000
AcDbSavedByObjectVersion
1070
     0
  0
VISUALSTYLE
  5
375
102
{ACAD_REACTORS
330
372
102
}
102
{ACAD_XDICTIONARY
360
39C
102
}
330
372
100
AcDbVisualStyle
  2
Gouraud
 70
     2
 71
     2
 72
     2
 73
     1
 90
        2
 40
0.6
 41
30.0
 62
     5
 63
     7
421
 16777215
 74
     0
 91
        0
 64
     7
 65
   257
 75
     1
175
     1
 42
1.0
 92
        0
 66
     7
 43
1.0
 76
     1
 77
     6
 78
     2
 67
     7
 79
     5
170
     0
171
     0
290
     0
174
     0
 93
       13
 44
0.0
173
     0
291
     1
 45
0.0
1001
ACAD
1000
AcDbSavedByObjectVersion
1070
     0
  0
VISUALSTYLE
  5
376
102
{ACAD_REACTORS
330
372
102
}
102
{ACAD_XDICTIONARY
360
39E
102
}
330
372
100
AcDbVisualStyle
  2
GouraudWithEdges
 70
     3
 71
     2
 72
     2
 73
     1
 90
        2
 40
0.6
 41
30.0
 62
     5
 63
     7
421
 16777215
 74
     1
 91
        0
 64
     7
 65
   257
 75
     1
175
     1
 42
1.0
 92
        0
 66
   257
 43
1.0
 76
     1
 77
     6
 78
     2
 67
     7
 79
     5
170
     0
171
     0
290
     0
174
     0
 93
       13
 44
0.0
173
     0
291
     1
 45
0.0
1001
ACAD
1000
AcDbSavedByObjectVersion
1070
     0
  0
VISUALSTYLE
  5
379
102
{ACAD_REACTORS
330
372
102
}
102
{ACAD_XDICTIONARY
360
3A4
102
}
330
372
100
AcDbVisualStyle
  2
Hidden
 70
     6
 71
     1
 72
     2
 73
     2
 90
        0
 40
0.6
 41
30.0
 62
     5
 63
     7
421
 16777215
 74
     2
 91
        2
 64
     7
 65
   257
 75
     2
175
     1
 42
40.0
 92
        0
 66
   257
 43
1.0
 76
     1
 77
     6
 78
     2
 67
     7
 79
     3
170
     0
171
     0
290
     0
174
     0
 93
        1
 44
0.0
173
     0
291
     0
 45
0.0
1001
ACAD
1000
AcDbSavedByObjectVersion
1070
     0
  0
VISUALSTYLE
  5
383
102
{ACAD_REACTORS
330
372
102
}
102
{ACAD_XDICTIONARY
360
3B8
102
}
330
372
100
AcDbVisualStyle
  2
JitterOff
 70
    20
 71
     2
 72
     2
 73
     0
 90
        0
 40
0.6
 41
30.0
 62
     5
 63
     7
421
 16777215
 74
     1
 91
        4
 64
     7
 65
   257
 75
     1
175
     1
 42
1.0
 92
       10
 66
     7
 43
1.0
 76
     1
 77
     6
 78
     2
 67
     7
 79
     5
170
     0
171
     0
290
     0
174
     0
 93
        1
 44
0.0
173
     0
291
     1
 45
0.0
1001
ACAD
1000
AcDbSavedByObjectVersion
1070
     0
  0
VISUALSTYLE
  5
380
102
{ACAD_REACTORS
330
372
102
}
102
{ACAD_XDICTIONARY
360
3B2
102
}
330
372
100
AcDbVisualStyle
  2
Linepattern
 70
    14
 71
     2
 72
     2
 73
     0
 90
        0
 40
0.6
 41
30.0
 62
     5
 63
     7
421
 16777215
 74
     1
 91
        4
 64
     7
 65
   257
 75
     7
175
     7
 42
1.0
 92
        8
 66
     7
 43
1.0
 76
     1
 77
     6
 78
     2
 67
     7
 79
     5
170
     0
171
     0
290
     0
174
     0
 93
        1
 44
0.0
173
     0
291
     1
 45
0.0
1001
ACAD
1000
AcDbSavedByObjectVersion
1070
     0
  0
VISUALSTYLE
  5
384
102
{ACAD_REACTORS
330
372
102
}
102
{ACAD_XDICTIONARY
360
3BA
102
}
330
372
100
AcDbVisualStyle
  2
OverhangOff
 70
    21
 71
     2
 72
     2
 73
     0
 90
        0
 40
0.6
 41
30.0
 62
     5
 63
     7
421
 16777215
 74
     1
 91
        4
 64
     7
 65
   257
 75
     1
175
     1
 42
1.0
 92
        9
 66
     7
 43
1.0
 76
     1
 77
     6
 78
     2
 67
     7
 79
     5
170
     0
171
     0
290
     0
174
     0
 93
        1
 44
0.0
173
     0
291
     1
 45
0.0
1001
ACAD
1000
AcDbSavedByObjectVersion
1070
     0
  0
VISUALSTYLE
  5
37B
102
{ACAD_REACTORS
330
372
102
}
102
{ACAD_XDICTIONARY
360
3A8
102
}
330
372
100
AcDbVisualStyle
  2
Realistic
 70
     8
 71
     2
 72
     3
 73
     0
 90
        2
 40
0.6
 41
30.0
 62
     5
 63
     7
421
 16777215
 74
     0
 91
        0
 64
     7
 65
   257
 75
     1
175
     1
 42
1.0
 92
        8
 66
   257
 43
1.0
 76
     1
 77
     6
 78
     2
 67
     7
 79
     3
170
     0
171
     0
290
     0
174
     0
 93
       13
 44
0.0
173
     0
291
     0
 45
0.0
1001
ACAD
1000
AcDbSavedByObjectVersion
1070
     0
  0
VISUALSTYLE
  5
38A
102
{ACAD_REACTORS
330
372
102
}
102
{ACAD_XDICTIONARY
360
3C6
102
}
330
372
100
AcDbVisualStyle
  2
Shaded
 70
    27
 71
     2
 72
     2
 73
     1
 90
        2
 40
0.6
 41
30.0
 62
     5
 63
     7
421
 16777215
 74
     0
 91
        4
 64
     7
 65
   257
 75
     1
175
     1
 42
1.0
 92
        8
 66
   257
 43
1.0
 76
     1
 77
     6
 78
     2
 67
     8
425
  7895160
 79
     3
170
     0
171
     0
290
     0
174
     0
 93
        5
 44
0.0
173
     0
291
     0
 45
0.0
1001
ACAD
1000
AcDbSavedByObjectVersion
1070
     0
  0
VISUALSTYLE
  5
389
102
{ACAD_REACTORS
330
372
102
}
102
{ACAD_XDICTIONARY
360
3C4
102
}
330
372
100
AcDbVisualStyle
  2
Shaded with edges
 70
    26
 71
     2
 72
     2
 73
     1
 90
        2
 40
0.6
 41
30.0
 62
     5
 63
     7
421
 16777215
 74
     1
 91
       10
 64
     7
 65
   257
 75
     2
175
     1
 42
1.0
 92
        8
 66
   257
 43
1.0
 76
     1
 77
     6
 78
     2
 67
     7
 79
     3
170
     0
171
     0
290
     0
174
     0
 93
        5
 44
0.0
173
     0
291
     0
 45
0.0
1001
ACAD
1000
AcDbSavedByObjectVersion
1070
     0
  0
VISUALSTYLE
  5
386
102
{ACAD_REACTORS
330
372
102
}
102
{ACAD_XDICTIONARY
360
3BE
102
}
330
372
100
AcDbVisualStyle
  2
Shades of Gray
 70
    23
 71
     2
 72
     2
 73
     3
 90
        0
 40
0.6
 41
30.0
 62
     5
 63
     7
421
 16777215
 74
     2
 91
        2
 64
     7
 65
     7
 75
     1
175
     1
 42
40.0
 92
        8
 66
     7
 43
1.0
 76
     1
 77
     6
 78
     2
 67
     7
 79
     3
170
     0
171
     0
290
     0
174
     0
 93
        1
 44
0.0
173
     0
291
     0
 45
0.0
1001
ACAD
1000
AcDbSavedByObjectVersion
1070
     0
  0
VISUALSTYLE
  5
387
102
{ACAD_REACTORS
330
372
102
}
102
{ACAD_XDICTIONARY
360
3C0
102
}
330
372
100
AcDbVisualStyle
  2
Sketchy
 70
    24
 71
     1
 72
     2
 73
     2
 90
        0
 40
0.6
 41
30.0
 62
     5
 63
     7
421
 16777215
 74
     2
 91
        2
 64
     7
 65
     7
 75
     1
175
     1
 42
40.0
 92
       11
 66
     7
 43
1.0
 76
     1
 77
     6
 78
     2
 67
     7
 79
     6
170
     0
171
     0
290
     0
174
     0
 93
        1
 44
0.0
173
     0
291
     0
 45
0.0
1001
ACAD
1000
AcDbSavedByObjectVersion
1070
     0
  0
VISUALSTYLE
  5
37F
102
{ACAD_REACTORS
330
372
102
}
102
{ACAD_XDICTIONARY
360
3B0
102
}
330
372
100
AcDbVisualStyle
  2
Thicken
 70
    13
 71
     2
 72
     2
 73
     0
 90
        0
 40
0.6
 41
30.0
 62
     5
 63
     7
421
 16777215
 74
     1
 91
        4
 64
     7
 65
   257
 75
     1
175
     1
 42
1.0
 92
       12
 66
     7
 43
1.0
 76
     1
 77
     6
 78
     2
 67
     7
 79
     5
170
     0
171
     0
290
     0
174
     0
 93
        1
 44
0.0
173
     0
291
     1
 45
0.0
1001
ACAD
1000
AcDbSavedByObjectVersion
1070
     0
  0
VISUALSTYLE
  5
378
102
{ACAD_REACTORS
330
372
102
}
102
{ACAD_XDICTIONARY
360
3A2
102
}
330
372
100
AcDbVisualStyle
  2
Wireframe
 70
     5
 71
     0
 72
     2
 73
     0
 90
        0
 40
0.6
 41
30.0
 62
     5
 63
     7
421
 16777215
 74
     1
 91
        4
 64
     7
 65
   257
 75
     1
175
     1
 42
1.0
 92
        0
 66
   257
 43
1.0
 76
     1
 77
     6
 78
     2
 67
     7
 79
     3
170
     0
171
     0
290
     0
174
     0
 93
        1
 44
0.0
173
     0
291
     0
 45
0.0
1001
ACAD
1000
AcDbSavedByObjectVersion
1070
     0
  0
VISUALSTYLE
  5
388
102
{ACAD_REACTORS
330
372
102
}
102
{ACAD_XDICTIONARY
360
3C2
102
}
330
372
100
AcDbVisualStyle
  2
X-Ray
 70
    25
 71
     2
 72
     2
 73
     1
 90
        1
 40
0.5
 41
30.0
 62
     5
 63
     7
421
 16777215
 74
     1
 91
        0
 64
     7
 65
   257
 75
     1
175
     1
 42
1.0
 92
        8
 66
     7
 43
1.0
 76
     1
 77
     6
 78
     2
 67
     7
 79
     3
170
     0
171
     0
290
     0
174
     0
 93
       13
 44
0.0
173
     0
291
     0
 45
0.0
1001
ACAD
1000
AcDbSavedByObjectVersion
1070
     0
  0
DICTIONARYVAR
  5
396
102
{ACAD_REACTORS
330
395
102
}
330
395
100
DictionaryVariables
280
     0
  1
1:1
  0
DICTIONARYVAR
  5
3D6
102
{ACAD_REACTORS
330
395
102
}
330
395
100
DictionaryVariables
280
     0
  1
Standard
  0
DICTIONARYVAR
  5
3D5
102
{ACAD_REACTORS
330
395
102
}
330
395
100
DictionaryVariables
280
     0
  1
Standard
  0
DICTIONARYVAR
  5
3D7
102
{ACAD_REACTORS
330
395
102
}
330
395
100
DictionaryVariables
280
     0
  1
0
  0
DICTIONARYVAR
  5
397
102
{ACAD_REACTORS
330
395
102
}
330
395
100
DictionaryVariables
280
     0
  1
2
  0
DICTIONARY
  5
3CA
330
38D
100
AcDbDictionary
280
     1
281
     1
  3
ACAD_XREC_ROUNDTRIP
360
3CB
  0
DICTIONARY
  5
3C8
330
38C
100
AcDbDictionary
280
     1
281
     1
  3
ACAD_XREC_ROUNDTRIP
360
3C9
  0
DICTIONARY
  5
3CC
330
38E
100
AcDbDictionary
280
     1
281
     1
  3
ACAD_XREC_ROUNDTRIP
360
3CD
  0
DICTIONARY
  5
3D2
330
392
100
AcDbDictionary
280
     1
281
     1
  3
ACAD_XREC_ROUNDTRIP
360
3D3
  0
DICTIONARY
  5
3CE
330
390
100
AcDbDictionary
280
     1
281
     1
  3
ACAD_ROUNDTRIP_2008_TABLESTYLE_CELLSTYLEMAP
360
3D0
  3
ACAD_XREC_ROUNDTRIP
360
3CF
  0
DICTIONARY
  5
3A0
330
377
100
AcDbDictionary
280
     1
281
     1
  3
ACAD_XREC_ROUNDTRIP
360
3A1
  0
DICTIONARY
  5
3A6
330
37A
100
AcDbDictionary
280
     1
281
     1
  3
ACAD_XREC_ROUNDTRIP
360
3A7
  0
DICTIONARY
  5
3AE
330
37E
100
AcDbDictionary
280
     1
281
     1
  3
ACAD_XREC_ROUNDTRIP
360
3AF
  0
DICTIONARY
  5
3B6
330
382
100
AcDbDictionary
280
     1
281
     1
  3
ACAD_XREC_ROUNDTRIP
360
3B7
  0
DICTIONARY
  5
3AA
330
37C
100
AcDbDictionary
280
     1
281
     1
  3
ACAD_XREC_ROUNDTRIP
360
3AB
  0
DICTIONARY
  5
3AC
330
37D
100
AcDbDictionary
280
     1
281
     1
  3
ACAD_XREC_ROUNDTRIP
360
3AD
  0
DICTIONARY
  5
3BC
330
385
100
AcDbDictionary
280
     1
281
     1
  3
ACAD_XREC_ROUNDTRIP
360
3BD
  0
DICTIONARY
  5
3B4
330
381
100
AcDbDictionary
280
     1
281
     1
  3
ACAD_XREC_ROUNDTRIP
360
3B5
  0
DICTIONARY
  5
398
330
373
100
AcDbDictionary
280
     1
281
     1
  3
ACAD_XREC_ROUNDTRIP
360
399
  0
DICTIONARY
  5
39A
330
374
100
AcDbDictionary
280
     1
281
     1
  3
ACAD_XREC_ROUNDTRIP
360
39B
  0
DICTIONARY
  5
39C
330
375
100
AcDbDictionary
280
     1
281
     1
  3
ACAD_XREC_ROUNDTRIP
360
39D
  0
DICTIONARY
  5
39E
330
376
100
AcDbDictionary
280
     1
281
     1
  3
ACAD_XREC_ROUNDTRIP
360
39F
  0
DICTIONARY
  5
3A4
330
379
100
AcDbDictionary
280
     1
281
     1
  3
ACAD_XREC_ROUNDTRIP
360
3A5
  0
DICTIONARY
  5
3B8
330
383
100
AcDbDictionary
280
     1
281
     1
  3
ACAD_XREC_ROUNDTRIP
360
3B9
  0
DICTIONARY
  5
3B2
330
380
100
AcDbDictionary
280
     1
281
     1
  3
ACAD_XREC_ROUNDTRIP
360
3B3
  0
DICTIONARY
  5
3BA
330
384
100
AcDbDictionary
280
     1
281
     1
  3
ACAD_XREC_ROUNDTRIP
360
3BB
  0
DICTIONARY
  5
3A8
330
37B
100
AcDbDictionary
280
     1
281
     1
  3
ACAD_XREC_ROUNDTRIP
360
3A9
  0
DICTIONARY
  5
3C6
330
38A
100
AcDbDictionary
280
     1
281
     1
  3
ACAD_XREC_ROUNDTRIP
360
3C7
  0
DICTIONARY
  5
3C4
330
389
100
AcDbDictionary
280
     1
281
     1
  3
ACAD_XREC_ROUNDTRIP
360
3C5
  0
DICTIONARY
  5
3BE
330
386
100
AcDbDictionary
280
     1
281
     1
  3
ACAD_XREC_ROUNDTRIP
360
3BF
  0
DICTIONARY
  5
3C0
330
387
100
AcDbDictionary
280
     1
281
     1
  3
ACAD_XREC_ROUNDTRIP
360
3C1
  0
DICTIONARY
  5
3B0
330
37F
100
AcDbDictionary
280
     1
281
     1
  3
ACAD_XREC_ROUNDTRIP
360
3B1
  0
DICTIONARY
  5
3A2
330
378
100
AcDbDictionary
280
     1
281
     1
  3
ACAD_XREC_ROUNDTRIP
360
3A3
  0
DICTIONARY
  5
3C2
330
388
100
AcDbDictionary
280
     1
281
     1
  3
ACAD_XREC_ROUNDTRIP
360
3C3
  0
XRECORD
  5
3CB
102
{ACAD_REACTORS
330
3CA
102
}
330
3CA
100
AcDbXrecord
280
     1
102
MATERIAL
148
0.0
149
0.0
149
0.0
 93
        0
 94
      127
282
     0
 72
     1
 77
     1
171
     1
175
     1
179
     1
273
     0
  0
XRECORD
  5
3C9
102
{ACAD_REACTORS
330
3C8
102
}
330
3C8
100
AcDbXrecord
280
     1
102
MATERIAL
148
0.0
149
0.0
149
0.0
 93
        0
 94
      127
282
     0
 72
     1
 77
     1
171
     1
175
     1
179
     1
273
     0
  0
XRECORD
  5
3CD
102
{ACAD_REACTORS
330
3CC
102
}
330
3CC
100
AcDbXrecord
280
     1
102
MATERIAL
148
0.0
149
0.0
149
0.0
 93
        0
 94
      127
282
     0
 72
     1
 77
     1
171
     1
175
     1
179
     1
273
     0
  0
XRECORD
  5
3D3
102
{ACAD_REACTORS
330
3D2
102
}
330
3D2
100
AcDbXrecord
280
     1
102
ACAD_ROUNDTRIP_2010_MLEADER_STYLE
  0
CELLSTYLEMAP
  5
3D0
102
{ACAD_REACTORS
330
3CE
102
}
330
3CE
100
AcDbCellStyleMap
 90
        3
300
CELLSTYLE
  1
TABLEFORMAT_BEGIN
 90
        5
170
     1
 91
        0
 92
    32768
 62
   257
 93
        1
300
CONTENTFORMAT
  1
CONTENTFORMAT_BEGIN
 90
        0
 91
        0
 92
        4
 93
        0
300

 40
0.0
140
1.0
 94
        5
 62
     0
340
15D
144
6.0
309
CONTENTFORMAT_END
171
     1
301
MARGIN
  1
CELLMARGIN_BEGIN
 40
1.5
 40
1.5
 40
1.5
 40
1.5
 40
1.5
 40
1.5
309
CELLMARGIN_END
 94
        6
 95
        1
302
GRIDFORMAT
  1
GRIDFORMAT_BEGIN
 90
        0
 91
        1
 62
     0
 92
       -2
340
4
 93
        0
 40
0.045
309
GRIDFORMAT_END
 95
        2
302
GRIDFORMAT
  1
GRIDFORMAT_BEGIN
 90
        0
 91
        1
 62
     0
 92
       -2
340
4
 93
        0
 40
0.045
309
GRIDFORMAT_END
 95
        4
302
GRIDFORMAT
  1
GRIDFORMAT_BEGIN
 90
        0
 91
        1
 62
     0
 92
       -2
340
4
 93
        0
 40
0.045
309
GRIDFORMAT_END
 95
        8
302
GRIDFORMAT
  1
GRIDFORMAT_BEGIN
 90
        0
 91
        1
 62
     0
 92
       -2
340
4
 93
        0
 40
0.045
309
GRIDFORMAT_END
 95
       16
302
GRIDFORMAT
  1
GRIDFORMAT_BEGIN
 90
        0
 91
        1
 62
     0
 92
       -2
340
4
 93
        0
 40
0.045
309
GRIDFORMAT_END
 95
       32
302
GRIDFORMAT
  1
GRIDFORMAT_BEGIN
 90
        0
 91
        1
 62
     0
 92
       -2
340
4
 93
        0
 40
0.045
309
GRIDFORMAT_END
309
TABLEFORMAT_END
  1
CELLSTYLE_BEGIN
 90
        1
 91
        1
300
_TITLE
309
CELLSTYLE_END
300
CELLSTYLE
  1
TABLEFORMAT_BEGIN
 90
        5
170
     1
 91
        0
 92
        0
 62
   257
 93
        1
300
CONTENTFORMAT
  1
CONTENTFORMAT_BEGIN
 90
        0
 91
        0
 92
        4
 93
        0
300

 40
0.0
140
1.0
 94
        5
 62
     0
340
15D
144
4.5
309
CONTENTFORMAT_END
171
     1
301
MARGIN
  1
CELLMARGIN_BEGIN
 40
1.5
 40
1.5
 40
1.5
 40
1.5
 40
1.5
 40
1.5
309
CELLMARGIN_END
 94
        6
 95
        1
302
GRIDFORMAT
  1
GRIDFORMAT_BEGIN
 90
        0
 91
        1
 62
     0
 92
       -2
340
4
 93
        0
 40
0.045
309
GRIDFORMAT_END
 95
        2
302
GRIDFORMAT
  1
GRIDFORMAT_BEGIN
 90
        0
 91
        1
 62
     0
 92
       -2
340
4
 93
        0
 40
0.045
309
GRIDFORMAT_END
 95
        4
302
GRIDFORMAT
  1
GRIDFORMAT_BEGIN
 90
        0
 91
        1
 62
     0
 92
       -2
340
4
 93
        0
 40
0.045
309
GRIDFORMAT_END
 95
        8
302
GRIDFORMAT
  1
GRIDFORMAT_BEGIN
 90
        0
 91
        1
 62
     0
 92
       -2
340
4
 93
        0
 40
0.045
309
GRIDFORMAT_END
 95
       16
302
GRIDFORMAT
  1
GRIDFORMAT_BEGIN
 90
        0
 91
        1
 62
     0
 92
       -2
340
4
 93
        0
 40
0.045
309
GRIDFORMAT_END
 95
       32
302
GRIDFORMAT
  1
GRIDFORMAT_BEGIN
 90
        0
 91
        1
 62
     0
 92
       -2
340
4
 93
        0
 40
0.045
309
GRIDFORMAT_END
309
TABLEFORMAT_END
  1
CELLSTYLE_BEGIN
 90
        2
 91
        1
300
_HEADER
309
CELLSTYLE_END
300
CELLSTYLE
  1
TABLEFORMAT_BEGIN
 90
        5
170
     1
 91
        0
 92
        0
 62
   257
 93
        1
300
CONTENTFORMAT
  1
CONTENTFORMAT_BEGIN
 90
        0
 91
        0
 92
        4
 93
        0
300

 40
0.0
140
1.0
 94
        2
 62
     0
340
15D
144
4.5
309
CONTENTFORMAT_END
171
     1
301
MARGIN
  1
CELLMARGIN_BEGIN
 40
1.5
 40
1.5
 40
1.5
 40
1.5
 40
1.5
 40
1.5
309
CELLMARGIN_END
 94
        6
 95
        1
302
GRIDFORMAT
  1
GRIDFORMAT_BEGIN
 90
        0
 91
        1
 62
     0
 92
       -2
340
4
 93
        0
 40
0.045
309
GRIDFORMAT_END
 95
        2
302
GRIDFORMAT
  1
GRIDFORMAT_BEGIN
 90
        0
 91
        1
 62
     0
 92
       -2
340
4
 93
        0
 40
0.045
309
GRIDFORMAT_END
 95
        4
302
GRIDFORMAT
  1
GRIDFORMAT_BEGIN
 90
        0
 91
        1
 62
     0
 92
       -2
340
4
 93
        0
 40
0.045
309
GRIDFORMAT_END
 95
        8
302
GRIDFORMAT
  1
GRIDFORMAT_BEGIN
 90
        0
 91
        1
 62
     0
 92
       -2
340
4
 93
        0
 40
0.045
309
GRIDFORMAT_END
 95
       16
302
GRIDFORMAT
  1
GRIDFORMAT_BEGIN
 90
        0
 91
        1
 62
     0
 92
       -2
340
4
 93
        0
 40
0.045
309
GRIDFORMAT_END
 95
       32
302
GRIDFORMAT
  1
GRIDFORMAT_BEGIN
 90
        0
 91
        1
 62
     0
 92
       -2
340
4
 93
        0
 40
0.045
309
GRIDFORMAT_END
309
TABLEFORMAT_END
  1
CELLSTYLE_BEGIN
 90
        3
 91
        2
300
_DATA
309
CELLSTYLE_END
  0
XRECORD
  5
3CF
102
{ACAD_REACTORS
330
3CE
102
}
330
3CE
100
AcDbXrecord
280
     1
102
ACAD_ROUNDTRIP_PRE2007_TABLESTYLE
 90
        4
 91
        0
  1

 92
        4
 93
        0
  2

 94
        4
 95
        0
  3

  0
XRECORD
  5
3A1
102
{ACAD_REACTORS
330
3A0
102
}
330
3A0
100
AcDbXrecord
280
     1
102
RTVSPropertyOp0
 70
     1
102
RTVSPropertyOp1
 70
     1
102
RTVSPropertyOp2
 70
     1
102
RTVSPropertyOp3
 70
     1
102
RTVSPropertyOp4
 70
     1
102
RTVSPropertyOp5
 70
     1
102
RTVSPropertyOp6
 70
     1
102
RTVSPropertyOp7
 70
     1
102
RTVSPropertyOp8
 70
     1
102
RTVSPropertyOp9
 70
     1
102
RTVSPropertyOp10
 70
     1
102
RTVSPropertyOp11
 70
     1
102
RTVSPropertyOp12
 70
     1
102
RTVSPropertyOp13
 70
     1
102
RTVSPropertyOp14
 70
     1
102
RTVSPropertyOp15
 70
     1
102
RTVSPropertyOp16
 70
     1
102
RTVSPropertyOp17
 70
     1
102
RTVSPropertyOp18
 70
     1
102
RTVSPropertyOp19
 70
     1
102
RTVSPropertyOp20
 70
     1
102
RTVSPropertyOp21
 70
     1
102
RTVSPropertyOp22
 70
     1
102
RTVSPropertyOp23
 70
     1
102
RTVSPropertyOp24
 70
     1
102
RTVSPropertyOp25
 70
     1
102
RTVSPropertyOp26
 70
     1
102
RTVSPropertyOp27
 70
     1
102
RTVSPropertyOp28
 70
     1
102
RTVSPropertyOp29
 70
     1
102
RTVSPropertyOp30
 70
     1
102
RTVSPropertyOp31
 70
     1
102
RTVSPropertyOp32
 70
     1
102
RTVSPropertyOp33
 70
     1
102
RTVSPropertyOp34
 70
     1
102
RTVSPropertyOp35
 70
     1
102
RTVSPropertyOp36
 70
     1
102
RTVSPropertyOp37
 70
     1
102
RTVSPropertyOp38
 70
     1
102
RTVSPropertyOp39
 70
     1
102
RTVSPropertyOp40
 70
     1
102
RTVSPropertyOp41
 70
     1
102
RTVSPropertyOp42
 70
     1
102
RTVSPropertyOp43
 70
     1
102
RTVSPropertyOp44
 70
     1
102
RTVSPropertyOp45
 70
     1
102
RTVSPropertyOp46
 70
     1
102
RTVSPropertyOp47
 70
     1
102
RTVSPropertyOp48
 70
     1
102
RTVSPropertyOp49
 70
     1
102
RTVSPropertyOp50
 70
     1
102
RTVSPropertyOp51
 70
     0
102
RTVSPropertyOp52
 70
     0
102
RTVSPropertyOp53
 70
     1
102
RTVSPropertyOp54
 70
     1
102
RTVSPropertyOp55
 70
     1
102
RTVSPropertyOp56
 70
     1
102
RTVSPropertyOp57
 70
     1
102
RTVSPost2010Prop28
280
     1
102
RTVSPost2010PropOp28
 70
     1
102
RTVSPost2010Prop29
280
     1
102
RTVSPost2010PropOp29
 70
     1
102
RTVSPost2010Prop30
280
     0
102
RTVSPost2010PropOp30
 70
     1
102
RTVSPost2010Prop31
280
     0
102
RTVSPost2010PropOp31
 70
     1
102
RTVSPost2010Prop32
280
     0
102
RTVSPost2010PropOp32
 70
     1
102
RTVSPost2010Prop33
280
     0
102
RTVSPost2010PropOp33
 70
     1
102
RTVSPost2010Prop34
280
     0
102
RTVSPost2010PropOp34
 70
     1
102
RTVSPost2010Prop35
280
     0
102
RTVSPost2010PropOp35
 70
     1
102
RTVSPost2010Prop36
280
     0
102
RTVSPost2010PropOp36
 70
     1
102
RTVSPost2010Prop37
 90
       50
102
RTVSPost2010PropOp37
 70
     1
102
RTVSPost2010Prop38
140
0.0
102
RTVSPost2010PropOp38
 70
     1
102
RTVSPost2010Prop39
140
1.0
102
RTVSPost2010PropOp39
 70
     1
102
RTVSPost2010Prop40
 90
        0
102
RTVSPost2010PropOp40
 70
     1
102
RTVSPost2010Prop41ColorIndex
 90
       18
102
RTVSPost2010Prop41ColorRGB
 90
        0
102
RTVSPost2010PropOp41
 70
     1
102
RTVSPost2010Prop42
 90
       50
102
RTVSPost2010PropOp42
 70
     1
102
RTVSPost2010Prop43
 90
        3
102
RTVSPost2010PropOp43
 70
     1
102
RTVSPost2010Prop44ColorIndex
 90
        5
102
RTVSPost2010Prop44ColorRGB
 90
      255
102
RTVSPost2010PropOp44
 70
     1
102
RTVSPost2010Prop45
280
     0
102
RTVSPost2010PropOp45
 70
     1
102
RTVSPost2010Prop46
 90
       50
102
RTVSPost2010PropOp46
 70
     1
102
RTVSPost2010Prop47
 90
       50
102
RTVSPost2010PropOp47
 70
     1
102
RTVSPost2010Prop48
 90
       50
102
RTVSPost2010PropOp48
 70
     1
102
RTVSPost2010Prop49
280
     0
102
RTVSPost2010PropOp49
 70
     1
102
RTVSPost2010Prop50
 90
       50
102
RTVSPost2010PropOp50
 70
     1
102
RTVSPost2010Prop51ColorIndex
 90
      256
102
RTVSPost2010Prop51ColorRGB
 90
-16777216
102
RTVSPost2010PropOp51
 70
     0
102
RTVSPost2010Prop52
140
1.0
102
RTVSPost2010PropOp52
 70
     0
102
RTVSPost2010Prop53
 90
        2
102
RTVSPost2010PropOp53
 70
     1
102
RTVSPost2010Prop54
  1
strokes_ogs.tif
102
RTVSPost2010PropOp54
 70
     1
102
RTVSPost2010Prop55
280
     0
102
RTVSPost2010PropOp55
 70
     1
102
RTVSPost2010Prop56
140
1.0
102
RTVSPost2010PropOp56
 70
     1
102
RTVSPost2010Prop57
140
1.0
102
RTVSPost2010PropOp57
 70
     1
  0
XRECORD
  5
3A7
102
{ACAD_REACTORS
330
3A6
102
}
330
3A6
100
AcDbXrecord
280
     1
102
RTVSPropertyOp0
 70
     1
102
RTVSPropertyOp1
 70
     1
102
RTVSPropertyOp2
 70
     1
102
RTVSPropertyOp3
 70
     1
102
RTVSPropertyOp4
 70
     1
102
RTVSPropertyOp5
 70
     1
102
RTVSPropertyOp6
 70
     1
102
RTVSPropertyOp7
 70
     1
102
RTVSPropertyOp8
 70
     1
102
RTVSPropertyOp9
 70
     1
102
RTVSPropertyOp10
 70
     1
102
RTVSPropertyOp11
 70
     1
102
RTVSPropertyOp12
 70
     1
102
RTVSPropertyOp13
 70
     1
102
RTVSPropertyOp14
 70
     1
102
RTVSPropertyOp15
 70
     1
102
RTVSPropertyOp16
 70
     1
102
RTVSPropertyOp17
 70
     1
102
RTVSPropertyOp18
 70
     1
102
RTVSPropertyOp19
 70
     1
102
RTVSPropertyOp20
 70
     1
102
RTVSPropertyOp21
 70
     1
102
RTVSPropertyOp22
 70
     1
102
RTVSPropertyOp23
 70
     1
102
RTVSPropertyOp24
 70
     1
102
RTVSPropertyOp25
 70
     1
102
RTVSPropertyOp26
 70
     1
102
RTVSPropertyOp27
 70
     1
102
RTVSPropertyOp28
 70
     1
102
RTVSPropertyOp29
 70
     1
102
RTVSPropertyOp30
 70
     1
102
RTVSPropertyOp31
 70
     1
102
RTVSPropertyOp32
 70
     1
102
RTVSPropertyOp33
 70
     1
102
RTVSPropertyOp34
 70
     1
102
RTVSPropertyOp35
 70
     1
102
RTVSPropertyOp36
 70
     1
102
RTVSPropertyOp37
 70
     1
102
RTVSPropertyOp38
 70
     1
102
RTVSPropertyOp39
 70
     1
102
RTVSPropertyOp40
 70
     1
102
RTVSPropertyOp41
 70
     1
102
RTVSPropertyOp42
 70
     1
102
RTVSPropertyOp43
 70
     1
102
RTVSPropertyOp44
 70
     1
102
RTVSPropertyOp45
 70
     1
102
RTVSPropertyOp46
 70
     1
102
RTVSPropertyOp47
 70
     1
102
RTVSPropertyOp48
 70
     1
102
RTVSPropertyOp49
 70
     1
102
RTVSPropertyOp50
 70
     1
102
RTVSPropertyOp51
 70
     0
102
RTVSPropertyOp52
 70
     0
102
RTVSPropertyOp53
 70
     1
102
RTVSPropertyOp54
 70
     1
102
RTVSPropertyOp55
 70
     1
102
RTVSPropertyOp56
 70
     1
102
RTVSPropertyOp57
 70
     1
102
RTVSPost2010Prop28
280
     0
102
RTVSPost2010PropOp28
 70
     1
102
RTVSPost2010Prop29
280
     1
102
RTVSPost2010PropOp29
 70
     1
102
RTVSPost2010Prop30
280
     1
102
RTVSPost2010PropOp30
 70
     1
102
RTVSPost2010Prop31
280
     0
102
RTVSPost2010PropOp31
 70
     1
102
RTVSPost2010Prop32
280
     0
102
RTVSPost2010PropOp32
 70
     1
102
RTVSPost2010Prop33
280
     0
102
RTVSPost2010PropOp33
 70
     1
102
RTVSPost2010Prop34
280
     0
102
RTVSPost2010PropOp34
 70
     1
102
RTVSPost2010Prop35
280
     0
102
RTVSPost2010PropOp35
 70
     1
102
RTVSPost2010Prop36
280
     0
102
RTVSPost2010PropOp36
 70
     1
102
RTVSPost2010Prop37
 90
       50
102
RTVSPost2010PropOp37
 70
     1
102
RTVSPost2010Prop38
140
0.0
102
RTVSPost2010PropOp38
 70
     1
102
RTVSPost2010Prop39
140
1.0
102
RTVSPost2010PropOp39
 70
     1
102
RTVSPost2010Prop40
 90
        0
102
RTVSPost2010PropOp40
 70
     1
102
RTVSPost2010Prop41ColorIndex
 90
       18
102
RTVSPost2010Prop41ColorRGB
 90
        0
102
RTVSPost2010PropOp41
 70
     1
102
RTVSPost2010Prop42
 90
       50
102
RTVSPost2010PropOp42
 70
     1
102
RTVSPost2010Prop43
 90
        3
102
RTVSPost2010PropOp43
 70
     1
102
RTVSPost2010Prop44ColorIndex
 90
        5
102
RTVSPost2010Prop44ColorRGB
 90
      255
102
RTVSPost2010PropOp44
 70
     1
102
RTVSPost2010Prop45
280
     0
102
RTVSPost2010PropOp45
 70
     1
102
RTVSPost2010Prop46
 90
       50
102
RTVSPost2010PropOp46
 70
     1
102
RTVSPost2010Prop47
 90
       50
102
RTVSPost2010PropOp47
 70
     1
102
RTVSPost2010Prop48
 90
       50
102
RTVSPost2010PropOp48
 70
     1
102
RTVSPost2010Prop49
280
     0
102
RTVSPost2010PropOp49
 70
     1
102
RTVSPost2010Prop50
 90
       50
102
RTVSPost2010PropOp50
 70
     1
102
RTVSPost2010Prop51ColorIndex
 90
      256
102
RTVSPost2010Prop51ColorRGB
 90
-16777216
102
RTVSPost2010PropOp51
 70
     0
102
RTVSPost2010Prop52
140
1.0
102
RTVSPost2010PropOp52
 70
     0
102
RTVSPost2010Prop53
 90
        2
102
RTVSPost2010PropOp53
 70
     1
102
RTVSPost2010Prop54
  1
strokes_ogs.tif
102
RTVSPost2010PropOp54
 70
     1
102
RTVSPost2010Prop55
280
     0
102
RTVSPost2010PropOp55
 70
     1
102
RTVSPost2010Prop56
140
1.0
102
RTVSPost2010PropOp56
 70
     1
102
RTVSPost2010Prop57
140
1.0
102
RTVSPost2010PropOp57
 70
     1
  0
XRECORD
  5
3AF
102
{ACAD_REACTORS
330
3AE
102
}
330
3AE
100
AcDbXrecord
280
     1
102
RTVSPropertyOp0
 70
     1
102
RTVSPropertyOp1
 70
     1
102
RTVSPropertyOp2
 70
     1
102
RTVSPropertyOp3
 70
     1
102
RTVSPropertyOp4
 70
     1
102
RTVSPropertyOp5
 70
     1
102
RTVSPropertyOp6
 70
     1
102
RTVSPropertyOp7
 70
     1
102
RTVSPropertyOp8
 70
     1
102
RTVSPropertyOp9
 70
     1
102
RTVSPropertyOp10
 70
     1
102
RTVSPropertyOp11
 70
     1
102
RTVSPropertyOp12
 70
     1
102
RTVSPropertyOp13
 70
     1
102
RTVSPropertyOp14
 70
     1
102
RTVSPropertyOp15
 70
     1
102
RTVSPropertyOp16
 70
     1
102
RTVSPropertyOp17
 70
     1
102
RTVSPropertyOp18
 70
     1
102
RTVSPropertyOp19
 70
     1
102
RTVSPropertyOp20
 70
     1
102
RTVSPropertyOp21
 70
     1
102
RTVSPropertyOp22
 70
     1
102
RTVSPropertyOp23
 70
     1
102
RTVSPropertyOp24
 70
     1
102
RTVSPropertyOp25
 70
     1
102
RTVSPropertyOp26
 70
     1
102
RTVSPropertyOp27
 70
     1
102
RTVSPropertyOp28
 70
     1
102
RTVSPropertyOp29
 70
     1
102
RTVSPropertyOp30
 70
     1
102
RTVSPropertyOp31
 70
     1
102
RTVSPropertyOp32
 70
     1
102
RTVSPropertyOp33
 70
     1
102
RTVSPropertyOp34
 70
     1
102
RTVSPropertyOp35
 70
     1
102
RTVSPropertyOp36
 70
     1
102
RTVSPropertyOp37
 70
     1
102
RTVSPropertyOp38
 70
     1
102
RTVSPropertyOp39
 70
     1
102
RTVSPropertyOp40
 70
     1
102
RTVSPropertyOp41
 70
     1
102
RTVSPropertyOp42
 70
     1
102
RTVSPropertyOp43
 70
     1
102
RTVSPropertyOp44
 70
     1
102
RTVSPropertyOp45
 70
     1
102
RTVSPropertyOp46
 70
     1
102
RTVSPropertyOp47
 70
     1
102
RTVSPropertyOp48
 70
     1
102
RTVSPropertyOp49
 70
     1
102
RTVSPropertyOp50
 70
     1
102
RTVSPropertyOp51
 70
     0
102
RTVSPropertyOp52
 70
     0
102
RTVSPropertyOp53
 70
     1
102
RTVSPropertyOp54
 70
     1
102
RTVSPropertyOp55
 70
     1
102
RTVSPropertyOp56
 70
     1
102
RTVSPropertyOp57
 70
     1
102
RTVSPost2010Prop28
280
     0
102
RTVSPost2010PropOp28
 70
     1
102
RTVSPost2010Prop29
280
     1
102
RTVSPost2010PropOp29
 70
     1
102
RTVSPost2010Prop30
280
     1
102
RTVSPost2010PropOp30
 70
     1
102
RTVSPost2010Prop31
280
     0
102
RTVSPost2010PropOp31
 70
     1
102
RTVSPost2010Prop32
280
     0
102
RTVSPost2010PropOp32
 70
     1
102
RTVSPost2010Prop33
280
     0
102
RTVSPost2010PropOp33
 70
     1
102
RTVSPost2010Prop34
280
     0
102
RTVSPost2010PropOp34
 70
     1
102
RTVSPost2010Prop35
280
     0
102
RTVSPost2010PropOp35
 70
     1
102
RTVSPost2010Prop36
280
     0
102
RTVSPost2010PropOp36
 70
     1
102
RTVSPost2010Prop37
 90
       50
102
RTVSPost2010PropOp37
 70
     1
102
RTVSPost2010Prop38
140
0.0
102
RTVSPost2010PropOp38
 70
     1
102
RTVSPost2010Prop39
140
1.0
102
RTVSPost2010PropOp39
 70
     1
102
RTVSPost2010Prop40
 90
        0
102
RTVSPost2010PropOp40
 70
     1
102
RTVSPost2010Prop41ColorIndex
 90
       18
102
RTVSPost2010Prop41ColorRGB
 90
        0
102
RTVSPost2010PropOp41
 70
     1
102
RTVSPost2010Prop42
 90
       50
102
RTVSPost2010PropOp42
 70
     1
102
RTVSPost2010Prop43
 90
        3
102
RTVSPost2010PropOp43
 70
     1
102
RTVSPost2010Prop44ColorIndex
 90
        5
102
RTVSPost2010Prop44ColorRGB
 90
      255
102
RTVSPost2010PropOp44
 70
     1
102
RTVSPost2010Prop45
280
     0
102
RTVSPost2010PropOp45
 70
     1
102
RTVSPost2010Prop46
 90
       50
102
RTVSPost2010PropOp46
 70
     1
102
RTVSPost2010Prop47
 90
       50
102
RTVSPost2010PropOp47
 70
     1
102
RTVSPost2010Prop48
 90
       50
102
RTVSPost2010PropOp48
 70
     1
102
RTVSPost2010Prop49
280
     0
102
RTVSPost2010PropOp49
 70
     1
102
RTVSPost2010Prop50
 90
       50
102
RTVSPost2010PropOp50
 70
     1
102
RTVSPost2010Prop51ColorIndex
 90
      256
102
RTVSPost2010Prop51ColorRGB
 90
-16777216
102
RTVSPost2010PropOp51
 70
     0
102
RTVSPost2010Prop52
140
1.0
102
RTVSPost2010PropOp52
 70
     0
102
RTVSPost2010Prop53
 90
        2
102
RTVSPost2010PropOp53
 70
     1
102
RTVSPost2010Prop54
  1
strokes_ogs.tif
102
RTVSPost2010PropOp54
 70
     1
102
RTVSPost2010Prop55
280
     0
102
RTVSPost2010PropOp55
 70
     1
102
RTVSPost2010Prop56
140
1.0
102
RTVSPost2010PropOp56
 70
     1
102
RTVSPost2010Prop57
140
1.0
102
RTVSPost2010PropOp57
 70
     1
  0
XRECORD
  5
3B7
102
{ACAD_REACTORS
330
3B6
102
}
330
3B6
100
AcDbXrecord
280
     1
102
RTVSPropertyOp0
 70
     1
102
RTVSPropertyOp1
 70
     1
102
RTVSPropertyOp2
 70
     1
102
RTVSPropertyOp3
 70
     1
102
RTVSPropertyOp4
 70
     1
102
RTVSPropertyOp5
 70
     1
102
RTVSPropertyOp6
 70
     1
102
RTVSPropertyOp7
 70
     1
102
RTVSPropertyOp8
 70
     1
102
RTVSPropertyOp9
 70
     1
102
RTVSPropertyOp10
 70
     1
102
RTVSPropertyOp11
 70
     1
102
RTVSPropertyOp12
 70
     1
102
RTVSPropertyOp13
 70
     1
102
RTVSPropertyOp14
 70
     1
102
RTVSPropertyOp15
 70
     1
102
RTVSPropertyOp16
 70
     1
102
RTVSPropertyOp17
 70
     1
102
RTVSPropertyOp18
 70
     1
102
RTVSPropertyOp19
 70
     1
102
RTVSPropertyOp20
 70
     1
102
RTVSPropertyOp21
 70
     1
102
RTVSPropertyOp22
 70
     1
102
RTVSPropertyOp23
 70
     1
102
RTVSPropertyOp24
 70
     1
102
RTVSPropertyOp25
 70
     1
102
RTVSPropertyOp26
 70
     1
102
RTVSPropertyOp27
 70
     1
102
RTVSPropertyOp28
 70
     1
102
RTVSPropertyOp29
 70
     1
102
RTVSPropertyOp30
 70
     1
102
RTVSPropertyOp31
 70
     1
102
RTVSPropertyOp32
 70
     1
102
RTVSPropertyOp33
 70
     1
102
RTVSPropertyOp34
 70
     1
102
RTVSPropertyOp35
 70
     1
102
RTVSPropertyOp36
 70
     1
102
RTVSPropertyOp37
 70
     1
102
RTVSPropertyOp38
 70
     1
102
RTVSPropertyOp39
 70
     1
102
RTVSPropertyOp40
 70
     1
102
RTVSPropertyOp41
 70
     1
102
RTVSPropertyOp42
 70
     1
102
RTVSPropertyOp43
 70
     1
102
RTVSPropertyOp44
 70
     1
102
RTVSPropertyOp45
 70
     1
102
RTVSPropertyOp46
 70
     1
102
RTVSPropertyOp47
 70
     1
102
RTVSPropertyOp48
 70
     1
102
RTVSPropertyOp49
 70
     1
102
RTVSPropertyOp50
 70
     1
102
RTVSPropertyOp51
 70
     0
102
RTVSPropertyOp52
 70
     0
102
RTVSPropertyOp53
 70
     1
102
RTVSPropertyOp54
 70
     1
102
RTVSPropertyOp55
 70
     1
102
RTVSPropertyOp56
 70
     1
102
RTVSPropertyOp57
 70
     1
102
RTVSPost2010Prop28
280
     0
102
RTVSPost2010PropOp28
 70
     1
102
RTVSPost2010Prop29
280
     1
102
RTVSPost2010PropOp29
 70
     1
102
RTVSPost2010Prop30
280
     1
102
RTVSPost2010PropOp30
 70
     1
102
RTVSPost2010Prop31
280
     0
102
RTVSPost2010PropOp31
 70
     1
102
RTVSPost2010Prop32
280
     0
102
RTVSPost2010PropOp32
 70
     1
102
RTVSPost2010Prop33
280
     0
102
RTVSPost2010PropOp33
 70
     1
102
RTVSPost2010Prop34
280
     0
102
RTVSPost2010PropOp34
 70
     1
102
RTVSPost2010Prop35
280
     0
102
RTVSPost2010PropOp35
 70
     1
102
RTVSPost2010Prop36
280
     0
102
RTVSPost2010PropOp36
 70
     1
102
RTVSPost2010Prop37
 90
       50
102
RTVSPost2010PropOp37
 70
     1
102
RTVSPost2010Prop38
140
0.0
102
RTVSPost2010PropOp38
 70
     1
102
RTVSPost2010Prop39
140
1.0
102
RTVSPost2010PropOp39
 70
     1
102
RTVSPost2010Prop40
 90
        0
102
RTVSPost2010PropOp40
 70
     1
102
RTVSPost2010Prop41ColorIndex
 90
       18
102
RTVSPost2010Prop41ColorRGB
 90
        0
102
RTVSPost2010PropOp41
 70
     1
102
RTVSPost2010Prop42
 90
       50
102
RTVSPost2010PropOp42
 70
     1
102
RTVSPost2010Prop43
 90
        3
102
RTVSPost2010PropOp43
 70
     1
102
RTVSPost2010Prop44ColorIndex
 90
        5
102
RTVSPost2010Prop44ColorRGB
 90
      255
102
RTVSPost2010PropOp44
 70
     1
102
RTVSPost2010Prop45
280
     0
102
RTVSPost2010PropOp45
 70
     1
102
RTVSPost2010Prop46
 90
       50
102
RTVSPost2010PropOp46
 70
     1
102
RTVSPost2010Prop47
 90
       50
102
RTVSPost2010PropOp47
 70
     1
102
RTVSPost2010Prop48
 90
       50
102
RTVSPost2010PropOp48
 70
     1
102
RTVSPost2010Prop49
280
     0
102
RTVSPost2010PropOp49
 70
     1
102
RTVSPost2010Prop50
 90
       50
102
RTVSPost2010PropOp50
 70
     1
102
RTVSPost2010Prop51ColorIndex
 90
      256
102
RTVSPost2010Prop51ColorRGB
 90
-16777216
102
RTVSPost2010PropOp51
 70
     0
102
RTVSPost2010Prop52
140
1.0
102
RTVSPost2010PropOp52
 70
     0
102
RTVSPost2010Prop53
 90
        2
102
RTVSPost2010PropOp53
 70
     1
102
RTVSPost2010Prop54
  1
strokes_ogs.tif
102
RTVSPost2010PropOp54
 70
     1
102
RTVSPost2010Prop55
280
     0
102
RTVSPost2010PropOp55
 70
     1
102
RTVSPost2010Prop56
140
1.0
102
RTVSPost2010PropOp56
 70
     1
102
RTVSPost2010Prop57
140
1.0
102
RTVSPost2010PropOp57
 70
     1
  0
XRECORD
  5
3AB
102
{ACAD_REACTORS
330
3AA
102
}
330
3AA
100
AcDbXrecord
280
     1
102
RTVSPropertyOp0
 70
     1
102
RTVSPropertyOp1
 70
     1
102
RTVSPropertyOp2
 70
     1
102
RTVSPropertyOp3
 70
     1
102
RTVSPropertyOp4
 70
     1
102
RTVSPropertyOp5
 70
     1
102
RTVSPropertyOp6
 70
     1
102
RTVSPropertyOp7
 70
     1
102
RTVSPropertyOp8
 70
     1
102
RTVSPropertyOp9
 70
     1
102
RTVSPropertyOp10
 70
     1
102
RTVSPropertyOp11
 70
     1
102
RTVSPropertyOp12
 70
     1
102
RTVSPropertyOp13
 70
     1
102
RTVSPropertyOp14
 70
     1
102
RTVSPropertyOp15
 70
     1
102
RTVSPropertyOp16
 70
     1
102
RTVSPropertyOp17
 70
     1
102
RTVSPropertyOp18
 70
     1
102
RTVSPropertyOp19
 70
     1
102
RTVSPropertyOp20
 70
     1
102
RTVSPropertyOp21
 70
     1
102
RTVSPropertyOp22
 70
     1
102
RTVSPropertyOp23
 70
     1
102
RTVSPropertyOp24
 70
     1
102
RTVSPropertyOp25
 70
     1
102
RTVSPropertyOp26
 70
     1
102
RTVSPropertyOp27
 70
     1
102
RTVSPropertyOp28
 70
     1
102
RTVSPropertyOp29
 70
     1
102
RTVSPropertyOp30
 70
     1
102
RTVSPropertyOp31
 70
     1
102
RTVSPropertyOp32
 70
     1
102
RTVSPropertyOp33
 70
     1
102
RTVSPropertyOp34
 70
     1
102
RTVSPropertyOp35
 70
     1
102
RTVSPropertyOp36
 70
     1
102
RTVSPropertyOp37
 70
     1
102
RTVSPropertyOp38
 70
     1
102
RTVSPropertyOp39
 70
     1
102
RTVSPropertyOp40
 70
     1
102
RTVSPropertyOp41
 70
     1
102
RTVSPropertyOp42
 70
     1
102
RTVSPropertyOp43
 70
     1
102
RTVSPropertyOp44
 70
     1
102
RTVSPropertyOp45
 70
     1
102
RTVSPropertyOp46
 70
     1
102
RTVSPropertyOp47
 70
     1
102
RTVSPropertyOp48
 70
     1
102
RTVSPropertyOp49
 70
     1
102
RTVSPropertyOp50
 70
     1
102
RTVSPropertyOp51
 70
     0
102
RTVSPropertyOp52
 70
     0
102
RTVSPropertyOp53
 70
     1
102
RTVSPropertyOp54
 70
     1
102
RTVSPropertyOp55
 70
     1
102
RTVSPropertyOp56
 70
     1
102
RTVSPropertyOp57
 70
     1
102
RTVSPost2010Prop28
280
     0
102
RTVSPost2010PropOp28
 70
     1
102
RTVSPost2010Prop29
280
     1
102
RTVSPost2010PropOp29
 70
     1
102
RTVSPost2010Prop30
280
     1
102
RTVSPost2010PropOp30
 70
     1
102
RTVSPost2010Prop31
280
     0
102
RTVSPost2010PropOp31
 70
     1
102
RTVSPost2010Prop32
280
     0
102
RTVSPost2010PropOp32
 70
     1
102
RTVSPost2010Prop33
280
     0
102
RTVSPost2010PropOp33
 70
     1
102
RTVSPost2010Prop34
280
     0
102
RTVSPost2010PropOp34
 70
     1
102
RTVSPost2010Prop35
280
     0
102
RTVSPost2010PropOp35
 70
     1
102
RTVSPost2010Prop36
280
     0
102
RTVSPost2010PropOp36
 70
     1
102
RTVSPost2010Prop37
 90
       50
102
RTVSPost2010PropOp37
 70
     1
102
RTVSPost2010Prop38
140
0.0
102
RTVSPost2010PropOp38
 70
     1
102
RTVSPost2010Prop39
140
1.0
102
RTVSPost2010PropOp39
 70
     1
102
RTVSPost2010Prop40
 90
        0
102
RTVSPost2010PropOp40
 70
     1
102
RTVSPost2010Prop41ColorIndex
 90
       18
102
RTVSPost2010Prop41ColorRGB
 90
        0
102
RTVSPost2010PropOp41
 70
     1
102
RTVSPost2010Prop42
 90
       50
102
RTVSPost2010PropOp42
 70
     1
102
RTVSPost2010Prop43
 90
        3
102
RTVSPost2010PropOp43
 70
     1
102
RTVSPost2010Prop44ColorIndex
 90
        5
102
RTVSPost2010Prop44ColorRGB
 90
      255
102
RTVSPost2010PropOp44
 70
     1
102
RTVSPost2010Prop45
280
     0
102
RTVSPost2010PropOp45
 70
     1
102
RTVSPost2010Prop46
 90
       50
102
RTVSPost2010PropOp46
 70
     1
102
RTVSPost2010Prop47
 90
       50
102
RTVSPost2010PropOp47
 70
     1
102
RTVSPost2010Prop48
 90
       50
102
RTVSPost2010PropOp48
 70
     1
102
RTVSPost2010Prop49
280
     0
102
RTVSPost2010PropOp49
 70
     1
102
RTVSPost2010Prop50
 90
       50
102
RTVSPost2010PropOp50
 70
     1
102
RTVSPost2010Prop51ColorIndex
 90
      256
102
RTVSPost2010Prop51ColorRGB
 90
-16777216
102
RTVSPost2010PropOp51
 70
     0
102
RTVSPost2010Prop52
140
1.0
102
RTVSPost2010PropOp52
 70
     0
102
RTVSPost2010Prop53
 90
        2
102
RTVSPost2010PropOp53
 70
     1
102
RTVSPost2010Prop54
  1
strokes_ogs.tif
102
RTVSPost2010PropOp54
 70
     1
102
RTVSPost2010Prop55
280
     0
102
RTVSPost2010PropOp55
 70
     1
102
RTVSPost2010Prop56
140
1.0
102
RTVSPost2010PropOp56
 70
     1
102
RTVSPost2010Prop57
140
1.0
102
RTVSPost2010PropOp57
 70
     1
  0
XRECORD
  5
3AD
102
{ACAD_REACTORS
330
3AC
102
}
330
3AC
100
AcDbXrecord
280
     1
102
RTVSPropertyOp0
 70
     1
102
RTVSPropertyOp1
 70
     1
102
RTVSPropertyOp2
 70
     1
102
RTVSPropertyOp3
 70
     1
102
RTVSPropertyOp4
 70
     1
102
RTVSPropertyOp5
 70
     1
102
RTVSPropertyOp6
 70
     1
102
RTVSPropertyOp7
 70
     1
102
RTVSPropertyOp8
 70
     1
102
RTVSPropertyOp9
 70
     1
102
RTVSPropertyOp10
 70
     1
102
RTVSPropertyOp11
 70
     1
102
RTVSPropertyOp12
 70
     1
102
RTVSPropertyOp13
 70
     1
102
RTVSPropertyOp14
 70
     1
102
RTVSPropertyOp15
 70
     1
102
RTVSPropertyOp16
 70
     1
102
RTVSPropertyOp17
 70
     1
102
RTVSPropertyOp18
 70
     1
102
RTVSPropertyOp19
 70
     1
102
RTVSPropertyOp20
 70
     1
102
RTVSPropertyOp21
 70
     1
102
RTVSPropertyOp22
 70
     1
102
RTVSPropertyOp23
 70
     1
102
RTVSPropertyOp24
 70
     1
102
RTVSPropertyOp25
 70
     1
102
RTVSPropertyOp26
 70
     1
102
RTVSPropertyOp27
 70
     1
102
RTVSPropertyOp28
 70
     1
102
RTVSPropertyOp29
 70
     1
102
RTVSPropertyOp30
 70
     1
102
RTVSPropertyOp31
 70
     1
102
RTVSPropertyOp32
 70
     1
102
RTVSPropertyOp33
 70
     1
102
RTVSPropertyOp34
 70
     1
102
RTVSPropertyOp35
 70
     1
102
RTVSPropertyOp36
 70
     1
102
RTVSPropertyOp37
 70
     1
102
RTVSPropertyOp38
 70
     1
102
RTVSPropertyOp39
 70
     1
102
RTVSPropertyOp40
 70
     1
102
RTVSPropertyOp41
 70
     1
102
RTVSPropertyOp42
 70
     1
102
RTVSPropertyOp43
 70
     1
102
RTVSPropertyOp44
 70
     1
102
RTVSPropertyOp45
 70
     1
102
RTVSPropertyOp46
 70
     1
102
RTVSPropertyOp47
 70
     1
102
RTVSPropertyOp48
 70
     1
102
RTVSPropertyOp49
 70
     1
102
RTVSPropertyOp50
 70
     1
102
RTVSPropertyOp51
 70
     0
102
RTVSPropertyOp52
 70
     0
102
RTVSPropertyOp53
 70
     1
102
RTVSPropertyOp54
 70
     1
102
RTVSPropertyOp55
 70
     1
102
RTVSPropertyOp56
 70
     1
102
RTVSPropertyOp57
 70
     1
102
RTVSPost2010Prop28
280
     0
102
RTVSPost2010PropOp28
 70
     1
102
RTVSPost2010Prop29
280
     1
102
RTVSPost2010PropOp29
 70
     1
102
RTVSPost2010Prop30
280
     1
102
RTVSPost2010PropOp30
 70
     1
102
RTVSPost2010Prop31
280
     0
102
RTVSPost2010PropOp31
 70
     1
102
RTVSPost2010Prop32
280
     0
102
RTVSPost2010PropOp32
 70
     1
102
RTVSPost2010Prop33
280
     0
102
RTVSPost2010PropOp33
 70
     1
102
RTVSPost2010Prop34
280
     0
102
RTVSPost2010PropOp34
 70
     1
102
RTVSPost2010Prop35
280
     0
102
RTVSPost2010PropOp35
 70
     1
102
RTVSPost2010Prop36
280
     0
102
RTVSPost2010PropOp36
 70
     1
102
RTVSPost2010Prop37
 90
       50
102
RTVSPost2010PropOp37
 70
     1
102
RTVSPost2010Prop38
140
0.0
102
RTVSPost2010PropOp38
 70
     1
102
RTVSPost2010Prop39
140
1.0
102
RTVSPost2010PropOp39
 70
     1
102
RTVSPost2010Prop40
 90
        0
102
RTVSPost2010PropOp40
 70
     1
102
RTVSPost2010Prop41ColorIndex
 90
       18
102
RTVSPost2010Prop41ColorRGB
 90
        0
102
RTVSPost2010PropOp41
 70
     1
102
RTVSPost2010Prop42
 90
       50
102
RTVSPost2010PropOp42
 70
     1
102
RTVSPost2010Prop43
 90
        3
102
RTVSPost2010PropOp43
 70
     1
102
RTVSPost2010Prop44ColorIndex
 90
        5
102
RTVSPost2010Prop44ColorRGB
 90
      255
102
RTVSPost2010PropOp44
 70
     1
102
RTVSPost2010Prop45
280
     0
102
RTVSPost2010PropOp45
 70
     1
102
RTVSPost2010Prop46
 90
       50
102
RTVSPost2010PropOp46
 70
     1
102
RTVSPost2010Prop47
 90
       50
102
RTVSPost2010PropOp47
 70
     1
102
RTVSPost2010Prop48
 90
       50
102
RTVSPost2010PropOp48
 70
     1
102
RTVSPost2010Prop49
280
     0
102
RTVSPost2010PropOp49
 70
     1
102
RTVSPost2010Prop50
 90
       50
102
RTVSPost2010PropOp50
 70
     1
102
RTVSPost2010Prop51ColorIndex
 90
      256
102
RTVSPost2010Prop51ColorRGB
 90
-16777216
102
RTVSPost2010PropOp51
 70
     0
102
RTVSPost2010Prop52
140
1.0
102
RTVSPost2010PropOp52
 70
     0
102
RTVSPost2010Prop53
 90
        2
102
RTVSPost2010PropOp53
 70
     1
102
RTVSPost2010Prop54
  1
strokes_ogs.tif
102
RTVSPost2010PropOp54
 70
     1
102
RTVSPost2010Prop55
280
     0
102
RTVSPost2010PropOp55
 70
     1
102
RTVSPost2010Prop56
140
1.0
102
RTVSPost2010PropOp56
 70
     1
102
RTVSPost2010Prop57
140
1.0
102
RTVSPost2010PropOp57
 70
     1
  0
XRECORD
  5
3BD
102
{ACAD_REACTORS
330
3BC
102
}
330
3BC
100
AcDbXrecord
280
     1
102
RTVSPropertyOp0
 70
     0
102
RTVSPropertyOp1
 70
     0
102
RTVSPropertyOp2
 70
     0
102
RTVSPropertyOp3
 70
     0
102
RTVSPropertyOp4
 70
     0
102
RTVSPropertyOp5
 70
     0
102
RTVSPropertyOp6
 70
     0
102
RTVSPropertyOp7
 70
     0
102
RTVSPropertyOp8
 70
     0
102
RTVSPropertyOp9
 70
     0
102
RTVSPropertyOp10
 70
     0
102
RTVSPropertyOp11
 70
     0
102
RTVSPropertyOp12
 70
     0
102
RTVSPropertyOp13
 70
     0
102
RTVSPropertyOp14
 70
     2
102
RTVSPropertyOp15
 70
     0
102
RTVSPropertyOp16
 70
     0
102
RTVSPropertyOp17
 70
     0
102
RTVSPropertyOp18
 70
     0
102
RTVSPropertyOp19
 70
     0
102
RTVSPropertyOp20
 70
     0
102
RTVSPropertyOp21
 70
     0
102
RTVSPropertyOp22
 70
     0
102
RTVSPropertyOp23
 70
     0
102
RTVSPropertyOp24
 70
     0
102
RTVSPropertyOp25
 70
     0
102
RTVSPropertyOp26
 70
     0
102
RTVSPropertyOp27
 70
     0
102
RTVSPropertyOp28
 70
     0
102
RTVSPropertyOp29
 70
     0
102
RTVSPropertyOp30
 70
     0
102
RTVSPropertyOp31
 70
     0
102
RTVSPropertyOp32
 70
     0
102
RTVSPropertyOp33
 70
     0
102
RTVSPropertyOp34
 70
     0
102
RTVSPropertyOp35
 70
     0
102
RTVSPropertyOp36
 70
     0
102
RTVSPropertyOp37
 70
     0
102
RTVSPropertyOp38
 70
     0
102
RTVSPropertyOp39
 70
     0
102
RTVSPropertyOp40
 70
     0
102
RTVSPropertyOp41
 70
     0
102
RTVSPropertyOp42
 70
     0
102
RTVSPropertyOp43
 70
     0
102
RTVSPropertyOp44
 70
     0
102
RTVSPropertyOp45
 70
     0
102
RTVSPropertyOp46
 70
     0
102
RTVSPropertyOp47
 70
     0
102
RTVSPropertyOp48
 70
     0
102
RTVSPropertyOp49
 70
     0
102
RTVSPropertyOp50
 70
     0
102
RTVSPropertyOp51
 70
     0
102
RTVSPropertyOp52
 70
     0
102
RTVSPropertyOp53
 70
     0
102
RTVSPropertyOp54
 70
     0
102
RTVSPropertyOp55
 70
     0
102
RTVSPropertyOp56
 70
     0
102
RTVSPropertyOp57
 70
     0
102
RTVSPost2010Prop28
280
     0
102
RTVSPost2010PropOp28
 70
     0
102
RTVSPost2010Prop29
280
     1
102
RTVSPost2010PropOp29
 70
     0
102
RTVSPost2010Prop30
280
     1
102
RTVSPost2010PropOp30
 70
     0
102
RTVSPost2010Prop31
280
     0
102
RTVSPost2010PropOp31
 70
     0
102
RTVSPost2010Prop32
280
     0
102
RTVSPost2010PropOp32
 70
     0
102
RTVSPost2010Prop33
280
     0
102
RTVSPost2010PropOp33
 70
     0
102
RTVSPost2010Prop34
280
     0
102
RTVSPost2010PropOp34
 70
     0
102
RTVSPost2010Prop35
280
     0
102
RTVSPost2010PropOp35
 70
     0
102
RTVSPost2010Prop36
280
     0
102
RTVSPost2010PropOp36
 70
     0
102
RTVSPost2010Prop37
 90
       50
102
RTVSPost2010PropOp37
 70
     0
102
RTVSPost2010Prop38
140
0.0
102
RTVSPost2010PropOp38
 70
     0
102
RTVSPost2010Prop39
140
1.0
102
RTVSPost2010PropOp39
 70
     0
102
RTVSPost2010Prop40
 90
        0
102
RTVSPost2010PropOp40
 70
     0
102
RTVSPost2010Prop41ColorIndex
 90
       18
102
RTVSPost2010Prop41ColorRGB
 90
        0
102
RTVSPost2010PropOp41
 70
     0
102
RTVSPost2010Prop42
 90
       50
102
RTVSPost2010PropOp42
 70
     0
102
RTVSPost2010Prop43
 90
        3
102
RTVSPost2010PropOp43
 70
     0
102
RTVSPost2010Prop44ColorIndex
 90
        5
102
RTVSPost2010Prop44ColorRGB
 90
      255
102
RTVSPost2010PropOp44
 70
     0
102
RTVSPost2010Prop45
280
     0
102
RTVSPost2010PropOp45
 70
     0
102
RTVSPost2010Prop46
 90
       50
102
RTVSPost2010PropOp46
 70
     0
102
RTVSPost2010Prop47
 90
       50
102
RTVSPost2010PropOp47
 70
     0
102
RTVSPost2010Prop48
 90
       50
102
RTVSPost2010PropOp48
 70
     0
102
RTVSPost2010Prop49
280
     0
102
RTVSPost2010PropOp49
 70
     0
102
RTVSPost2010Prop50
 90
       50
102
RTVSPost2010PropOp50
 70
     0
102
RTVSPost2010Prop51ColorIndex
 90
      256
102
RTVSPost2010Prop51ColorRGB
 90
-16777216
102
RTVSPost2010PropOp51
 70
     0
102
RTVSPost2010Prop52
140
1.0
102
RTVSPost2010PropOp52
 70
     0
102
RTVSPost2010Prop53
 90
        2
102
RTVSPost2010PropOp53
 70
     0
102
RTVSPost2010Prop54
  1
strokes_ogs.tif
102
RTVSPost2010PropOp54
 70
     0
102
RTVSPost2010Prop55
280
     0
102
RTVSPost2010PropOp55
 70
     0
102
RTVSPost2010Prop56
140
1.0
102
RTVSPost2010PropOp56
 70
     0
102
RTVSPost2010Prop57
140
1.0
102
RTVSPost2010PropOp57
 70
     0
  0
XRECORD
  5
3B5
102
{ACAD_REACTORS
330
3B4
102
}
330
3B4
100
AcDbXrecord
280
     1
102
RTVSPropertyOp0
 70
     1
102
RTVSPropertyOp1
 70
     1
102
RTVSPropertyOp2
 70
     1
102
RTVSPropertyOp3
 70
     1
102
RTVSPropertyOp4
 70
     1
102
RTVSPropertyOp5
 70
     1
102
RTVSPropertyOp6
 70
     1
102
RTVSPropertyOp7
 70
     1
102
RTVSPropertyOp8
 70
     1
102
RTVSPropertyOp9
 70
     1
102
RTVSPropertyOp10
 70
     1
102
RTVSPropertyOp11
 70
     1
102
RTVSPropertyOp12
 70
     1
102
RTVSPropertyOp13
 70
     1
102
RTVSPropertyOp14
 70
     1
102
RTVSPropertyOp15
 70
     1
102
RTVSPropertyOp16
 70
     1
102
RTVSPropertyOp17
 70
     1
102
RTVSPropertyOp18
 70
     1
102
RTVSPropertyOp19
 70
     1
102
RTVSPropertyOp20
 70
     1
102
RTVSPropertyOp21
 70
     1
102
RTVSPropertyOp22
 70
     1
102
RTVSPropertyOp23
 70
     1
102
RTVSPropertyOp24
 70
     1
102
RTVSPropertyOp25
 70
     1
102
RTVSPropertyOp26
 70
     1
102
RTVSPropertyOp27
 70
     1
102
RTVSPropertyOp28
 70
     1
102
RTVSPropertyOp29
 70
     1
102
RTVSPropertyOp30
 70
     1
102
RTVSPropertyOp31
 70
     1
102
RTVSPropertyOp32
 70
     1
102
RTVSPropertyOp33
 70
     1
102
RTVSPropertyOp34
 70
     1
102
RTVSPropertyOp35
 70
     1
102
RTVSPropertyOp36
 70
     1
102
RTVSPropertyOp37
 70
     1
102
RTVSPropertyOp38
 70
     1
102
RTVSPropertyOp39
 70
     1
102
RTVSPropertyOp40
 70
     1
102
RTVSPropertyOp41
 70
     1
102
RTVSPropertyOp42
 70
     1
102
RTVSPropertyOp43
 70
     1
102
RTVSPropertyOp44
 70
     1
102
RTVSPropertyOp45
 70
     1
102
RTVSPropertyOp46
 70
     1
102
RTVSPropertyOp47
 70
     1
102
RTVSPropertyOp48
 70
     1
102
RTVSPropertyOp49
 70
     1
102
RTVSPropertyOp50
 70
     1
102
RTVSPropertyOp51
 70
     0
102
RTVSPropertyOp52
 70
     0
102
RTVSPropertyOp53
 70
     1
102
RTVSPropertyOp54
 70
     1
102
RTVSPropertyOp55
 70
     1
102
RTVSPropertyOp56
 70
     1
102
RTVSPropertyOp57
 70
     1
102
RTVSPost2010Prop28
280
     0
102
RTVSPost2010PropOp28
 70
     1
102
RTVSPost2010Prop29
280
     1
102
RTVSPost2010PropOp29
 70
     1
102
RTVSPost2010Prop30
280
     1
102
RTVSPost2010PropOp30
 70
     1
102
RTVSPost2010Prop31
280
     0
102
RTVSPost2010PropOp31
 70
     1
102
RTVSPost2010Prop32
280
     0
102
RTVSPost2010PropOp32
 70
     1
102
RTVSPost2010Prop33
280
     0
102
RTVSPost2010PropOp33
 70
     1
102
RTVSPost2010Prop34
280
     0
102
RTVSPost2010PropOp34
 70
     1
102
RTVSPost2010Prop35
280
     0
102
RTVSPost2010PropOp35
 70
     1
102
RTVSPost2010Prop36
280
     0
102
RTVSPost2010PropOp36
 70
     1
102
RTVSPost2010Prop37
 90
       50
102
RTVSPost2010PropOp37
 70
     1
102
RTVSPost2010Prop38
140
0.0
102
RTVSPost2010PropOp38
 70
     1
102
RTVSPost2010Prop39
140
1.0
102
RTVSPost2010PropOp39
 70
     1
102
RTVSPost2010Prop40
 90
        0
102
RTVSPost2010PropOp40
 70
     1
102
RTVSPost2010Prop41ColorIndex
 90
       18
102
RTVSPost2010Prop41ColorRGB
 90
        0
102
RTVSPost2010PropOp41
 70
     1
102
RTVSPost2010Prop42
 90
       50
102
RTVSPost2010PropOp42
 70
     1
102
RTVSPost2010Prop43
 90
        3
102
RTVSPost2010PropOp43
 70
     1
102
RTVSPost2010Prop44ColorIndex
 90
        5
102
RTVSPost2010Prop44ColorRGB
 90
      255
102
RTVSPost2010PropOp44
 70
     1
102
RTVSPost2010Prop45
280
     0
102
RTVSPost2010PropOp45
 70
     1
102
RTVSPost2010Prop46
 90
       50
102
RTVSPost2010PropOp46
 70
     1
102
RTVSPost2010Prop47
 90
       50
102
RTVSPost2010PropOp47
 70
     1
102
RTVSPost2010Prop48
 90
       50
102
RTVSPost2010PropOp48
 70
     1
102
RTVSPost2010Prop49
280
     0
102
RTVSPost2010PropOp49
 70
     1
102
RTVSPost2010Prop50
 90
       50
102
RTVSPost2010PropOp50
 70
     1
102
RTVSPost2010Prop51ColorIndex
 90
      256
102
RTVSPost2010Prop51ColorRGB
 90
-16777216
102
RTVSPost2010PropOp51
 70
     0
102
RTVSPost2010Prop52
140
1.0
102
RTVSPost2010PropOp52
 70
     0
102
RTVSPost2010Prop53
 90
        2
102
RTVSPost2010PropOp53
 70
     1
102
RTVSPost2010Prop54
  1
strokes_ogs.tif
102
RTVSPost2010PropOp54
 70
     1
102
RTVSPost2010Prop55
280
     0
102
RTVSPost2010PropOp55
 70
     1
102
RTVSPost2010Prop56
140
1.0
102
RTVSPost2010PropOp56
 70
     1
102
RTVSPost2010Prop57
140
1.0
102
RTVSPost2010PropOp57
 70
     1
  0
XRECORD
  5
399
102
{ACAD_REACTORS
330
398
102
}
330
398
100
AcDbXrecord
280
     1
102
RTVSPropertyOp0
 70
     1
102
RTVSPropertyOp1
 70
     1
102
RTVSPropertyOp2
 70
     1
102
RTVSPropertyOp3
 70
     1
102
RTVSPropertyOp4
 70
     1
102
RTVSPropertyOp5
 70
     1
102
RTVSPropertyOp6
 70
     1
102
RTVSPropertyOp7
 70
     1
102
RTVSPropertyOp8
 70
     1
102
RTVSPropertyOp9
 70
     1
102
RTVSPropertyOp10
 70
     1
102
RTVSPropertyOp11
 70
     1
102
RTVSPropertyOp12
 70
     1
102
RTVSPropertyOp13
 70
     1
102
RTVSPropertyOp14
 70
     1
102
RTVSPropertyOp15
 70
     1
102
RTVSPropertyOp16
 70
     1
102
RTVSPropertyOp17
 70
     1
102
RTVSPropertyOp18
 70
     1
102
RTVSPropertyOp19
 70
     1
102
RTVSPropertyOp20
 70
     1
102
RTVSPropertyOp21
 70
     1
102
RTVSPropertyOp22
 70
     1
102
RTVSPropertyOp23
 70
     1
102
RTVSPropertyOp24
 70
     1
102
RTVSPropertyOp25
 70
     1
102
RTVSPropertyOp26
 70
     1
102
RTVSPropertyOp27
 70
     1
102
RTVSPropertyOp28
 70
     1
102
RTVSPropertyOp29
 70
     1
102
RTVSPropertyOp30
 70
     1
102
RTVSPropertyOp31
 70
     1
102
RTVSPropertyOp32
 70
     1
102
RTVSPropertyOp33
 70
     1
102
RTVSPropertyOp34
 70
     1
102
RTVSPropertyOp35
 70
     1
102
RTVSPropertyOp36
 70
     1
102
RTVSPropertyOp37
 70
     1
102
RTVSPropertyOp38
 70
     1
102
RTVSPropertyOp39
 70
     1
102
RTVSPropertyOp40
 70
     1
102
RTVSPropertyOp41
 70
     1
102
RTVSPropertyOp42
 70
     1
102
RTVSPropertyOp43
 70
     1
102
RTVSPropertyOp44
 70
     1
102
RTVSPropertyOp45
 70
     1
102
RTVSPropertyOp46
 70
     1
102
RTVSPropertyOp47
 70
     1
102
RTVSPropertyOp48
 70
     1
102
RTVSPropertyOp49
 70
     1
102
RTVSPropertyOp50
 70
     1
102
RTVSPropertyOp51
 70
     0
102
RTVSPropertyOp52
 70
     0
102
RTVSPropertyOp53
 70
     1
102
RTVSPropertyOp54
 70
     1
102
RTVSPropertyOp55
 70
     1
102
RTVSPropertyOp56
 70
     1
102
RTVSPropertyOp57
 70
     1
102
RTVSPost2010Prop28
280
     0
102
RTVSPost2010PropOp28
 70
     1
102
RTVSPost2010Prop29
280
     1
102
RTVSPost2010PropOp29
 70
     1
102
RTVSPost2010Prop30
280
     1
102
RTVSPost2010PropOp30
 70
     1
102
RTVSPost2010Prop31
280
     0
102
RTVSPost2010PropOp31
 70
     1
102
RTVSPost2010Prop32
280
     0
102
RTVSPost2010PropOp32
 70
     1
102
RTVSPost2010Prop33
280
     0
102
RTVSPost2010PropOp33
 70
     1
102
RTVSPost2010Prop34
280
     0
102
RTVSPost2010PropOp34
 70
     1
102
RTVSPost2010Prop35
280
     0
102
RTVSPost2010PropOp35
 70
     1
102
RTVSPost2010Prop36
280
     0
102
RTVSPost2010PropOp36
 70
     1
102
RTVSPost2010Prop37
 90
       50
102
RTVSPost2010PropOp37
 70
     1
102
RTVSPost2010Prop38
140
0.0
102
RTVSPost2010PropOp38
 70
     1
102
RTVSPost2010Prop39
140
1.0
102
RTVSPost2010PropOp39
 70
     1
102
RTVSPost2010Prop40
 90
        0
102
RTVSPost2010PropOp40
 70
     1
102
RTVSPost2010Prop41ColorIndex
 90
       18
102
RTVSPost2010Prop41ColorRGB
 90
        0
102
RTVSPost2010PropOp41
 70
     1
102
RTVSPost2010Prop42
 90
       50
102
RTVSPost2010PropOp42
 70
     1
102
RTVSPost2010Prop43
 90
        3
102
RTVSPost2010PropOp43
 70
     1
102
RTVSPost2010Prop44ColorIndex
 90
        5
102
RTVSPost2010Prop44ColorRGB
 90
      255
102
RTVSPost2010PropOp44
 70
     1
102
RTVSPost2010Prop45
280
     0
102
RTVSPost2010PropOp45
 70
     1
102
RTVSPost2010Prop46
 90
       50
102
RTVSPost2010PropOp46
 70
     1
102
RTVSPost2010Prop47
 90
       50
102
RTVSPost2010PropOp47
 70
     1
102
RTVSPost2010Prop48
 90
       50
102
RTVSPost2010PropOp48
 70
     1
102
RTVSPost2010Prop49
280
     0
102
RTVSPost2010PropOp49
 70
     1
102
RTVSPost2010Prop50
 90
       50
102
RTVSPost2010PropOp50
 70
     1
102
RTVSPost2010Prop51ColorIndex
 90
      256
102
RTVSPost2010Prop51ColorRGB
 90
-16777216
102
RTVSPost2010PropOp51
 70
     0
102
RTVSPost2010Prop52
140
1.0
102
RTVSPost2010PropOp52
 70
     0
102
RTVSPost2010Prop53
 90
        2
102
RTVSPost2010PropOp53
 70
     1
102
RTVSPost2010Prop54
  1
strokes_ogs.tif
102
RTVSPost2010PropOp54
 70
     1
102
RTVSPost2010Prop55
280
     0
102
RTVSPost2010PropOp55
 70
     1
102
RTVSPost2010Prop56
140
1.0
102
RTVSPost2010PropOp56
 70
     1
102
RTVSPost2010Prop57
140
1.0
102
RTVSPost2010PropOp57
 70
     1
  0
XRECORD
  5
39B
102
{ACAD_REACTORS
330
39A
102
}
330
39A
100
AcDbXrecord
280
     1
102
RTVSPropertyOp0
 70
     1
102
RTVSPropertyOp1
 70
     1
102
RTVSPropertyOp2
 70
     1
102
RTVSPropertyOp3
 70
     1
102
RTVSPropertyOp4
 70
     1
102
RTVSPropertyOp5
 70
     1
102
RTVSPropertyOp6
 70
     1
102
RTVSPropertyOp7
 70
     1
102
RTVSPropertyOp8
 70
     1
102
RTVSPropertyOp9
 70
     1
102
RTVSPropertyOp10
 70
     1
102
RTVSPropertyOp11
 70
     1
102
RTVSPropertyOp12
 70
     1
102
RTVSPropertyOp13
 70
     1
102
RTVSPropertyOp14
 70
     1
102
RTVSPropertyOp15
 70
     1
102
RTVSPropertyOp16
 70
     1
102
RTVSPropertyOp17
 70
     1
102
RTVSPropertyOp18
 70
     1
102
RTVSPropertyOp19
 70
     1
102
RTVSPropertyOp20
 70
     1
102
RTVSPropertyOp21
 70
     1
102
RTVSPropertyOp22
 70
     1
102
RTVSPropertyOp23
 70
     1
102
RTVSPropertyOp24
 70
     1
102
RTVSPropertyOp25
 70
     1
102
RTVSPropertyOp26
 70
     1
102
RTVSPropertyOp27
 70
     1
102
RTVSPropertyOp28
 70
     1
102
RTVSPropertyOp29
 70
     1
102
RTVSPropertyOp30
 70
     1
102
RTVSPropertyOp31
 70
     1
102
RTVSPropertyOp32
 70
     1
102
RTVSPropertyOp33
 70
     1
102
RTVSPropertyOp34
 70
     1
102
RTVSPropertyOp35
 70
     1
102
RTVSPropertyOp36
 70
     1
102
RTVSPropertyOp37
 70
     1
102
RTVSPropertyOp38
 70
     1
102
RTVSPropertyOp39
 70
     1
102
RTVSPropertyOp40
 70
     1
102
RTVSPropertyOp41
 70
     1
102
RTVSPropertyOp42
 70
     1
102
RTVSPropertyOp43
 70
     1
102
RTVSPropertyOp44
 70
     1
102
RTVSPropertyOp45
 70
     1
102
RTVSPropertyOp46
 70
     1
102
RTVSPropertyOp47
 70
     1
102
RTVSPropertyOp48
 70
     1
102
RTVSPropertyOp49
 70
     1
102
RTVSPropertyOp50
 70
     1
102
RTVSPropertyOp51
 70
     0
102
RTVSPropertyOp52
 70
     0
102
RTVSPropertyOp53
 70
     1
102
RTVSPropertyOp54
 70
     1
102
RTVSPropertyOp55
 70
     1
102
RTVSPropertyOp56
 70
     1
102
RTVSPropertyOp57
 70
     1
102
RTVSPost2010Prop28
280
     0
102
RTVSPost2010PropOp28
 70
     1
102
RTVSPost2010Prop29
280
     1
102
RTVSPost2010PropOp29
 70
     1
102
RTVSPost2010Prop30
280
     1
102
RTVSPost2010PropOp30
 70
     1
102
RTVSPost2010Prop31
280
     0
102
RTVSPost2010PropOp31
 70
     1
102
RTVSPost2010Prop32
280
     0
102
RTVSPost2010PropOp32
 70
     1
102
RTVSPost2010Prop33
280
     0
102
RTVSPost2010PropOp33
 70
     1
102
RTVSPost2010Prop34
280
     0
102
RTVSPost2010PropOp34
 70
     1
102
RTVSPost2010Prop35
280
     0
102
RTVSPost2010PropOp35
 70
     1
102
RTVSPost2010Prop36
280
     0
102
RTVSPost2010PropOp36
 70
     1
102
RTVSPost2010Prop37
 90
       50
102
RTVSPost2010PropOp37
 70
     1
102
RTVSPost2010Prop38
140
0.0
102
RTVSPost2010PropOp38
 70
     1
102
RTVSPost2010Prop39
140
1.0
102
RTVSPost2010PropOp39
 70
     1
102
RTVSPost2010Prop40
 90
        0
102
RTVSPost2010PropOp40
 70
     1
102
RTVSPost2010Prop41ColorIndex
 90
       18
102
RTVSPost2010Prop41ColorRGB
 90
        0
102
RTVSPost2010PropOp41
 70
     1
102
RTVSPost2010Prop42
 90
       50
102
RTVSPost2010PropOp42
 70
     1
102
RTVSPost2010Prop43
 90
        3
102
RTVSPost2010PropOp43
 70
     1
102
RTVSPost2010Prop44ColorIndex
 90
        5
102
RTVSPost2010Prop44ColorRGB
 90
      255
102
RTVSPost2010PropOp44
 70
     1
102
RTVSPost2010Prop45
280
     0
102
RTVSPost2010PropOp45
 70
     1
102
RTVSPost2010Prop46
 90
       50
102
RTVSPost2010PropOp46
 70
     1
102
RTVSPost2010Prop47
 90
       50
102
RTVSPost2010PropOp47
 70
     1
102
RTVSPost2010Prop48
 90
       50
102
RTVSPost2010PropOp48
 70
     1
102
RTVSPost2010Prop49
280
     0
102
RTVSPost2010PropOp49
 70
     1
102
RTVSPost2010Prop50
 90
       50
102
RTVSPost2010PropOp50
 70
     1
102
RTVSPost2010Prop51ColorIndex
 90
      256
102
RTVSPost2010Prop51ColorRGB
 90
-16777216
102
RTVSPost2010PropOp51
 70
     0
102
RTVSPost2010Prop52
140
1.0
102
RTVSPost2010PropOp52
 70
     0
102
RTVSPost2010Prop53
 90
        2
102
RTVSPost2010PropOp53
 70
     1
102
RTVSPost2010Prop54
  1
strokes_ogs.tif
102
RTVSPost2010PropOp54
 70
     1
102
RTVSPost2010Prop55
280
     0
102
RTVSPost2010PropOp55
 70
     1
102
RTVSPost2010Prop56
140
1.0
102
RTVSPost2010PropOp56
 70
     1
102
RTVSPost2010Prop57
140
1.0
102
RTVSPost2010PropOp57
 70
     1
  0
XRECORD
  5
39D
102
{ACAD_REACTORS
330
39C
102
}
330
39C
100
AcDbXrecord
280
     1
102
RTVSPropertyOp0
 70
     1
102
RTVSPropertyOp1
 70
     1
102
RTVSPropertyOp2
 70
     1
102
RTVSPropertyOp3
 70
     1
102
RTVSPropertyOp4
 70
     1
102
RTVSPropertyOp5
 70
     1
102
RTVSPropertyOp6
 70
     1
102
RTVSPropertyOp7
 70
     1
102
RTVSPropertyOp8
 70
     1
102
RTVSPropertyOp9
 70
     1
102
RTVSPropertyOp10
 70
     1
102
RTVSPropertyOp11
 70
     1
102
RTVSPropertyOp12
 70
     1
102
RTVSPropertyOp13
 70
     1
102
RTVSPropertyOp14
 70
     1
102
RTVSPropertyOp15
 70
     1
102
RTVSPropertyOp16
 70
     1
102
RTVSPropertyOp17
 70
     1
102
RTVSPropertyOp18
 70
     1
102
RTVSPropertyOp19
 70
     1
102
RTVSPropertyOp20
 70
     1
102
RTVSPropertyOp21
 70
     1
102
RTVSPropertyOp22
 70
     1
102
RTVSPropertyOp23
 70
     1
102
RTVSPropertyOp24
 70
     1
102
RTVSPropertyOp25
 70
     1
102
RTVSPropertyOp26
 70
     1
102
RTVSPropertyOp27
 70
     1
102
RTVSPropertyOp28
 70
     1
102
RTVSPropertyOp29
 70
     1
102
RTVSPropertyOp30
 70
     1
102
RTVSPropertyOp31
 70
     1
102
RTVSPropertyOp32
 70
     1
102
RTVSPropertyOp33
 70
     1
102
RTVSPropertyOp34
 70
     1
102
RTVSPropertyOp35
 70
     1
102
RTVSPropertyOp36
 70
     1
102
RTVSPropertyOp37
 70
     1
102
RTVSPropertyOp38
 70
     1
102
RTVSPropertyOp39
 70
     1
102
RTVSPropertyOp40
 70
     1
102
RTVSPropertyOp41
 70
     1
102
RTVSPropertyOp42
 70
     1
102
RTVSPropertyOp43
 70
     1
102
RTVSPropertyOp44
 70
     1
102
RTVSPropertyOp45
 70
     1
102
RTVSPropertyOp46
 70
     1
102
RTVSPropertyOp47
 70
     1
102
RTVSPropertyOp48
 70
     1
102
RTVSPropertyOp49
 70
     1
102
RTVSPropertyOp50
 70
     1
102
RTVSPropertyOp51
 70
     0
102
RTVSPropertyOp52
 70
     0
102
RTVSPropertyOp53
 70
     1
102
RTVSPropertyOp54
 70
     1
102
RTVSPropertyOp55
 70
     1
102
RTVSPropertyOp56
 70
     1
102
RTVSPropertyOp57
 70
     1
102
RTVSPost2010Prop28
280
     0
102
RTVSPost2010PropOp28
 70
     1
102
RTVSPost2010Prop29
280
     1
102
RTVSPost2010PropOp29
 70
     1
102
RTVSPost2010Prop30
280
     1
102
RTVSPost2010PropOp30
 70
     1
102
RTVSPost2010Prop31
280
     0
102
RTVSPost2010PropOp31
 70
     1
102
RTVSPost2010Prop32
280
     0
102
RTVSPost2010PropOp32
 70
     1
102
RTVSPost2010Prop33
280
     0
102
RTVSPost2010PropOp33
 70
     1
102
RTVSPost2010Prop34
280
     0
102
RTVSPost2010PropOp34
 70
     1
102
RTVSPost2010Prop35
280
     0
102
RTVSPost2010PropOp35
 70
     1
102
RTVSPost2010Prop36
280
     0
102
RTVSPost2010PropOp36
 70
     1
102
RTVSPost2010Prop37
 90
       50
102
RTVSPost2010PropOp37
 70
     1
102
RTVSPost2010Prop38
140
0.0
102
RTVSPost2010PropOp38
 70
     1
102
RTVSPost2010Prop39
140
1.0
102
RTVSPost2010PropOp39
 70
     1
102
RTVSPost2010Prop40
 90
        0
102
RTVSPost2010PropOp40
 70
     1
102
RTVSPost2010Prop41ColorIndex
 90
       18
102
RTVSPost2010Prop41ColorRGB
 90
        0
102
RTVSPost2010PropOp41
 70
     1
102
RTVSPost2010Prop42
 90
       50
102
RTVSPost2010PropOp42
 70
     1
102
RTVSPost2010Prop43
 90
        3
102
RTVSPost2010PropOp43
 70
     1
102
RTVSPost2010Prop44ColorIndex
 90
        5
102
RTVSPost2010Prop44ColorRGB
 90
      255
102
RTVSPost2010PropOp44
 70
     1
102
RTVSPost2010Prop45
280
     0
102
RTVSPost2010PropOp45
 70
     1
102
RTVSPost2010Prop46
 90
       50
102
RTVSPost2010PropOp46
 70
     1
102
RTVSPost2010Prop47
 90
       50
102
RTVSPost2010PropOp47
 70
     1
102
RTVSPost2010Prop48
 90
       50
102
RTVSPost2010PropOp48
 70
     1
102
RTVSPost2010Prop49
280
     0
102
RTVSPost2010PropOp49
 70
     1
102
RTVSPost2010Prop50
 90
       50
102
RTVSPost2010PropOp50
 70
     1
102
RTVSPost2010Prop51ColorIndex
 90
      256
102
RTVSPost2010Prop51ColorRGB
 90
-16777216
102
RTVSPost2010PropOp51
 70
     0
102
RTVSPost2010Prop52
140
1.0
102
RTVSPost2010PropOp52
 70
     0
102
RTVSPost2010Prop53
 90
        2
102
RTVSPost2010PropOp53
 70
     1
102
RTVSPost2010Prop54
  1
strokes_ogs.tif
102
RTVSPost2010PropOp54
 70
     1
102
RTVSPost2010Prop55
280
     0
102
RTVSPost2010PropOp55
 70
     1
102
RTVSPost2010Prop56
140
1.0
102
RTVSPost2010PropOp56
 70
     1
102
RTVSPost2010Prop57
140
1.0
102
RTVSPost2010PropOp57
 70
     1
  0
XRECORD
  5
39F
102
{ACAD_REACTORS
330
39E
102
}
330
39E
100
AcDbXrecord
280
     1
102
RTVSPropertyOp0
 70
     1
102
RTVSPropertyOp1
 70
     1
102
RTVSPropertyOp2
 70
     1
102
RTVSPropertyOp3
 70
     1
102
RTVSPropertyOp4
 70
     1
102
RTVSPropertyOp5
 70
     1
102
RTVSPropertyOp6
 70
     1
102
RTVSPropertyOp7
 70
     1
102
RTVSPropertyOp8
 70
     1
102
RTVSPropertyOp9
 70
     1
102
RTVSPropertyOp10
 70
     1
102
RTVSPropertyOp11
 70
     1
102
RTVSPropertyOp12
 70
     1
102
RTVSPropertyOp13
 70
     1
102
RTVSPropertyOp14
 70
     1
102
RTVSPropertyOp15
 70
     1
102
RTVSPropertyOp16
 70
     1
102
RTVSPropertyOp17
 70
     1
102
RTVSPropertyOp18
 70
     1
102
RTVSPropertyOp19
 70
     1
102
RTVSPropertyOp20
 70
     1
102
RTVSPropertyOp21
 70
     1
102
RTVSPropertyOp22
 70
     1
102
RTVSPropertyOp23
 70
     1
102
RTVSPropertyOp24
 70
     1
102
RTVSPropertyOp25
 70
     1
102
RTVSPropertyOp26
 70
     1
102
RTVSPropertyOp27
 70
     1
102
RTVSPropertyOp28
 70
     1
102
RTVSPropertyOp29
 70
     1
102
RTVSPropertyOp30
 70
     1
102
RTVSPropertyOp31
 70
     1
102
RTVSPropertyOp32
 70
     1
102
RTVSPropertyOp33
 70
     1
102
RTVSPropertyOp34
 70
     1
102
RTVSPropertyOp35
 70
     1
102
RTVSPropertyOp36
 70
     1
102
RTVSPropertyOp37
 70
     1
102
RTVSPropertyOp38
 70
     1
102
RTVSPropertyOp39
 70
     1
102
RTVSPropertyOp40
 70
     1
102
RTVSPropertyOp41
 70
     1
102
RTVSPropertyOp42
 70
     1
102
RTVSPropertyOp43
 70
     1
102
RTVSPropertyOp44
 70
     1
102
RTVSPropertyOp45
 70
     1
102
RTVSPropertyOp46
 70
     1
102
RTVSPropertyOp47
 70
     1
102
RTVSPropertyOp48
 70
     1
102
RTVSPropertyOp49
 70
     1
102
RTVSPropertyOp50
 70
     1
102
RTVSPropertyOp51
 70
     0
102
RTVSPropertyOp52
 70
     0
102
RTVSPropertyOp53
 70
     1
102
RTVSPropertyOp54
 70
     1
102
RTVSPropertyOp55
 70
     1
102
RTVSPropertyOp56
 70
     1
102
RTVSPropertyOp57
 70
     1
102
RTVSPost2010Prop28
280
     0
102
RTVSPost2010PropOp28
 70
     1
102
RTVSPost2010Prop29
280
     1
102
RTVSPost2010PropOp29
 70
     1
102
RTVSPost2010Prop30
280
     1
102
RTVSPost2010PropOp30
 70
     1
102
RTVSPost2010Prop31
280
     0
102
RTVSPost2010PropOp31
 70
     1
102
RTVSPost2010Prop32
280
     0
102
RTVSPost2010PropOp32
 70
     1
102
RTVSPost2010Prop33
280
     0
102
RTVSPost2010PropOp33
 70
     1
102
RTVSPost2010Prop34
280
     0
102
RTVSPost2010PropOp34
 70
     1
102
RTVSPost2010Prop35
280
     0
102
RTVSPost2010PropOp35
 70
     1
102
RTVSPost2010Prop36
280
     0
102
RTVSPost2010PropOp36
 70
     1
102
RTVSPost2010Prop37
 90
       50
102
RTVSPost2010PropOp37
 70
     1
102
RTVSPost2010Prop38
140
0.0
102
RTVSPost2010PropOp38
 70
     1
102
RTVSPost2010Prop39
140
1.0
102
RTVSPost2010PropOp39
 70
     1
102
RTVSPost2010Prop40
 90
        0
102
RTVSPost2010PropOp40
 70
     1
102
RTVSPost2010Prop41ColorIndex
 90
       18
102
RTVSPost2010Prop41ColorRGB
 90
        0
102
RTVSPost2010PropOp41
 70
     1
102
RTVSPost2010Prop42
 90
       50
102
RTVSPost2010PropOp42
 70
     1
102
RTVSPost2010Prop43
 90
        3
102
RTVSPost2010PropOp43
 70
     1
102
RTVSPost2010Prop44ColorIndex
 90
        5
102
RTVSPost2010Prop44ColorRGB
 90
      255
102
RTVSPost2010PropOp44
 70
     1
102
RTVSPost2010Prop45
280
     0
102
RTVSPost2010PropOp45
 70
     1
102
RTVSPost2010Prop46
 90
       50
102
RTVSPost2010PropOp46
 70
     1
102
RTVSPost2010Prop47
 90
       50
102
RTVSPost2010PropOp47
 70
     1
102
RTVSPost2010Prop48
 90
       50
102
RTVSPost2010PropOp48
 70
     1
102
RTVSPost2010Prop49
280
     0
102
RTVSPost2010PropOp49
 70
     1
102
RTVSPost2010Prop50
 90
       50
102
RTVSPost2010PropOp50
 70
     1
102
RTVSPost2010Prop51ColorIndex
 90
      256
102
RTVSPost2010Prop51ColorRGB
 90
-16777216
102
RTVSPost2010PropOp51
 70
     0
102
RTVSPost2010Prop52
140
1.0
102
RTVSPost2010PropOp52
 70
     0
102
RTVSPost2010Prop53
 90
        2
102
RTVSPost2010PropOp53
 70
     1
102
RTVSPost2010Prop54
  1
strokes_ogs.tif
102
RTVSPost2010PropOp54
 70
     1
102
RTVSPost2010Prop55
280
     0
102
RTVSPost2010PropOp55
 70
     1
102
RTVSPost2010Prop56
140
1.0
102
RTVSPost2010PropOp56
 70
     1
102
RTVSPost2010Prop57
140
1.0
102
RTVSPost2010PropOp57
 70
     1
  0
XRECORD
  5
3A5
102
{ACAD_REACTORS
330
3A4
102
}
330
3A4
100
AcDbXrecord
280
     1
102
RTVSPropertyOp0
 70
     1
102
RTVSPropertyOp1
 70
     1
102
RTVSPropertyOp2
 70
     1
102
RTVSPropertyOp3
 70
     1
102
RTVSPropertyOp4
 70
     1
102
RTVSPropertyOp5
 70
     1
102
RTVSPropertyOp6
 70
     1
102
RTVSPropertyOp7
 70
     1
102
RTVSPropertyOp8
 70
     1
102
RTVSPropertyOp9
 70
     1
102
RTVSPropertyOp10
 70
     1
102
RTVSPropertyOp11
 70
     1
102
RTVSPropertyOp12
 70
     1
102
RTVSPropertyOp13
 70
     1
102
RTVSPropertyOp14
 70
     1
102
RTVSPropertyOp15
 70
     1
102
RTVSPropertyOp16
 70
     1
102
RTVSPropertyOp17
 70
     1
102
RTVSPropertyOp18
 70
     1
102
RTVSPropertyOp19
 70
     1
102
RTVSPropertyOp20
 70
     1
102
RTVSPropertyOp21
 70
     1
102
RTVSPropertyOp22
 70
     1
102
RTVSPropertyOp23
 70
     1
102
RTVSPropertyOp24
 70
     1
102
RTVSPropertyOp25
 70
     1
102
RTVSPropertyOp26
 70
     1
102
RTVSPropertyOp27
 70
     1
102
RTVSPropertyOp28
 70
     1
102
RTVSPropertyOp29
 70
     1
102
RTVSPropertyOp30
 70
     1
102
RTVSPropertyOp31
 70
     1
102
RTVSPropertyOp32
 70
     1
102
RTVSPropertyOp33
 70
     1
102
RTVSPropertyOp34
 70
     1
102
RTVSPropertyOp35
 70
     1
102
RTVSPropertyOp36
 70
     1
102
RTVSPropertyOp37
 70
     1
102
RTVSPropertyOp38
 70
     1
102
RTVSPropertyOp39
 70
     1
102
RTVSPropertyOp40
 70
     1
102
RTVSPropertyOp41
 70
     1
102
RTVSPropertyOp42
 70
     1
102
RTVSPropertyOp43
 70
     1
102
RTVSPropertyOp44
 70
     1
102
RTVSPropertyOp45
 70
     1
102
RTVSPropertyOp46
 70
     1
102
RTVSPropertyOp47
 70
     1
102
RTVSPropertyOp48
 70
     1
102
RTVSPropertyOp49
 70
     1
102
RTVSPropertyOp50
 70
     1
102
RTVSPropertyOp51
 70
     0
102
RTVSPropertyOp52
 70
     0
102
RTVSPropertyOp53
 70
     1
102
RTVSPropertyOp54
 70
     1
102
RTVSPropertyOp55
 70
     1
102
RTVSPropertyOp56
 70
     1
102
RTVSPropertyOp57
 70
     1
102
RTVSPost2010Prop28
280
     0
102
RTVSPost2010PropOp28
 70
     1
102
RTVSPost2010Prop29
280
     1
102
RTVSPost2010PropOp29
 70
     1
102
RTVSPost2010Prop30
280
     1
102
RTVSPost2010PropOp30
 70
     1
102
RTVSPost2010Prop31
280
     0
102
RTVSPost2010PropOp31
 70
     1
102
RTVSPost2010Prop32
280
     0
102
RTVSPost2010PropOp32
 70
     1
102
RTVSPost2010Prop33
280
     0
102
RTVSPost2010PropOp33
 70
     1
102
RTVSPost2010Prop34
280
     0
102
RTVSPost2010PropOp34
 70
     1
102
RTVSPost2010Prop35
280
     0
102
RTVSPost2010PropOp35
 70
     1
102
RTVSPost2010Prop36
280
     0
102
RTVSPost2010PropOp36
 70
     1
102
RTVSPost2010Prop37
 90
       50
102
RTVSPost2010PropOp37
 70
     1
102
RTVSPost2010Prop38
140
0.0
102
RTVSPost2010PropOp38
 70
     1
102
RTVSPost2010Prop39
140
1.0
102
RTVSPost2010PropOp39
 70
     1
102
RTVSPost2010Prop40
 90
        0
102
RTVSPost2010PropOp40
 70
     1
102
RTVSPost2010Prop41ColorIndex
 90
       18
102
RTVSPost2010Prop41ColorRGB
 90
        0
102
RTVSPost2010PropOp41
 70
     1
102
RTVSPost2010Prop42
 90
       50
102
RTVSPost2010PropOp42
 70
     1
102
RTVSPost2010Prop43
 90
        3
102
RTVSPost2010PropOp43
 70
     1
102
RTVSPost2010Prop44ColorIndex
 90
        5
102
RTVSPost2010Prop44ColorRGB
 90
      255
102
RTVSPost2010PropOp44
 70
     1
102
RTVSPost2010Prop45
280
     0
102
RTVSPost2010PropOp45
 70
     1
102
RTVSPost2010Prop46
 90
       50
102
RTVSPost2010PropOp46
 70
     1
102
RTVSPost2010Prop47
 90
       50
102
RTVSPost2010PropOp47
 70
     1
102
RTVSPost2010Prop48
 90
       50
102
RTVSPost2010PropOp48
 70
     1
102
RTVSPost2010Prop49
280
     0
102
RTVSPost2010PropOp49
 70
     1
102
RTVSPost2010Prop50
 90
       50
102
RTVSPost2010PropOp50
 70
     1
102
RTVSPost2010Prop51ColorIndex
 90
      256
102
RTVSPost2010Prop51ColorRGB
 90
-16777216
102
RTVSPost2010PropOp51
 70
     0
102
RTVSPost2010Prop52
140
1.0
102
RTVSPost2010PropOp52
 70
     0
102
RTVSPost2010Prop53
 90
        2
102
RTVSPost2010PropOp53
 70
     1
102
RTVSPost2010Prop54
  1
strokes_ogs.tif
102
RTVSPost2010PropOp54
 70
     1
102
RTVSPost2010Prop55
280
     0
102
RTVSPost2010PropOp55
 70
     1
102
RTVSPost2010Prop56
140
1.0
102
RTVSPost2010PropOp56
 70
     1
102
RTVSPost2010Prop57
140
1.0
102
RTVSPost2010PropOp57
 70
     1
  0
XRECORD
  5
3B9
102
{ACAD_REACTORS
330
3B8
102
}
330
3B8
100
AcDbXrecord
280
     1
102
RTVSPropertyOp0
 70
     0
102
RTVSPropertyOp1
 70
     0
102
RTVSPropertyOp2
 70
     0
102
RTVSPropertyOp3
 70
     0
102
RTVSPropertyOp4
 70
     0
102
RTVSPropertyOp5
 70
     0
102
RTVSPropertyOp6
 70
     0
102
RTVSPropertyOp7
 70
     0
102
RTVSPropertyOp8
 70
     0
102
RTVSPropertyOp9
 70
     0
102
RTVSPropertyOp10
 70
     0
102
RTVSPropertyOp11
 70
     0
102
RTVSPropertyOp12
 70
     0
102
RTVSPropertyOp13
 70
     0
102
RTVSPropertyOp14
 70
     2
102
RTVSPropertyOp15
 70
     0
102
RTVSPropertyOp16
 70
     0
102
RTVSPropertyOp17
 70
     0
102
RTVSPropertyOp18
 70
     0
102
RTVSPropertyOp19
 70
     0
102
RTVSPropertyOp20
 70
     0
102
RTVSPropertyOp21
 70
     0
102
RTVSPropertyOp22
 70
     0
102
RTVSPropertyOp23
 70
     0
102
RTVSPropertyOp24
 70
     0
102
RTVSPropertyOp25
 70
     0
102
RTVSPropertyOp26
 70
     0
102
RTVSPropertyOp27
 70
     0
102
RTVSPropertyOp28
 70
     0
102
RTVSPropertyOp29
 70
     0
102
RTVSPropertyOp30
 70
     0
102
RTVSPropertyOp31
 70
     0
102
RTVSPropertyOp32
 70
     0
102
RTVSPropertyOp33
 70
     0
102
RTVSPropertyOp34
 70
     0
102
RTVSPropertyOp35
 70
     0
102
RTVSPropertyOp36
 70
     0
102
RTVSPropertyOp37
 70
     0
102
RTVSPropertyOp38
 70
     0
102
RTVSPropertyOp39
 70
     0
102
RTVSPropertyOp40
 70
     0
102
RTVSPropertyOp41
 70
     0
102
RTVSPropertyOp42
 70
     0
102
RTVSPropertyOp43
 70
     0
102
RTVSPropertyOp44
 70
     0
102
RTVSPropertyOp45
 70
     0
102
RTVSPropertyOp46
 70
     0
102
RTVSPropertyOp47
 70
     0
102
RTVSPropertyOp48
 70
     0
102
RTVSPropertyOp49
 70
     0
102
RTVSPropertyOp50
 70
     0
102
RTVSPropertyOp51
 70
     0
102
RTVSPropertyOp52
 70
     0
102
RTVSPropertyOp53
 70
     0
102
RTVSPropertyOp54
 70
     0
102
RTVSPropertyOp55
 70
     0
102
RTVSPropertyOp56
 70
     0
102
RTVSPropertyOp57
 70
     0
102
RTVSPost2010Prop28
280
     0
102
RTVSPost2010PropOp28
 70
     0
102
RTVSPost2010Prop29
280
     1
102
RTVSPost2010PropOp29
 70
     0
102
RTVSPost2010Prop30
280
     1
102
RTVSPost2010PropOp30
 70
     0
102
RTVSPost2010Prop31
280
     0
102
RTVSPost2010PropOp31
 70
     0
102
RTVSPost2010Prop32
280
     0
102
RTVSPost2010PropOp32
 70
     0
102
RTVSPost2010Prop33
280
     0
102
RTVSPost2010PropOp33
 70
     0
102
RTVSPost2010Prop34
280
     0
102
RTVSPost2010PropOp34
 70
     0
102
RTVSPost2010Prop35
280
     0
102
RTVSPost2010PropOp35
 70
     0
102
RTVSPost2010Prop36
280
     0
102
RTVSPost2010PropOp36
 70
     0
102
RTVSPost2010Prop37
 90
       50
102
RTVSPost2010PropOp37
 70
     0
102
RTVSPost2010Prop38
140
0.0
102
RTVSPost2010PropOp38
 70
     0
102
RTVSPost2010Prop39
140
1.0
102
RTVSPost2010PropOp39
 70
     0
102
RTVSPost2010Prop40
 90
        0
102
RTVSPost2010PropOp40
 70
     0
102
RTVSPost2010Prop41ColorIndex
 90
       18
102
RTVSPost2010Prop41ColorRGB
 90
        0
102
RTVSPost2010PropOp41
 70
     0
102
RTVSPost2010Prop42
 90
       50
102
RTVSPost2010PropOp42
 70
     0
102
RTVSPost2010Prop43
 90
        3
102
RTVSPost2010PropOp43
 70
     0
102
RTVSPost2010Prop44ColorIndex
 90
        5
102
RTVSPost2010Prop44ColorRGB
 90
      255
102
RTVSPost2010PropOp44
 70
     0
102
RTVSPost2010Prop45
280
     0
102
RTVSPost2010PropOp45
 70
     0
102
RTVSPost2010Prop46
 90
       50
102
RTVSPost2010PropOp46
 70
     0
102
RTVSPost2010Prop47
 90
       50
102
RTVSPost2010PropOp47
 70
     0
102
RTVSPost2010Prop48
 90
       50
102
RTVSPost2010PropOp48
 70
     0
102
RTVSPost2010Prop49
280
     0
102
RTVSPost2010PropOp49
 70
     0
102
RTVSPost2010Prop50
 90
       50
102
RTVSPost2010PropOp50
 70
     0
102
RTVSPost2010Prop51ColorIndex
 90
      256
102
RTVSPost2010Prop51ColorRGB
 90
-16777216
102
RTVSPost2010PropOp51
 70
     0
102
RTVSPost2010Prop52
140
1.0
102
RTVSPost2010PropOp52
 70
     0
102
RTVSPost2010Prop53
 90
        2
102
RTVSPost2010PropOp53
 70
     0
102
RTVSPost2010Prop54
  1
strokes_ogs.tif
102
RTVSPost2010PropOp54
 70
     0
102
RTVSPost2010Prop55
280
     0
102
RTVSPost2010PropOp55
 70
     0
102
RTVSPost2010Prop56
140
1.0
102
RTVSPost2010PropOp56
 70
     0
102
RTVSPost2010Prop57
140
1.0
102
RTVSPost2010PropOp57
 70
     0
  0
XRECORD
  5
3B3
102
{ACAD_REACTORS
330
3B2
102
}
330
3B2
100
AcDbXrecord
280
     1
102
RTVSPropertyOp0
 70
     1
102
RTVSPropertyOp1
 70
     1
102
RTVSPropertyOp2
 70
     1
102
RTVSPropertyOp3
 70
     1
102
RTVSPropertyOp4
 70
     1
102
RTVSPropertyOp5
 70
     1
102
RTVSPropertyOp6
 70
     1
102
RTVSPropertyOp7
 70
     1
102
RTVSPropertyOp8
 70
     1
102
RTVSPropertyOp9
 70
     1
102
RTVSPropertyOp10
 70
     1
102
RTVSPropertyOp11
 70
     1
102
RTVSPropertyOp12
 70
     1
102
RTVSPropertyOp13
 70
     1
102
RTVSPropertyOp14
 70
     1
102
RTVSPropertyOp15
 70
     1
102
RTVSPropertyOp16
 70
     1
102
RTVSPropertyOp17
 70
     1
102
RTVSPropertyOp18
 70
     1
102
RTVSPropertyOp19
 70
     1
102
RTVSPropertyOp20
 70
     1
102
RTVSPropertyOp21
 70
     1
102
RTVSPropertyOp22
 70
     1
102
RTVSPropertyOp23
 70
     1
102
RTVSPropertyOp24
 70
     1
102
RTVSPropertyOp25
 70
     1
102
RTVSPropertyOp26
 70
     1
102
RTVSPropertyOp27
 70
     1
102
RTVSPropertyOp28
 70
     1
102
RTVSPropertyOp29
 70
     1
102
RTVSPropertyOp30
 70
     1
102
RTVSPropertyOp31
 70
     1
102
RTVSPropertyOp32
 70
     1
102
RTVSPropertyOp33
 70
     1
102
RTVSPropertyOp34
 70
     1
102
RTVSPropertyOp35
 70
     1
102
RTVSPropertyOp36
 70
     1
102
RTVSPropertyOp37
 70
     1
102
RTVSPropertyOp38
 70
     1
102
RTVSPropertyOp39
 70
     1
102
RTVSPropertyOp40
 70
     1
102
RTVSPropertyOp41
 70
     1
102
RTVSPropertyOp42
 70
     1
102
RTVSPropertyOp43
 70
     1
102
RTVSPropertyOp44
 70
     1
102
RTVSPropertyOp45
 70
     1
102
RTVSPropertyOp46
 70
     1
102
RTVSPropertyOp47
 70
     1
102
RTVSPropertyOp48
 70
     1
102
RTVSPropertyOp49
 70
     1
102
RTVSPropertyOp50
 70
     1
102
RTVSPropertyOp51
 70
     0
102
RTVSPropertyOp52
 70
     0
102
RTVSPropertyOp53
 70
     1
102
RTVSPropertyOp54
 70
     1
102
RTVSPropertyOp55
 70
     1
102
RTVSPropertyOp56
 70
     1
102
RTVSPropertyOp57
 70
     1
102
RTVSPost2010Prop28
280
     0
102
RTVSPost2010PropOp28
 70
     1
102
RTVSPost2010Prop29
280
     1
102
RTVSPost2010PropOp29
 70
     1
102
RTVSPost2010Prop30
280
     1
102
RTVSPost2010PropOp30
 70
     1
102
RTVSPost2010Prop31
280
     0
102
RTVSPost2010PropOp31
 70
     1
102
RTVSPost2010Prop32
280
     0
102
RTVSPost2010PropOp32
 70
     1
102
RTVSPost2010Prop33
280
     0
102
RTVSPost2010PropOp33
 70
     1
102
RTVSPost2010Prop34
280
     0
102
RTVSPost2010PropOp34
 70
     1
102
RTVSPost2010Prop35
280
     0
102
RTVSPost2010PropOp35
 70
     1
102
RTVSPost2010Prop36
280
     0
102
RTVSPost2010PropOp36
 70
     1
102
RTVSPost2010Prop37
 90
       50
102
RTVSPost2010PropOp37
 70
     1
102
RTVSPost2010Prop38
140
0.0
102
RTVSPost2010PropOp38
 70
     1
102
RTVSPost2010Prop39
140
1.0
102
RTVSPost2010PropOp39
 70
     1
102
RTVSPost2010Prop40
 90
        0
102
RTVSPost2010PropOp40
 70
     1
102
RTVSPost2010Prop41ColorIndex
 90
       18
102
RTVSPost2010Prop41ColorRGB
 90
        0
102
RTVSPost2010PropOp41
 70
     1
102
RTVSPost2010Prop42
 90
       50
102
RTVSPost2010PropOp42
 70
     1
102
RTVSPost2010Prop43
 90
        3
102
RTVSPost2010PropOp43
 70
     1
102
RTVSPost2010Prop44ColorIndex
 90
        5
102
RTVSPost2010Prop44ColorRGB
 90
      255
102
RTVSPost2010PropOp44
 70
     1
102
RTVSPost2010Prop45
280
     0
102
RTVSPost2010PropOp45
 70
     1
102
RTVSPost2010Prop46
 90
       50
102
RTVSPost2010PropOp46
 70
     1
102
RTVSPost2010Prop47
 90
       50
102
RTVSPost2010PropOp47
 70
     1
102
RTVSPost2010Prop48
 90
       50
102
RTVSPost2010PropOp48
 70
     1
102
RTVSPost2010Prop49
280
     0
102
RTVSPost2010PropOp49
 70
     1
102
RTVSPost2010Prop50
 90
       50
102
RTVSPost2010PropOp50
 70
     1
102
RTVSPost2010Prop51ColorIndex
 90
      256
102
RTVSPost2010Prop51ColorRGB
 90
-16777216
102
RTVSPost2010PropOp51
 70
     0
102
RTVSPost2010Prop52
140
1.0
102
RTVSPost2010PropOp52
 70
     0
102
RTVSPost2010Prop53
 90
        2
102
RTVSPost2010PropOp53
 70
     1
102
RTVSPost2010Prop54
  1
strokes_ogs.tif
102
RTVSPost2010PropOp54
 70
     1
102
RTVSPost2010Prop55
280
     0
102
RTVSPost2010PropOp55
 70
     1
102
RTVSPost2010Prop56
140
1.0
102
RTVSPost2010PropOp56
 70
     1
102
RTVSPost2010Prop57
140
1.0
102
RTVSPost2010PropOp57
 70
     1
  0
XRECORD
  5
3BB
102
{ACAD_REACTORS
330
3BA
102
}
330
3BA
100
AcDbXrecord
280
     1
102
RTVSPropertyOp0
 70
     0
102
RTVSPropertyOp1
 70
     0
102
RTVSPropertyOp2
 70
     0
102
RTVSPropertyOp3
 70
     0
102
RTVSPropertyOp4
 70
     0
102
RTVSPropertyOp5
 70
     0
102
RTVSPropertyOp6
 70
     0
102
RTVSPropertyOp7
 70
     0
102
RTVSPropertyOp8
 70
     0
102
RTVSPropertyOp9
 70
     0
102
RTVSPropertyOp10
 70
     0
102
RTVSPropertyOp11
 70
     0
102
RTVSPropertyOp12
 70
     0
102
RTVSPropertyOp13
 70
     0
102
RTVSPropertyOp14
 70
     2
102
RTVSPropertyOp15
 70
     0
102
RTVSPropertyOp16
 70
     0
102
RTVSPropertyOp17
 70
     0
102
RTVSPropertyOp18
 70
     0
102
RTVSPropertyOp19
 70
     0
102
RTVSPropertyOp20
 70
     0
102
RTVSPropertyOp21
 70
     0
102
RTVSPropertyOp22
 70
     0
102
RTVSPropertyOp23
 70
     0
102
RTVSPropertyOp24
 70
     0
102
RTVSPropertyOp25
 70
     0
102
RTVSPropertyOp26
 70
     0
102
RTVSPropertyOp27
 70
     0
102
RTVSPropertyOp28
 70
     0
102
RTVSPropertyOp29
 70
     0
102
RTVSPropertyOp30
 70
     0
102
RTVSPropertyOp31
 70
     0
102
RTVSPropertyOp32
 70
     0
102
RTVSPropertyOp33
 70
     0
102
RTVSPropertyOp34
 70
     0
102
RTVSPropertyOp35
 70
     0
102
RTVSPropertyOp36
 70
     0
102
RTVSPropertyOp37
 70
     0
102
RTVSPropertyOp38
 70
     0
102
RTVSPropertyOp39
 70
     0
102
RTVSPropertyOp40
 70
     0
102
RTVSPropertyOp41
 70
     0
102
RTVSPropertyOp42
 70
     0
102
RTVSPropertyOp43
 70
     0
102
RTVSPropertyOp44
 70
     0
102
RTVSPropertyOp45
 70
     0
102
RTVSPropertyOp46
 70
     0
102
RTVSPropertyOp47
 70
     0
102
RTVSPropertyOp48
 70
     0
102
RTVSPropertyOp49
 70
     0
102
RTVSPropertyOp50
 70
     0
102
RTVSPropertyOp51
 70
     0
102
RTVSPropertyOp52
 70
     0
102
RTVSPropertyOp53
 70
     0
102
RTVSPropertyOp54
 70
     0
102
RTVSPropertyOp55
 70
     0
102
RTVSPropertyOp56
 70
     0
102
RTVSPropertyOp57
 70
     0
102
RTVSPost2010Prop28
280
     0
102
RTVSPost2010PropOp28
 70
     0
102
RTVSPost2010Prop29
280
     1
102
RTVSPost2010PropOp29
 70
     0
102
RTVSPost2010Prop30
280
     1
102
RTVSPost2010PropOp30
 70
     0
102
RTVSPost2010Prop31
280
     0
102
RTVSPost2010PropOp31
 70
     0
102
RTVSPost2010Prop32
280
     0
102
RTVSPost2010PropOp32
 70
     0
102
RTVSPost2010Prop33
280
     0
102
RTVSPost2010PropOp33
 70
     0
102
RTVSPost2010Prop34
280
     0
102
RTVSPost2010PropOp34
 70
     0
102
RTVSPost2010Prop35
280
     0
102
RTVSPost2010PropOp35
 70
     0
102
RTVSPost2010Prop36
280
     0
102
RTVSPost2010PropOp36
 70
     0
102
RTVSPost2010Prop37
 90
       50
102
RTVSPost2010PropOp37
 70
     0
102
RTVSPost2010Prop38
140
0.0
102
RTVSPost2010PropOp38
 70
     0
102
RTVSPost2010Prop39
140
1.0
102
RTVSPost2010PropOp39
 70
     0
102
RTVSPost2010Prop40
 90
        0
102
RTVSPost2010PropOp40
 70
     0
102
RTVSPost2010Prop41ColorIndex
 90
       18
102
RTVSPost2010Prop41ColorRGB
 90
        0
102
RTVSPost2010PropOp41
 70
     0
102
RTVSPost2010Prop42
 90
       50
102
RTVSPost2010PropOp42
 70
     0
102
RTVSPost2010Prop43
 90
        3
102
RTVSPost2010PropOp43
 70
     0
102
RTVSPost2010Prop44ColorIndex
 90
        5
102
RTVSPost2010Prop44ColorRGB
 90
      255
102
RTVSPost2010PropOp44
 70
     0
102
RTVSPost2010Prop45
280
     0
102
RTVSPost2010PropOp45
 70
     0
102
RTVSPost2010Prop46
 90
       50
102
RTVSPost2010PropOp46
 70
     0
102
RTVSPost2010Prop47
 90
       50
102
RTVSPost2010PropOp47
 70
     0
102
RTVSPost2010Prop48
 90
       50
102
RTVSPost2010PropOp48
 70
     0
102
RTVSPost2010Prop49
280
     0
102
RTVSPost2010PropOp49
 70
     0
102
RTVSPost2010Prop50
 90
       50
102
RTVSPost2010PropOp50
 70
     0
102
RTVSPost2010Prop51ColorIndex
 90
      256
102
RTVSPost2010Prop51ColorRGB
 90
-16777216
102
RTVSPost2010PropOp51
 70
     0
102
RTVSPost2010Prop52
140
1.0
102
RTVSPost2010PropOp52
 70
     0
102
RTVSPost2010Prop53
 90
        2
102
RTVSPost2010PropOp53
 70
     0
102
RTVSPost2010Prop54
  1
strokes_ogs.tif
102
RTVSPost2010PropOp54
 70
     0
102
RTVSPost2010Prop55
280
     0
102
RTVSPost2010PropOp55
 70
     0
102
RTVSPost2010Prop56
140
1.0
102
RTVSPost2010PropOp56
 70
     0
102
RTVSPost2010Prop57
140
1.0
102
RTVSPost2010PropOp57
 70
     0
  0
XRECORD
  5
3A9
102
{ACAD_REACTORS
330
3A8
102
}
330
3A8
100
AcDbXrecord
280
     1
102
RTVSPropertyOp0
 70
     1
102
RTVSPropertyOp1
 70
     1
102
RTVSPropertyOp2
 70
     1
102
RTVSPropertyOp3
 70
     1
102
RTVSPropertyOp4
 70
     1
102
RTVSPropertyOp5
 70
     1
102
RTVSPropertyOp6
 70
     1
102
RTVSPropertyOp7
 70
     1
102
RTVSPropertyOp8
 70
     1
102
RTVSPropertyOp9
 70
     1
102
RTVSPropertyOp10
 70
     1
102
RTVSPropertyOp11
 70
     1
102
RTVSPropertyOp12
 70
     1
102
RTVSPropertyOp13
 70
     1
102
RTVSPropertyOp14
 70
     1
102
RTVSPropertyOp15
 70
     1
102
RTVSPropertyOp16
 70
     1
102
RTVSPropertyOp17
 70
     1
102
RTVSPropertyOp18
 70
     1
102
RTVSPropertyOp19
 70
     1
102
RTVSPropertyOp20
 70
     1
102
RTVSPropertyOp21
 70
     1
102
RTVSPropertyOp22
 70
     1
102
RTVSPropertyOp23
 70
     1
102
RTVSPropertyOp24
 70
     1
102
RTVSPropertyOp25
 70
     1
102
RTVSPropertyOp26
 70
     1
102
RTVSPropertyOp27
 70
     1
102
RTVSPropertyOp28
 70
     1
102
RTVSPropertyOp29
 70
     1
102
RTVSPropertyOp30
 70
     1
102
RTVSPropertyOp31
 70
     1
102
RTVSPropertyOp32
 70
     1
102
RTVSPropertyOp33
 70
     1
102
RTVSPropertyOp34
 70
     1
102
RTVSPropertyOp35
 70
     1
102
RTVSPropertyOp36
 70
     1
102
RTVSPropertyOp37
 70
     1
102
RTVSPropertyOp38
 70
     1
102
RTVSPropertyOp39
 70
     1
102
RTVSPropertyOp40
 70
     1
102
RTVSPropertyOp41
 70
     1
102
RTVSPropertyOp42
 70
     1
102
RTVSPropertyOp43
 70
     1
102
RTVSPropertyOp44
 70
     1
102
RTVSPropertyOp45
 70
     1
102
RTVSPropertyOp46
 70
     1
102
RTVSPropertyOp47
 70
     1
102
RTVSPropertyOp48
 70
     1
102
RTVSPropertyOp49
 70
     1
102
RTVSPropertyOp50
 70
     1
102
RTVSPropertyOp51
 70
     0
102
RTVSPropertyOp52
 70
     0
102
RTVSPropertyOp53
 70
     1
102
RTVSPropertyOp54
 70
     1
102
RTVSPropertyOp55
 70
     1
102
RTVSPropertyOp56
 70
     1
102
RTVSPropertyOp57
 70
     1
102
RTVSPost2010Prop28
280
     0
102
RTVSPost2010PropOp28
 70
     1
102
RTVSPost2010Prop29
280
     1
102
RTVSPost2010PropOp29
 70
     1
102
RTVSPost2010Prop30
280
     1
102
RTVSPost2010PropOp30
 70
     1
102
RTVSPost2010Prop31
280
     0
102
RTVSPost2010PropOp31
 70
     1
102
RTVSPost2010Prop32
280
     0
102
RTVSPost2010PropOp32
 70
     1
102
RTVSPost2010Prop33
280
     0
102
RTVSPost2010PropOp33
 70
     1
102
RTVSPost2010Prop34
280
     0
102
RTVSPost2010PropOp34
 70
     1
102
RTVSPost2010Prop35
280
     0
102
RTVSPost2010PropOp35
 70
     1
102
RTVSPost2010Prop36
280
     0
102
RTVSPost2010PropOp36
 70
     1
102
RTVSPost2010Prop37
 90
       50
102
RTVSPost2010PropOp37
 70
     1
102
RTVSPost2010Prop38
140
0.0
102
RTVSPost2010PropOp38
 70
     1
102
RTVSPost2010Prop39
140
1.0
102
RTVSPost2010PropOp39
 70
     1
102
RTVSPost2010Prop40
 90
        0
102
RTVSPost2010PropOp40
 70
     1
102
RTVSPost2010Prop41ColorIndex
 90
       18
102
RTVSPost2010Prop41ColorRGB
 90
        0
102
RTVSPost2010PropOp41
 70
     1
102
RTVSPost2010Prop42
 90
       50
102
RTVSPost2010PropOp42
 70
     1
102
RTVSPost2010Prop43
 90
        3
102
RTVSPost2010PropOp43
 70
     1
102
RTVSPost2010Prop44ColorIndex
 90
        5
102
RTVSPost2010Prop44ColorRGB
 90
      255
102
RTVSPost2010PropOp44
 70
     1
102
RTVSPost2010Prop45
280
     0
102
RTVSPost2010PropOp45
 70
     1
102
RTVSPost2010Prop46
 90
       50
102
RTVSPost2010PropOp46
 70
     1
102
RTVSPost2010Prop47
 90
       50
102
RTVSPost2010PropOp47
 70
     1
102
RTVSPost2010Prop48
 90
       50
102
RTVSPost2010PropOp48
 70
     1
102
RTVSPost2010Prop49
280
     0
102
RTVSPost2010PropOp49
 70
     1
102
RTVSPost2010Prop50
 90
       50
102
RTVSPost2010PropOp50
 70
     1
102
RTVSPost2010Prop51ColorIndex
 90
      256
102
RTVSPost2010Prop51ColorRGB
 90
-16777216
102
RTVSPost2010PropOp51
 70
     0
102
RTVSPost2010Prop52
140
1.0
102
RTVSPost2010PropOp52
 70
     0
102
RTVSPost2010Prop53
 90
        2
102
RTVSPost2010PropOp53
 70
     1
102
RTVSPost2010Prop54
  1
strokes_ogs.tif
102
RTVSPost2010PropOp54
 70
     1
102
RTVSPost2010Prop55
280
     0
102
RTVSPost2010PropOp55
 70
     1
102
RTVSPost2010Prop56
140
1.0
102
RTVSPost2010PropOp56
 70
     1
102
RTVSPost2010Prop57
140
1.0
102
RTVSPost2010PropOp57
 70
     1
  0
XRECORD
  5
3C7
102
{ACAD_REACTORS
330
3C6
102
}
330
3C6
100
AcDbXrecord
280
     1
102
RTVSPropertyOp0
 70
     1
102
RTVSPropertyOp1
 70
     1
102
RTVSPropertyOp2
 70
     1
102
RTVSPropertyOp3
 70
     1
102
RTVSPropertyOp4
 70
     1
102
RTVSPropertyOp5
 70
     1
102
RTVSPropertyOp6
 70
     1
102
RTVSPropertyOp7
 70
     1
102
RTVSPropertyOp8
 70
     1
102
RTVSPropertyOp9
 70
     1
102
RTVSPropertyOp10
 70
     1
102
RTVSPropertyOp11
 70
     1
102
RTVSPropertyOp12
 70
     1
102
RTVSPropertyOp13
 70
     1
102
RTVSPropertyOp14
 70
     1
102
RTVSPropertyOp15
 70
     1
102
RTVSPropertyOp16
 70
     1
102
RTVSPropertyOp17
 70
     1
102
RTVSPropertyOp18
 70
     1
102
RTVSPropertyOp19
 70
     1
102
RTVSPropertyOp20
 70
     1
102
RTVSPropertyOp21
 70
     1
102
RTVSPropertyOp22
 70
     1
102
RTVSPropertyOp23
 70
     1
102
RTVSPropertyOp24
 70
     1
102
RTVSPropertyOp25
 70
     1
102
RTVSPropertyOp26
 70
     1
102
RTVSPropertyOp27
 70
     1
102
RTVSPropertyOp28
 70
     1
102
RTVSPropertyOp29
 70
     1
102
RTVSPropertyOp30
 70
     1
102
RTVSPropertyOp31
 70
     1
102
RTVSPropertyOp32
 70
     1
102
RTVSPropertyOp33
 70
     1
102
RTVSPropertyOp34
 70
     1
102
RTVSPropertyOp35
 70
     1
102
RTVSPropertyOp36
 70
     1
102
RTVSPropertyOp37
 70
     1
102
RTVSPropertyOp38
 70
     1
102
RTVSPropertyOp39
 70
     1
102
RTVSPropertyOp40
 70
     1
102
RTVSPropertyOp41
 70
     1
102
RTVSPropertyOp42
 70
     1
102
RTVSPropertyOp43
 70
     1
102
RTVSPropertyOp44
 70
     1
102
RTVSPropertyOp45
 70
     1
102
RTVSPropertyOp46
 70
     1
102
RTVSPropertyOp47
 70
     1
102
RTVSPropertyOp48
 70
     1
102
RTVSPropertyOp49
 70
     1
102
RTVSPropertyOp50
 70
     1
102
RTVSPropertyOp51
 70
     0
102
RTVSPropertyOp52
 70
     0
102
RTVSPropertyOp53
 70
     1
102
RTVSPropertyOp54
 70
     1
102
RTVSPropertyOp55
 70
     1
102
RTVSPropertyOp56
 70
     1
102
RTVSPropertyOp57
 70
     1
102
RTVSPost2010Prop28
280
     0
102
RTVSPost2010PropOp28
 70
     1
102
RTVSPost2010Prop29
280
     1
102
RTVSPost2010PropOp29
 70
     1
102
RTVSPost2010Prop30
280
     1
102
RTVSPost2010PropOp30
 70
     1
102
RTVSPost2010Prop31
280
     0
102
RTVSPost2010PropOp31
 70
     1
102
RTVSPost2010Prop32
280
     0
102
RTVSPost2010PropOp32
 70
     1
102
RTVSPost2010Prop33
280
     0
102
RTVSPost2010PropOp33
 70
     1
102
RTVSPost2010Prop34
280
     0
102
RTVSPost2010PropOp34
 70
     1
102
RTVSPost2010Prop35
280
     0
102
RTVSPost2010PropOp35
 70
     1
102
RTVSPost2010Prop36
280
     0
102
RTVSPost2010PropOp36
 70
     1
102
RTVSPost2010Prop37
 90
       50
102
RTVSPost2010PropOp37
 70
     1
102
RTVSPost2010Prop38
140
0.0
102
RTVSPost2010PropOp38
 70
     1
102
RTVSPost2010Prop39
140
1.0
102
RTVSPost2010PropOp39
 70
     1
102
RTVSPost2010Prop40
 90
        0
102
RTVSPost2010PropOp40
 70
     1
102
RTVSPost2010Prop41ColorIndex
 90
       18
102
RTVSPost2010Prop41ColorRGB
 90
        0
102
RTVSPost2010PropOp41
 70
     1
102
RTVSPost2010Prop42
 90
       50
102
RTVSPost2010PropOp42
 70
     1
102
RTVSPost2010Prop43
 90
        3
102
RTVSPost2010PropOp43
 70
     1
102
RTVSPost2010Prop44ColorIndex
 90
        5
102
RTVSPost2010Prop44ColorRGB
 90
      255
102
RTVSPost2010PropOp44
 70
     1
102
RTVSPost2010Prop45
280
     0
102
RTVSPost2010PropOp45
 70
     1
102
RTVSPost2010Prop46
 90
       50
102
RTVSPost2010PropOp46
 70
     1
102
RTVSPost2010Prop47
 90
       50
102
RTVSPost2010PropOp47
 70
     1
102
RTVSPost2010Prop48
 90
       50
102
RTVSPost2010PropOp48
 70
     1
102
RTVSPost2010Prop49
280
     0
102
RTVSPost2010PropOp49
 70
     1
102
RTVSPost2010Prop50
 90
       50
102
RTVSPost2010PropOp50
 70
     1
102
RTVSPost2010Prop51ColorIndex
 90
      256
102
RTVSPost2010Prop51ColorRGB
 90
-16777216
102
RTVSPost2010PropOp51
 70
     0
102
RTVSPost2010Prop52
140
1.0
102
RTVSPost2010PropOp52
 70
     0
102
RTVSPost2010Prop53
 90
        2
102
RTVSPost2010PropOp53
 70
     1
102
RTVSPost2010Prop54
  1
strokes_ogs.tif
102
RTVSPost2010PropOp54
 70
     1
102
RTVSPost2010Prop55
280
     0
102
RTVSPost2010PropOp55
 70
     1
102
RTVSPost2010Prop56
140
1.0
102
RTVSPost2010PropOp56
 70
     1
102
RTVSPost2010Prop57
140
1.0
102
RTVSPost2010PropOp57
 70
     1
  0
XRECORD
  5
3C5
102
{ACAD_REACTORS
330
3C4
102
}
330
3C4
100
AcDbXrecord
280
     1
102
RTVSPropertyOp0
 70
     1
102
RTVSPropertyOp1
 70
     1
102
RTVSPropertyOp2
 70
     1
102
RTVSPropertyOp3
 70
     1
102
RTVSPropertyOp4
 70
     1
102
RTVSPropertyOp5
 70
     1
102
RTVSPropertyOp6
 70
     1
102
RTVSPropertyOp7
 70
     1
102
RTVSPropertyOp8
 70
     1
102
RTVSPropertyOp9
 70
     1
102
RTVSPropertyOp10
 70
     1
102
RTVSPropertyOp11
 70
     1
102
RTVSPropertyOp12
 70
     1
102
RTVSPropertyOp13
 70
     1
102
RTVSPropertyOp14
 70
     1
102
RTVSPropertyOp15
 70
     1
102
RTVSPropertyOp16
 70
     1
102
RTVSPropertyOp17
 70
     1
102
RTVSPropertyOp18
 70
     1
102
RTVSPropertyOp19
 70
     1
102
RTVSPropertyOp20
 70
     1
102
RTVSPropertyOp21
 70
     1
102
RTVSPropertyOp22
 70
     1
102
RTVSPropertyOp23
 70
     1
102
RTVSPropertyOp24
 70
     1
102
RTVSPropertyOp25
 70
     1
102
RTVSPropertyOp26
 70
     1
102
RTVSPropertyOp27
 70
     1
102
RTVSPropertyOp28
 70
     1
102
RTVSPropertyOp29
 70
     1
102
RTVSPropertyOp30
 70
     1
102
RTVSPropertyOp31
 70
     1
102
RTVSPropertyOp32
 70
     1
102
RTVSPropertyOp33
 70
     1
102
RTVSPropertyOp34
 70
     1
102
RTVSPropertyOp35
 70
     1
102
RTVSPropertyOp36
 70
     1
102
RTVSPropertyOp37
 70
     1
102
RTVSPropertyOp38
 70
     1
102
RTVSPropertyOp39
 70
     1
102
RTVSPropertyOp40
 70
     1
102
RTVSPropertyOp41
 70
     1
102
RTVSPropertyOp42
 70
     1
102
RTVSPropertyOp43
 70
     1
102
RTVSPropertyOp44
 70
     1
102
RTVSPropertyOp45
 70
     1
102
RTVSPropertyOp46
 70
     1
102
RTVSPropertyOp47
 70
     1
102
RTVSPropertyOp48
 70
     1
102
RTVSPropertyOp49
 70
     1
102
RTVSPropertyOp50
 70
     1
102
RTVSPropertyOp51
 70
     0
102
RTVSPropertyOp52
 70
     0
102
RTVSPropertyOp53
 70
     1
102
RTVSPropertyOp54
 70
     1
102
RTVSPropertyOp55
 70
     1
102
RTVSPropertyOp56
 70
     1
102
RTVSPropertyOp57
 70
     1
102
RTVSPost2010Prop28
280
     0
102
RTVSPost2010PropOp28
 70
     1
102
RTVSPost2010Prop29
280
     1
102
RTVSPost2010PropOp29
 70
     1
102
RTVSPost2010Prop30
280
     1
102
RTVSPost2010PropOp30
 70
     1
102
RTVSPost2010Prop31
280
     0
102
RTVSPost2010PropOp31
 70
     1
102
RTVSPost2010Prop32
280
     0
102
RTVSPost2010PropOp32
 70
     1
102
RTVSPost2010Prop33
280
     0
102
RTVSPost2010PropOp33
 70
     1
102
RTVSPost2010Prop34
280
     0
102
RTVSPost2010PropOp34
 70
     1
102
RTVSPost2010Prop35
280
     0
102
RTVSPost2010PropOp35
 70
     1
102
RTVSPost2010Prop36
280
     0
102
RTVSPost2010PropOp36
 70
     1
102
RTVSPost2010Prop37
 90
       50
102
RTVSPost2010PropOp37
 70
     1
102
RTVSPost2010Prop38
140
0.0
102
RTVSPost2010PropOp38
 70
     1
102
RTVSPost2010Prop39
140
1.0
102
RTVSPost2010PropOp39
 70
     1
102
RTVSPost2010Prop40
 90
        0
102
RTVSPost2010PropOp40
 70
     1
102
RTVSPost2010Prop41ColorIndex
 90
       18
102
RTVSPost2010Prop41ColorRGB
 90
        0
102
RTVSPost2010PropOp41
 70
     1
102
RTVSPost2010Prop42
 90
       50
102
RTVSPost2010PropOp42
 70
     1
102
RTVSPost2010Prop43
 90
        3
102
RTVSPost2010PropOp43
 70
     1
102
RTVSPost2010Prop44ColorIndex
 90
        5
102
RTVSPost2010Prop44ColorRGB
 90
      255
102
RTVSPost2010PropOp44
 70
     1
102
RTVSPost2010Prop45
280
     0
102
RTVSPost2010PropOp45
 70
     1
102
RTVSPost2010Prop46
 90
       50
102
RTVSPost2010PropOp46
 70
     1
102
RTVSPost2010Prop47
 90
       50
102
RTVSPost2010PropOp47
 70
     1
102
RTVSPost2010Prop48
 90
       50
102
RTVSPost2010PropOp48
 70
     1
102
RTVSPost2010Prop49
280
     0
102
RTVSPost2010PropOp49
 70
     1
102
RTVSPost2010Prop50
 90
       50
102
RTVSPost2010PropOp50
 70
     1
102
RTVSPost2010Prop51ColorIndex
 90
      256
102
RTVSPost2010Prop51ColorRGB
 90
-16777216
102
RTVSPost2010PropOp51
 70
     0
102
RTVSPost2010Prop52
140
1.0
102
RTVSPost2010PropOp52
 70
     0
102
RTVSPost2010Prop53
 90
        2
102
RTVSPost2010PropOp53
 70
     1
102
RTVSPost2010Prop54
  1
strokes_ogs.tif
102
RTVSPost2010PropOp54
 70
     1
102
RTVSPost2010Prop55
280
     0
102
RTVSPost2010PropOp55
 70
     1
102
RTVSPost2010Prop56
140
1.0
102
RTVSPost2010PropOp56
 70
     1
102
RTVSPost2010Prop57
140
1.0
102
RTVSPost2010PropOp57
 70
     1
  0
XRECORD
  5
3BF
102
{ACAD_REACTORS
330
3BE
102
}
330
3BE
100
AcDbXrecord
280
     1
102
RTVSPropertyOp0
 70
     1
102
RTVSPropertyOp1
 70
     1
102
RTVSPropertyOp2
 70
     1
102
RTVSPropertyOp3
 70
     1
102
RTVSPropertyOp4
 70
     1
102
RTVSPropertyOp5
 70
     1
102
RTVSPropertyOp6
 70
     1
102
RTVSPropertyOp7
 70
     1
102
RTVSPropertyOp8
 70
     1
102
RTVSPropertyOp9
 70
     1
102
RTVSPropertyOp10
 70
     1
102
RTVSPropertyOp11
 70
     1
102
RTVSPropertyOp12
 70
     1
102
RTVSPropertyOp13
 70
     1
102
RTVSPropertyOp14
 70
     1
102
RTVSPropertyOp15
 70
     1
102
RTVSPropertyOp16
 70
     1
102
RTVSPropertyOp17
 70
     1
102
RTVSPropertyOp18
 70
     1
102
RTVSPropertyOp19
 70
     1
102
RTVSPropertyOp20
 70
     1
102
RTVSPropertyOp21
 70
     1
102
RTVSPropertyOp22
 70
     1
102
RTVSPropertyOp23
 70
     1
102
RTVSPropertyOp24
 70
     1
102
RTVSPropertyOp25
 70
     1
102
RTVSPropertyOp26
 70
     1
102
RTVSPropertyOp27
 70
     1
102
RTVSPropertyOp28
 70
     1
102
RTVSPropertyOp29
 70
     1
102
RTVSPropertyOp30
 70
     1
102
RTVSPropertyOp31
 70
     1
102
RTVSPropertyOp32
 70
     1
102
RTVSPropertyOp33
 70
     1
102
RTVSPropertyOp34
 70
     1
102
RTVSPropertyOp35
 70
     1
102
RTVSPropertyOp36
 70
     1
102
RTVSPropertyOp37
 70
     1
102
RTVSPropertyOp38
 70
     1
102
RTVSPropertyOp39
 70
     1
102
RTVSPropertyOp40
 70
     1
102
RTVSPropertyOp41
 70
     1
102
RTVSPropertyOp42
 70
     1
102
RTVSPropertyOp43
 70
     1
102
RTVSPropertyOp44
 70
     1
102
RTVSPropertyOp45
 70
     1
102
RTVSPropertyOp46
 70
     1
102
RTVSPropertyOp47
 70
     1
102
RTVSPropertyOp48
 70
     1
102
RTVSPropertyOp49
 70
     1
102
RTVSPropertyOp50
 70
     1
102
RTVSPropertyOp51
 70
     0
102
RTVSPropertyOp52
 70
     0
102
RTVSPropertyOp53
 70
     1
102
RTVSPropertyOp54
 70
     1
102
RTVSPropertyOp55
 70
     1
102
RTVSPropertyOp56
 70
     1
102
RTVSPropertyOp57
 70
     1
102
RTVSPost2010Prop28
280
     0
102
RTVSPost2010PropOp28
 70
     1
102
RTVSPost2010Prop29
280
     1
102
RTVSPost2010PropOp29
 70
     1
102
RTVSPost2010Prop30
280
     1
102
RTVSPost2010PropOp30
 70
     1
102
RTVSPost2010Prop31
280
     0
102
RTVSPost2010PropOp31
 70
     1
102
RTVSPost2010Prop32
280
     0
102
RTVSPost2010PropOp32
 70
     1
102
RTVSPost2010Prop33
280
     0
102
RTVSPost2010PropOp33
 70
     1
102
RTVSPost2010Prop34
280
     0
102
RTVSPost2010PropOp34
 70
     1
102
RTVSPost2010Prop35
280
     0
102
RTVSPost2010PropOp35
 70
     1
102
RTVSPost2010Prop36
280
     0
102
RTVSPost2010PropOp36
 70
     1
102
RTVSPost2010Prop37
 90
       50
102
RTVSPost2010PropOp37
 70
     1
102
RTVSPost2010Prop38
140
0.0
102
RTVSPost2010PropOp38
 70
     1
102
RTVSPost2010Prop39
140
1.0
102
RTVSPost2010PropOp39
 70
     1
102
RTVSPost2010Prop40
 90
        0
102
RTVSPost2010PropOp40
 70
     1
102
RTVSPost2010Prop41ColorIndex
 90
       18
102
RTVSPost2010Prop41ColorRGB
 90
        0
102
RTVSPost2010PropOp41
 70
     1
102
RTVSPost2010Prop42
 90
       50
102
RTVSPost2010PropOp42
 70
     1
102
RTVSPost2010Prop43
 90
        3
102
RTVSPost2010PropOp43
 70
     1
102
RTVSPost2010Prop44ColorIndex
 90
        5
102
RTVSPost2010Prop44ColorRGB
 90
      255
102
RTVSPost2010PropOp44
 70
     1
102
RTVSPost2010Prop45
280
     0
102
RTVSPost2010PropOp45
 70
     1
102
RTVSPost2010Prop46
 90
       50
102
RTVSPost2010PropOp46
 70
     1
102
RTVSPost2010Prop47
 90
       50
102
RTVSPost2010PropOp47
 70
     1
102
RTVSPost2010Prop48
 90
       50
102
RTVSPost2010PropOp48
 70
     1
102
RTVSPost2010Prop49
280
     0
102
RTVSPost2010PropOp49
 70
     1
102
RTVSPost2010Prop50
 90
       50
102
RTVSPost2010PropOp50
 70
     1
102
RTVSPost2010Prop51ColorIndex
 90
      256
102
RTVSPost2010Prop51ColorRGB
 90
-16777216
102
RTVSPost2010PropOp51
 70
     0
102
RTVSPost2010Prop52
140
1.0
102
RTVSPost2010PropOp52
 70
     0
102
RTVSPost2010Prop53
 90
        2
102
RTVSPost2010PropOp53
 70
     1
102
RTVSPost2010Prop54
  1
strokes_ogs.tif
102
RTVSPost2010PropOp54
 70
     1
102
RTVSPost2010Prop55
280
     0
102
RTVSPost2010PropOp55
 70
     1
102
RTVSPost2010Prop56
140
1.0
102
RTVSPost2010PropOp56
 70
     1
102
RTVSPost2010Prop57
140
1.0
102
RTVSPost2010PropOp57
 70
     1
  0
XRECORD
  5
3C1
102
{ACAD_REACTORS
330
3C0
102
}
330
3C0
100
AcDbXrecord
280
     1
102
RTVSPropertyOp0
 70
     1
102
RTVSPropertyOp1
 70
     1
102
RTVSPropertyOp2
 70
     1
102
RTVSPropertyOp3
 70
     1
102
RTVSPropertyOp4
 70
     1
102
RTVSPropertyOp5
 70
     1
102
RTVSPropertyOp6
 70
     1
102
RTVSPropertyOp7
 70
     1
102
RTVSPropertyOp8
 70
     1
102
RTVSPropertyOp9
 70
     1
102
RTVSPropertyOp10
 70
     1
102
RTVSPropertyOp11
 70
     1
102
RTVSPropertyOp12
 70
     1
102
RTVSPropertyOp13
 70
     1
102
RTVSPropertyOp14
 70
     1
102
RTVSPropertyOp15
 70
     1
102
RTVSPropertyOp16
 70
     1
102
RTVSPropertyOp17
 70
     1
102
RTVSPropertyOp18
 70
     1
102
RTVSPropertyOp19
 70
     1
102
RTVSPropertyOp20
 70
     1
102
RTVSPropertyOp21
 70
     1
102
RTVSPropertyOp22
 70
     1
102
RTVSPropertyOp23
 70
     1
102
RTVSPropertyOp24
 70
     1
102
RTVSPropertyOp25
 70
     1
102
RTVSPropertyOp26
 70
     1
102
RTVSPropertyOp27
 70
     1
102
RTVSPropertyOp28
 70
     1
102
RTVSPropertyOp29
 70
     1
102
RTVSPropertyOp30
 70
     1
102
RTVSPropertyOp31
 70
     1
102
RTVSPropertyOp32
 70
     1
102
RTVSPropertyOp33
 70
     1
102
RTVSPropertyOp34
 70
     1
102
RTVSPropertyOp35
 70
     1
102
RTVSPropertyOp36
 70
     1
102
RTVSPropertyOp37
 70
     1
102
RTVSPropertyOp38
 70
     1
102
RTVSPropertyOp39
 70
     1
102
RTVSPropertyOp40
 70
     1
102
RTVSPropertyOp41
 70
     1
102
RTVSPropertyOp42
 70
     1
102
RTVSPropertyOp43
 70
     1
102
RTVSPropertyOp44
 70
     1
102
RTVSPropertyOp45
 70
     1
102
RTVSPropertyOp46
 70
     1
102
RTVSPropertyOp47
 70
     1
102
RTVSPropertyOp48
 70
     1
102
RTVSPropertyOp49
 70
     1
102
RTVSPropertyOp50
 70
     1
102
RTVSPropertyOp51
 70
     0
102
RTVSPropertyOp52
 70
     0
102
RTVSPropertyOp53
 70
     1
102
RTVSPropertyOp54
 70
     1
102
RTVSPropertyOp55
 70
     1
102
RTVSPropertyOp56
 70
     1
102
RTVSPropertyOp57
 70
     1
102
RTVSPost2010Prop28
280
     0
102
RTVSPost2010PropOp28
 70
     1
102
RTVSPost2010Prop29
280
     1
102
RTVSPost2010PropOp29
 70
     1
102
RTVSPost2010Prop30
280
     1
102
RTVSPost2010PropOp30
 70
     1
102
RTVSPost2010Prop31
280
     0
102
RTVSPost2010PropOp31
 70
     1
102
RTVSPost2010Prop32
280
     0
102
RTVSPost2010PropOp32
 70
     1
102
RTVSPost2010Prop33
280
     0
102
RTVSPost2010PropOp33
 70
     1
102
RTVSPost2010Prop34
280
     0
102
RTVSPost2010PropOp34
 70
     1
102
RTVSPost2010Prop35
280
     0
102
RTVSPost2010PropOp35
 70
     1
102
RTVSPost2010Prop36
280
     0
102
RTVSPost2010PropOp36
 70
     1
102
RTVSPost2010Prop37
 90
       50
102
RTVSPost2010PropOp37
 70
     1
102
RTVSPost2010Prop38
140
0.0
102
RTVSPost2010PropOp38
 70
     1
102
RTVSPost2010Prop39
140
1.0
102
RTVSPost2010PropOp39
 70
     1
102
RTVSPost2010Prop40
 90
        0
102
RTVSPost2010PropOp40
 70
     1
102
RTVSPost2010Prop41ColorIndex
 90
       18
102
RTVSPost2010Prop41ColorRGB
 90
        0
102
RTVSPost2010PropOp41
 70
     1
102
RTVSPost2010Prop42
 90
       50
102
RTVSPost2010PropOp42
 70
     1
102
RTVSPost2010Prop43
 90
        3
102
RTVSPost2010PropOp43
 70
     1
102
RTVSPost2010Prop44ColorIndex
 90
        5
102
RTVSPost2010Prop44ColorRGB
 90
      255
102
RTVSPost2010PropOp44
 70
     1
102
RTVSPost2010Prop45
280
     0
102
RTVSPost2010PropOp45
 70
     1
102
RTVSPost2010Prop46
 90
       50
102
RTVSPost2010PropOp46
 70
     1
102
RTVSPost2010Prop47
 90
       50
102
RTVSPost2010PropOp47
 70
     1
102
RTVSPost2010Prop48
 90
       50
102
RTVSPost2010PropOp48
 70
     1
102
RTVSPost2010Prop49
280
     0
102
RTVSPost2010PropOp49
 70
     1
102
RTVSPost2010Prop50
 90
       50
102
RTVSPost2010PropOp50
 70
     1
102
RTVSPost2010Prop51ColorIndex
 90
      256
102
RTVSPost2010Prop51ColorRGB
 90
-16777216
102
RTVSPost2010PropOp51
 70
     0
102
RTVSPost2010Prop52
140
1.0
102
RTVSPost2010PropOp52
 70
     0
102
RTVSPost2010Prop53
 90
        2
102
RTVSPost2010PropOp53
 70
     1
102
RTVSPost2010Prop54
  1
strokes_ogs.tif
102
RTVSPost2010PropOp54
 70
     1
102
RTVSPost2010Prop55
280
     0
102
RTVSPost2010PropOp55
 70
     1
102
RTVSPost2010Prop56
140
1.0
102
RTVSPost2010PropOp56
 70
     1
102
RTVSPost2010Prop57
140
1.0
102
RTVSPost2010PropOp57
 70
     1
  0
XRECORD
  5
3B1
102
{ACAD_REACTORS
330
3B0
102
}
330
3B0
100
AcDbXrecord
280
     1
102
RTVSPropertyOp0
 70
     1
102
RTVSPropertyOp1
 70
     1
102
RTVSPropertyOp2
 70
     1
102
RTVSPropertyOp3
 70
     1
102
RTVSPropertyOp4
 70
     1
102
RTVSPropertyOp5
 70
     1
102
RTVSPropertyOp6
 70
     1
102
RTVSPropertyOp7
 70
     1
102
RTVSPropertyOp8
 70
     1
102
RTVSPropertyOp9
 70
     1
102
RTVSPropertyOp10
 70
     1
102
RTVSPropertyOp11
 70
     1
102
RTVSPropertyOp12
 70
     1
102
RTVSPropertyOp13
 70
     1
102
RTVSPropertyOp14
 70
     1
102
RTVSPropertyOp15
 70
     1
102
RTVSPropertyOp16
 70
     1
102
RTVSPropertyOp17
 70
     1
102
RTVSPropertyOp18
 70
     1
102
RTVSPropertyOp19
 70
     1
102
RTVSPropertyOp20
 70
     1
102
RTVSPropertyOp21
 70
     1
102
RTVSPropertyOp22
 70
     1
102
RTVSPropertyOp23
 70
     1
102
RTVSPropertyOp24
 70
     1
102
RTVSPropertyOp25
 70
     1
102
RTVSPropertyOp26
 70
     1
102
RTVSPropertyOp27
 70
     1
102
RTVSPropertyOp28
 70
     1
102
RTVSPropertyOp29
 70
     1
102
RTVSPropertyOp30
 70
     1
102
RTVSPropertyOp31
 70
     1
102
RTVSPropertyOp32
 70
     1
102
RTVSPropertyOp33
 70
     1
102
RTVSPropertyOp34
 70
     1
102
RTVSPropertyOp35
 70
     1
102
RTVSPropertyOp36
 70
     1
102
RTVSPropertyOp37
 70
     1
102
RTVSPropertyOp38
 70
     1
102
RTVSPropertyOp39
 70
     1
102
RTVSPropertyOp40
 70
     1
102
RTVSPropertyOp41
 70
     1
102
RTVSPropertyOp42
 70
     1
102
RTVSPropertyOp43
 70
     1
102
RTVSPropertyOp44
 70
     1
102
RTVSPropertyOp45
 70
     1
102
RTVSPropertyOp46
 70
     1
102
RTVSPropertyOp47
 70
     1
102
RTVSPropertyOp48
 70
     1
102
RTVSPropertyOp49
 70
     1
102
RTVSPropertyOp50
 70
     1
102
RTVSPropertyOp51
 70
     0
102
RTVSPropertyOp52
 70
     0
102
RTVSPropertyOp53
 70
     1
102
RTVSPropertyOp54
 70
     1
102
RTVSPropertyOp55
 70
     1
102
RTVSPropertyOp56
 70
     1
102
RTVSPropertyOp57
 70
     1
102
RTVSPost2010Prop28
280
     0
102
RTVSPost2010PropOp28
 70
     1
102
RTVSPost2010Prop29
280
     1
102
RTVSPost2010PropOp29
 70
     1
102
RTVSPost2010Prop30
280
     1
102
RTVSPost2010PropOp30
 70
     1
102
RTVSPost2010Prop31
280
     0
102
RTVSPost2010PropOp31
 70
     1
102
RTVSPost2010Prop32
280
     0
102
RTVSPost2010PropOp32
 70
     1
102
RTVSPost2010Prop33
280
     0
102
RTVSPost2010PropOp33
 70
     1
102
RTVSPost2010Prop34
280
     0
102
RTVSPost2010PropOp34
 70
     1
102
RTVSPost2010Prop35
280
     0
102
RTVSPost2010PropOp35
 70
     1
102
RTVSPost2010Prop36
280
     0
102
RTVSPost2010PropOp36
 70
     1
102
RTVSPost2010Prop37
 90
       50
102
RTVSPost2010PropOp37
 70
     1
102
RTVSPost2010Prop38
140
0.0
102
RTVSPost2010PropOp38
 70
     1
102
RTVSPost2010Prop39
140
1.0
102
RTVSPost2010PropOp39
 70
     1
102
RTVSPost2010Prop40
 90
        0
102
RTVSPost2010PropOp40
 70
     1
102
RTVSPost2010Prop41ColorIndex
 90
       18
102
RTVSPost2010Prop41ColorRGB
 90
        0
102
RTVSPost2010PropOp41
 70
     1
102
RTVSPost2010Prop42
 90
       50
102
RTVSPost2010PropOp42
 70
     1
102
RTVSPost2010Prop43
 90
        3
102
RTVSPost2010PropOp43
 70
     1
102
RTVSPost2010Prop44ColorIndex
 90
        5
102
RTVSPost2010Prop44ColorRGB
 90
      255
102
RTVSPost2010PropOp44
 70
     1
102
RTVSPost2010Prop45
280
     0
102
RTVSPost2010PropOp45
 70
     1
102
RTVSPost2010Prop46
 90
       50
102
RTVSPost2010PropOp46
 70
     1
102
RTVSPost2010Prop47
 90
       50
102
RTVSPost2010PropOp47
 70
     1
102
RTVSPost2010Prop48
 90
       50
102
RTVSPost2010PropOp48
 70
     1
102
RTVSPost2010Prop49
280
     0
102
RTVSPost2010PropOp49
 70
     1
102
RTVSPost2010Prop50
 90
       50
102
RTVSPost2010PropOp50
 70
     1
102
RTVSPost2010Prop51ColorIndex
 90
      256
102
RTVSPost2010Prop51ColorRGB
 90
-16777216
102
RTVSPost2010PropOp51
 70
     0
102
RTVSPost2010Prop52
140
1.0
102
RTVSPost2010PropOp52
 70
     0
102
RTVSPost2010Prop53
 90
        2
102
RTVSPost2010PropOp53
 70
     1
102
RTVSPost2010Prop54
  1
strokes_ogs.tif
102
RTVSPost2010PropOp54
 70
     1
102
RTVSPost2010Prop55
280
     0
102
RTVSPost2010PropOp55
 70
     1
102
RTVSPost2010Prop56
140
1.0
102
RTVSPost2010PropOp56
 70
     1
102
RTVSPost2010Prop57
140
1.0
102
RTVSPost2010PropOp57
 70
     1
  0
XRECORD
  5
3A3
102
{ACAD_REACTORS
330
3A2
102
}
330
3A2
100
AcDbXrecord
280
     1
102
RTVSPropertyOp0
 70
     1
102
RTVSPropertyOp1
 70
     1
102
RTVSPropertyOp2
 70
     1
102
RTVSPropertyOp3
 70
     1
102
RTVSPropertyOp4
 70
     1
102
RTVSPropertyOp5
 70
     1
102
RTVSPropertyOp6
 70
     1
102
RTVSPropertyOp7
 70
     1
102
RTVSPropertyOp8
 70
     1
102
RTVSPropertyOp9
 70
     1
102
RTVSPropertyOp10
 70
     1
102
RTVSPropertyOp11
 70
     1
102
RTVSPropertyOp12
 70
     1
102
RTVSPropertyOp13
 70
     1
102
RTVSPropertyOp14
 70
     1
102
RTVSPropertyOp15
 70
     1
102
RTVSPropertyOp16
 70
     1
102
RTVSPropertyOp17
 70
     1
102
RTVSPropertyOp18
 70
     1
102
RTVSPropertyOp19
 70
     1
102
RTVSPropertyOp20
 70
     1
102
RTVSPropertyOp21
 70
     1
102
RTVSPropertyOp22
 70
     1
102
RTVSPropertyOp23
 70
     1
102
RTVSPropertyOp24
 70
     1
102
RTVSPropertyOp25
 70
     1
102
RTVSPropertyOp26
 70
     1
102
RTVSPropertyOp27
 70
     1
102
RTVSPropertyOp28
 70
     1
102
RTVSPropertyOp29
 70
     1
102
RTVSPropertyOp30
 70
     1
102
RTVSPropertyOp31
 70
     1
102
RTVSPropertyOp32
 70
     1
102
RTVSPropertyOp33
 70
     1
102
RTVSPropertyOp34
 70
     1
102
RTVSPropertyOp35
 70
     1
102
RTVSPropertyOp36
 70
     1
102
RTVSPropertyOp37
 70
     1
102
RTVSPropertyOp38
 70
     1
102
RTVSPropertyOp39
 70
     1
102
RTVSPropertyOp40
 70
     1
102
RTVSPropertyOp41
 70
     1
102
RTVSPropertyOp42
 70
     1
102
RTVSPropertyOp43
 70
     1
102
RTVSPropertyOp44
 70
     1
102
RTVSPropertyOp45
 70
     1
102
RTVSPropertyOp46
 70
     1
102
RTVSPropertyOp47
 70
     1
102
RTVSPropertyOp48
 70
     1
102
RTVSPropertyOp49
 70
     1
102
RTVSPropertyOp50
 70
     1
102
RTVSPropertyOp51
 70
     0
102
RTVSPropertyOp52
 70
     0
102
RTVSPropertyOp53
 70
     1
102
RTVSPropertyOp54
 70
     1
102
RTVSPropertyOp55
 70
     1
102
RTVSPropertyOp56
 70
     1
102
RTVSPropertyOp57
 70
     1
102
RTVSPost2010Prop28
280
     0
102
RTVSPost2010PropOp28
 70
     1
102
RTVSPost2010Prop29
280
     1
102
RTVSPost2010PropOp29
 70
     1
102
RTVSPost2010Prop30
280
     1
102
RTVSPost2010PropOp30
 70
     1
102
RTVSPost2010Prop31
280
     0
102
RTVSPost2010PropOp31
 70
     1
102
RTVSPost2010Prop32
280
     0
102
RTVSPost2010PropOp32
 70
     1
102
RTVSPost2010Prop33
280
     0
102
RTVSPost2010PropOp33
 70
     1
102
RTVSPost2010Prop34
280
     0
102
RTVSPost2010PropOp34
 70
     1
102
RTVSPost2010Prop35
280
     0
102
RTVSPost2010PropOp35
 70
     1
102
RTVSPost2010Prop36
280
     0
102
RTVSPost2010PropOp36
 70
     1
102
RTVSPost2010Prop37
 90
       50
102
RTVSPost2010PropOp37
 70
     1
102
RTVSPost2010Prop38
140
0.0
102
RTVSPost2010PropOp38
 70
     1
102
RTVSPost2010Prop39
140
1.0
102
RTVSPost2010PropOp39
 70
     1
102
RTVSPost2010Prop40
 90
        0
102
RTVSPost2010PropOp40
 70
     1
102
RTVSPost2010Prop41ColorIndex
 90
       18
102
RTVSPost2010Prop41ColorRGB
 90
        0
102
RTVSPost2010PropOp41
 70
     1
102
RTVSPost2010Prop42
 90
       50
102
RTVSPost2010PropOp42
 70
     1
102
RTVSPost2010Prop43
 90
        3
102
RTVSPost2010PropOp43
 70
     1
102
RTVSPost2010Prop44ColorIndex
 90
        5
102
RTVSPost2010Prop44ColorRGB
 90
      255
102
RTVSPost2010PropOp44
 70
     1
102
RTVSPost2010Prop45
280
     0
102
RTVSPost2010PropOp45
 70
     1
102
RTVSPost2010Prop46
 90
       50
102
RTVSPost2010PropOp46
 70
     1
102
RTVSPost2010Prop47
 90
       50
102
RTVSPost2010PropOp47
 70
     1
102
RTVSPost2010Prop48
 90
       50
102
RTVSPost2010PropOp48
 70
     1
102
RTVSPost2010Prop49
280
     0
102
RTVSPost2010PropOp49
 70
     1
102
RTVSPost2010Prop50
 90
       50
102
RTVSPost2010PropOp50
 70
     1
102
RTVSPost2010Prop51ColorIndex
 90
      256
102
RTVSPost2010Prop51ColorRGB
 90
-16777216
102
RTVSPost2010PropOp51
 70
     0
102
RTVSPost2010Prop52
140
1.0
102
RTVSPost2010PropOp52
 70
     0
102
RTVSPost2010Prop53
 90
        2
102
RTVSPost2010PropOp53
 70
     1
102
RTVSPost2010Prop54
  1
strokes_ogs.tif
102
RTVSPost2010PropOp54
 70
     1
102
RTVSPost2010Prop55
280
     0
102
RTVSPost2010PropOp55
 70
     1
102
RTVSPost2010Prop56
140
1.0
102
RTVSPost2010PropOp56
 70
     1
102
RTVSPost2010Prop57
140
1.0
102
RTVSPost2010PropOp57
 70
     1
  0
XRECORD
  5
3C3
102
{ACAD_REACTORS
330
3C2
102
}
330
3C2
100
AcDbXrecord
280
     1
102
RTVSPropertyOp0
 70
     1
102
RTVSPropertyOp1
 70
     1
102
RTVSPropertyOp2
 70
     1
102
RTVSPropertyOp3
 70
     1
102
RTVSPropertyOp4
 70
     1
102
RTVSPropertyOp5
 70
     1
102
RTVSPropertyOp6
 70
     1
102
RTVSPropertyOp7
 70
     1
102
RTVSPropertyOp8
 70
     1
102
RTVSPropertyOp9
 70
     1
102
RTVSPropertyOp10
 70
     1
102
RTVSPropertyOp11
 70
     1
102
RTVSPropertyOp12
 70
     1
102
RTVSPropertyOp13
 70
     1
102
RTVSPropertyOp14
 70
     1
102
RTVSPropertyOp15
 70
     1
102
RTVSPropertyOp16
 70
     1
102
RTVSPropertyOp17
 70
     1
102
RTVSPropertyOp18
 70
     1
102
RTVSPropertyOp19
 70
     1
102
RTVSPropertyOp20
 70
     1
102
RTVSPropertyOp21
 70
     1
102
RTVSPropertyOp22
 70
     1
102
RTVSPropertyOp23
 70
     1
102
RTVSPropertyOp24
 70
     1
102
RTVSPropertyOp25
 70
     1
102
RTVSPropertyOp26
 70
     1
102
RTVSPropertyOp27
 70
     1
102
RTVSPropertyOp28
 70
     1
102
RTVSPropertyOp29
 70
     1
102
RTVSPropertyOp30
 70
     1
102
RTVSPropertyOp31
 70
     1
102
RTVSPropertyOp32
 70
     1
102
RTVSPropertyOp33
 70
     1
102
RTVSPropertyOp34
 70
     1
102
RTVSPropertyOp35
 70
     1
102
RTVSPropertyOp36
 70
     1
102
RTVSPropertyOp37
 70
     1
102
RTVSPropertyOp38
 70
     1
102
RTVSPropertyOp39
 70
     1
102
RTVSPropertyOp40
 70
     1
102
RTVSPropertyOp41
 70
     1
102
RTVSPropertyOp42
 70
     1
102
RTVSPropertyOp43
 70
     1
102
RTVSPropertyOp44
 70
     1
102
RTVSPropertyOp45
 70
     1
102
RTVSPropertyOp46
 70
     1
102
RTVSPropertyOp47
 70
     1
102
RTVSPropertyOp48
 70
     1
102
RTVSPropertyOp49
 70
     1
102
RTVSPropertyOp50
 70
     1
102
RTVSPropertyOp51
 70
     0
102
RTVSPropertyOp52
 70
     0
102
RTVSPropertyOp53
 70
     1
102
RTVSPropertyOp54
 70
     1
102
RTVSPropertyOp55
 70
     1
102
RTVSPropertyOp56
 70
     1
102
RTVSPropertyOp57
 70
     1
102
RTVSPost2010Prop28
280
     0
102
RTVSPost2010PropOp28
 70
     1
102
RTVSPost2010Prop29
280
     1
102
RTVSPost2010PropOp29
 70
     1
102
RTVSPost2010Prop30
280
     1
102
RTVSPost2010PropOp30
 70
     1
102
RTVSPost2010Prop31
280
     0
102
RTVSPost2010PropOp31
 70
     1
102
RTVSPost2010Prop32
280
     0
102
RTVSPost2010PropOp32
 70
     1
102
RTVSPost2010Prop33
280
     0
102
RTVSPost2010PropOp33
 70
     1
102
RTVSPost2010Prop34
280
     0
102
RTVSPost2010PropOp34
 70
     1
102
RTVSPost2010Prop35
280
     0
102
RTVSPost2010PropOp35
 70
     1
102
RTVSPost2010Prop36
280
     0
102
RTVSPost2010PropOp36
 70
     1
102
RTVSPost2010Prop37
 90
       50
102
RTVSPost2010PropOp37
 70
     1
102
RTVSPost2010Prop38
140
0.0
102
RTVSPost2010PropOp38
 70
     1
102
RTVSPost2010Prop39
140
1.0
102
RTVSPost2010PropOp39
 70
     1
102
RTVSPost2010Prop40
 90
        0
102
RTVSPost2010PropOp40
 70
     1
102
RTVSPost2010Prop41ColorIndex
 90
       18
102
RTVSPost2010Prop41ColorRGB
 90
        0
102
RTVSPost2010PropOp41
 70
     1
102
RTVSPost2010Prop42
 90
       50
102
RTVSPost2010PropOp42
 70
     1
102
RTVSPost2010Prop43
 90
        3
102
RTVSPost2010PropOp43
 70
     1
102
RTVSPost2010Prop44ColorIndex
 90
        5
102
RTVSPost2010Prop44ColorRGB
 90
      255
102
RTVSPost2010PropOp44
 70
     1
102
RTVSPost2010Prop45
280
     0
102
RTVSPost2010PropOp45
 70
     1
102
RTVSPost2010Prop46
 90
       50
102
RTVSPost2010PropOp46
 70
     1
102
RTVSPost2010Prop47
 90
       50
102
RTVSPost2010PropOp47
 70
     1
102
RTVSPost2010Prop48
 90
       50
102
RTVSPost2010PropOp48
 70
     1
102
RTVSPost2010Prop49
280
     0
102
RTVSPost2010PropOp49
 70
     1
102
RTVSPost2010Prop50
 90
       50
102
RTVSPost2010PropOp50
 70
     1
102
RTVSPost2010Prop51ColorIndex
 90
      256
102
RTVSPost2010Prop51ColorRGB
 90
-16777216
102
RTVSPost2010PropOp51
 70
     0
102
RTVSPost2010Prop52
140
1.0
102
RTVSPost2010PropOp52
 70
     0
102
RTVSPost2010Prop53
 90
        2
102
RTVSPost2010PropOp53
 70
     1
102
RTVSPost2010Prop54
  1
strokes_ogs.tif
102
RTVSPost2010PropOp54
 70
     1
102
RTVSPost2010Prop55
280
     0
102
RTVSPost2010PropOp55
 70
     1
102
RTVSPost2010Prop56
140
1.0
102
RTVSPost2010PropOp56
 70
     1
102
RTVSPost2010Prop57
140
1.0
102
RTVSPost2010PropOp57
 70
     1
  0
ENDSEC
  0
EOF
