  0
SECTION
  2
HEADER
  9
$ACADVER
  1
AC1006
  9
$DWGCODEPAGE
  3
ansi_1252
  9
$INSBASE
 10
0.0
 20
0.0
 30
0.0
  9
$EXTMIN
 10
792.08318233
 20
-1042.86415267
  9
$EXTMAX
 10
1681.61775905
 20
-614.45596113
  9
$LIMMIN
 10
792.08318233
 20
-1042.86415267
  9
$LIMMAX
 10
1681.61775905
 20
-614.45596113
  9
$ORTHOMODE
 70
     0
  9
$REGENMODE
 70
     1
  9
$FILLMODE
 70
     1
  9
$QTEXTMODE
 70
     0
  9
$MIRRTEXT
 70
     1
  9
$DRAGMODE
 70
     2
  9
$LTSCALE
 40
1.0
  9
$OSMODE
 70
    37
  9
$ATTMODE
 70
     1
  9
$TEXTSIZE
 40
1.0
  9
$TRACEWID
 40
0.05
  9
$TEXTSTYLE
  7
STANDARD
  9
$CLAYER
  8
0
  9
$CELTYPE
  6
BYBLOCK
  9
$CECOLOR
 62
   256
  9
$DIMSCALE
 40
1.0
  9
$DIMASZ
 40
0.18
  9
$DIMEXO
 40
0.0625
  9
$DIMDLI
 40
0.38
  9
$DIMRND
 40
0.0
  9
$DIMDLE
 40
0.0
  9
$DIMEXE
 40
0.18
  9
$DIMTP
 40
0.0
  9
$DIMTM
 40
0.0
  9
$DIMTXT
 40
0.18
  9
$DIMCEN
 40
0.09
  9
$DIMTSZ
 40
0.0
  9
$DIMTOL
 70
     0
  9
$DIMLIM
 70
     0
  9
$DIMTIH
 70
     1
  9
$DIMTOH
 70
     1
  9
$DIMSE1
 70
     0
  9
$DIMSE2
 70
     0
  9
$DIMTAD
 70
     0
  9
$DIMZIN
 70
     0
  9
$DIMBLK
  1

  9
$DIMASO
 70
     1
  9
$DIMSHO
 70
     1
  9
$DIMPOST
  1

  9
$DIMAPOST
  1

  9
$DIMALT
 70
     0
  9
$DIMALTD
 70
     2
  9
$DIMALTF
 40
25.4
  9
$DIMLFAC
 40
1.0
  9
$DIMTOFL
 70
     0
  9
$DIMTVP
 40
0.0
  9
$DIMTIX
 70
     0
  9
$DIMSOXD
 70
     0
  9
$DIMSAH
 70
     0
  9
$DIMBLK1
  1

  9
$DIMBLK2
  1

  9
$LUNITS
 70
     2
  9
$LUPREC
 70
     4
  9
$SKETCHINC
 40
0.1
  9
$FILLETRAD
 40
0.5
  9
$AUNITS
 70
     0
  9
$AUPREC
 70
     0
  9
$MENU
  1
.
  9
$ELEVATION
 40
0.0
  9
$THICKNESS
 40
0.0
  9
$LIMCHECK
 70
     0
  9
$CHAMFERA
 40
0.0
  9
$CHAMFERB
 40
0.0
  9
$SKPOLY
 70
     0
  9
$TDCREATE
 40
2447893.125
  9
$TDUPDATE
 40
2460791.490731528
  9
$TDINDWG
 40
0.0
  9
$TDUSRTIMER
 40
0.0
  9
$USRTIMER
 70
     1
  9
$ANGBASE
 50
0.0
  9
$ANGDIR
 70
     0
  9
$PDMODE
 70
     0
  9
$PDSIZE
 40
0.0
  9
$PLINEWID
 40
0.0
  9
$COORDS
 70
     1
  9
$SPLFRAME
 70
     0
  9
$SPLINETYPE
 70
     6
  9
$SPLINESEGS
 70
     8
  9
$ATTDIA
 70
     0
  9
$ATTREQ
 70
     1
  9
$HANDLING
 70
     1
  9
$HANDSEED
  5
3AD
  9
$SURFTAB1
 70
     6
  9
$SURFTAB2
 70
     6
  9
$SURFTYPE
 70
     6
  9
$SURFU
 70
     6
  9
$SURFV
 70
     6
  9
$UCSNAME
  2

  9
$UCSORG
 10
0.0
 20
0.0
 30
0.0
  9
$UCSXDIR
 10
1.0
 20
0.0
 30
0.0
  9
$UCSYDIR
 10
0.0
 20
1.0
 30
0.0
  9
$USERI1
 70
     0
  9
$USERI2
 70
     0
  9
$USERI3
 70
     0
  9
$USERI4
 70
     0
  9
$USERI5
 70
     0
  9
$USERR1
 40
0.0
  9
$USERR2
 40
0.0
  9
$USERR3
 40
0.0
  9
$USERR4
 40
0.0
  9
$USERR5
 40
0.0
  9
$WORLDVIEW
 70
     1
  0
ENDSEC
  0
SECTION
  2
TABLES
  0
TABLE
  2
VPORT
 70
     1
  0
VPORT
  2
*ACTIVE
 70
     0
 10
0.0
 20
0.0
 11
1.0
 21
1.0
 12
1236.85047069
 22
-828.6600569
 13
0.0
 23
0.0
 14
1.0
 24
1.0
 15
0.0
 25
0.0
 16
0.0
 26
0.0
 36
1.0
 17
0.0
 27
0.0
 37
0.0
 40
428.408191539
 41
2.076371541
 42
50.0
 43
0.0
 44
0.0
 50
0.0
 51
0.0
 71
     0
 72
   100
 73
     1
 74
     1
 75
     0
 76
     0
 77
     0
 78
     0
  0
ENDTAB
  0
TABLE
  2
LTYPE
 70
    19
  0
LTYPE
  2
CONTINUOUS
 70
     0
  3
Solid line
 72
    65
 73
     0
 40
0.0
  0
LTYPE
  2
DOT
 70
     0
  3
..............
 72
    65
 73
     2
 40
2.0
 49
0.5
 49
-1.5
  0
LTYPE
  2
HIDDEN
 70
     0
  3
-- -- -- -- --
 72
    65
 73
     2
 40
7.0
 49
4.0
 49
-3.0
  0
LTYPE
  2
DASHDOT
 70
     0
  3
--.--.--.--.--
 72
    65
 73
     4
 40
8.5
 49
4.0
 49
-2.0
 49
0.5
 49
-2.0
  0
LTYPE
  2
STRICHPUNKT2
 70
     0
  3
--.--.--.--.--
 72
    65
 73
     4
 40
18.5
 49
10.0
 49
-4.0
 49
0.5
 49
-4.0
  0
LTYPE
  2
STRICHPUNKT3
 70
     0
  3
--.--.--.--.--
 72
    65
 73
     4
 40
35.5
 49
25.0
 49
-5.0
 49
0.5
 49
-5.0
  0
LTYPE
  2
PHANTOM
 70
     0
  3
--..--..--..--
 72
    65
 73
     6
 40
23.0
 49
10.0
 49
-4.0
 49
0.5
 49
-4.0
 49
0.5
 49
-4.0
  0
LTYPE
  2
PHANTOM2
 70
     0
  3
--..--..--..--
 72
    65
 73
     6
 40
33.0
 49
20.0
 49
-4.0
 49
0.5
 49
-4.0
 49
0.5
 49
-4.0
  0
LTYPE
  2
PHANTOM3
 70
     0
  3
--..--..--..--
 72
    65
 73
     6
 40
50.0
 49
37.0
 49
-4.0
 49
0.5
 49
-4.0
 49
0.5
 49
-4.0
  0
LTYPE
  2
STR3PKT
 70
     0
  3
--...--...--...
 72
    65
 73
     8
 40
31.5
 49
20.0
 49
-2.5
 49
0.5
 49
-2.5
 49
0.5
 49
-2.5
 49
0.5
 49
-2.5
  0
LTYPE
  2
2STRPKT
 70
     0
  3
--.--.--.--.--
 72
    65
 73
     6
 40
28.0
 49
10.0
 49
-2.5
 49
10.0
 49
-2.5
 49
0.5
 49
-2.5
  0
LTYPE
  2
GESTRICHELT2
 70
     0
  3
-- -- -- -- --
 72
    65
 73
     2
 40
25.0
 49
10.0
 49
-15.0
  0
LTYPE
  2
2STR2PKT
 70
     0
  3
--..--..--..--
 72
    65
 73
     8
 40
31.0
 49
10.0
 49
-2.5
 49
10.0
 49
-2.5
 49
0.5
 49
-2.5
 49
0.5
 49
-2.5
  0
LTYPE
  2
STR3PKT2
 70
     0
  3
--...--...--...
 72
    65
 73
     8
 40
21.0
 49
10.0
 49
-2.5
 49
0.5
 49
-2.5
 49
0.5
 49
-2.5
 49
0.5
 49
-2.0
  0
LTYPE
  2
2STR3PKT
 70
     0
  3
--...--...--...
 72
    65
 73
    10
 40
34.0
 49
10.0
 49
-2.5
 49
10.0
 49
-2.5
 49
0.5
 49
-2.5
 49
0.5
 49
-2.5
 49
0.5
 49
-2.5
  0
LTYPE
  2
STRKSTR
 70
     0
  3
-- - -- - -- -
 72
    65
 73
     4
 40
30.0
 49
20.0
 49
-2.5
 49
5.0
 49
-2.5
  0
LTYPE
  2
STRKSTR2
 70
     0
  3
-- - -- - -- -
 72
    65
 73
     6
 40
37.5
 49
20.0
 49
-2.5
 49
5.0
 49
-2.5
 49
5.0
 49
-2.5
  0
LTYPE
  2
STRKSTR3
 70
     0
  3
-- - -- - -- -
 72
    65
 73
     8
 40
45.0
 49
20.0
 49
-2.5
 49
5.0
 49
-2.5
 49
5.0
 49
-2.5
 49
5.0
 49
-2.5
  0
LTYPE
  2
PUNKT2
 70
     0
  3
..............
 72
    65
 73
     2
 40
3.5
 49
0.5
 49
-3.0
  0
ENDTAB
  0
TABLE
  2
LAYER
 70
    15
  0
LAYER
  2
0
 70
     0
 62
     7
  6
CONTINUOUS
  0
LAYER
  2
LE_GREEN
 70
     0
 62
     3
  6
CONTINUOUS
  0
LAYER
  2
LE_RED
 70
     0
 62
     1
  6
CONTINUOUS
  0
LAYER
  2
LE_ALL
 70
     0
 62
     7
  6
CONTINUOUS
  0
LAYER
  2
LE_HIDDEN1
 70
     0
 62
     3
  6
HIDDEN
  0
LAYER
  2
LE_HIDDEN
 70
     0
 62
     7
  6
CONTINUOUS
  0
LAYER
  2
LE_MIDDLE
 70
     0
 62
     7
  6
CONTINUOUS
  0
LAYER
  2
TXT_YELLOW
 70
     0
 62
     2
  6
CONTINUOUS
  0
LAYER
  2
TXT_DIM49
 70
     0
 62
     2
  6
CONTINUOUS
  0
LAYER
  2
TXT_ALL
 70
     0
 62
     7
  6
CONTINUOUS
  0
LAYER
  2
DIM49
 70
     0
 62
     4
  6
CONTINUOUS
  0
LAYER
  2
HATCH
 70
     0
 62
     3
  6
CONTINUOUS
  0
LAYER
  2
APPLE
 70
     0
 62
     7
  6
CONTINUOUS
  0
LAYER
  2
10
 70
     0
 62
     7
  6
CONTINUOUS
  0
LAYER
  2
49
 70
     0
 62
     7
  6
CONTINUOUS
  0
ENDTAB
  0
TABLE
  2
STYLE
 70
     5
  0
STYLE
  2
MONOTXT
 70
     0
 40
0.0
 41
1.0
 50
0.0
 71
     0
 42
1.0
  3
monotxt.shx
  4

  0
STYLE
  2
STANDARD
 70
     0
 40
0.0
 41
1.0
 50
0.0
 71
     0
 42
1.0
  3
txt
  4

  0
STYLE
  2
ARIAL
 70
     0
 40
0.0
 41
1.0
 50
0.0
 71
     0
 42
1.0
  3
arial.ttf
  4

  0
STYLE
  2
ARIAL_NARROW
 70
     0
 40
0.0
 41
1.0
 50
0.0
 71
     0
 42
1.0
  3
ArialN.ttf
  4

  0
STYLE
  2
ISOCPEUR
 70
     0
 40
0.0
 41
1.0
 50
0.0
 71
     0
 42
1.0
  3
ISOCPEUR.ttf
  4

  0
ENDTAB
  0
TABLE
  2
VIEW
 70
     0
  0
ENDTAB
  0
TABLE
  2
UCS
 70
     0
  0
ENDTAB
  0
ENDSEC
  0
SECTION
  2
BLOCKS
  0
ENDSEC
  0
SECTION
  2
ENTITIES
  0
POLYLINE
  5
16C
  8
0
 66
     1
 10
0.0
 20
0.0
 30
0.0
 70
     1
  0
VERTEX
  5
16D
  8
0
 10
949.18436267
 20
-994.84466557
 30
0.0
  0
VERTEX
  5
16E
  8
0
 10
1369.18436267
 20
-994.84466557
 30
0.0
  0
VERTEX
  5
16F
  8
0
 10
1369.18436267
 20
-697.84466557
 30
0.0
  0
VERTEX
  5
170
  8
0
 10
949.18436267
 20
-697.84466557
 30
0.0
  0
SEQEND
  5
171
  8
0
  0
POLYLINE
  5
172
  8
0
 66
     1
 10
0.0
 20
0.0
 30
0.0
 70
     1
  0
VERTEX
  5
173
  8
0
 10
954.18436267
 20
-989.84466557
 30
0.0
  0
VERTEX
  5
174
  8
0
 10
1364.18436267
 20
-989.84466557
 30
0.0
  0
VERTEX
  5
175
  8
0
 10
1364.18436267
 20
-702.84466557
 30
0.0
  0
VERTEX
  5
176
  8
0
 10
954.18436267
 20
-702.84466557
 30
0.0
  0
SEQEND
  5
177
  8
0
  0
LINE
  5
178
  8
0
 10
1179.18436267
 20
-989.84466557
 30
0.0
 11
1179.18436267
 21
-994.84466557
 31
0.0
  0
LINE
  5
179
  8
0
 10
1179.18436267
 20
-702.84466557
 30
0.0
 11
1179.18436267
 21
-697.84466557
 31
0.0
  0
LINE
  5
17A
  8
0
 10
969.18436267
 20
-989.84466557
 30
0.0
 11
969.18436267
 21
-994.84466557
 31
0.0
  0
LINE
  5
17B
  8
0
 10
969.18436267
 20
-702.84466557
 30
0.0
 11
969.18436267
 21
-697.84466557
 31
0.0
  0
TEXT
  5
17C
  8
TXT_ALL
 62
     4
 10
1368.18436267
 20
-993.84466557
 30
0.0
 40
2.5
  1

 50
90.00020741
  0
POLYLINE
  5
17D
  8
0
 66
     1
 10
0.0
 20
0.0
 30
0.0
  0
VERTEX
  5
17E
  8
0
 10
1364.18436267
 20
-712.84466557
 30
0.0
  0
VERTEX
  5
17F
  8
0
 10
1295.19106267
 20
-712.84466557
 30
0.0
  0
VERTEX
  5
180
  8
0
 10
1295.19106267
 20
-702.84466557
 30
0.0
  0
SEQEND
  5
181
  8
0
  0
LINE
  5
182
  8
0
 10
1297.09436267
 20
-970.34466557
 30
0.0
 11
1157.20436267
 21
-970.34466557
 31
0.0
  0
LINE
  5
183
  8
0
 10
1157.20436267
 20
-980.09466557
 30
0.0
 11
1297.09436267
 21
-980.09466557
 31
0.0
  0
POLYLINE
  5
184
  8
0
 66
     1
 10
0.0
 20
0.0
 30
0.0
  0
VERTEX
  5
185
  8
0
 10
1157.20436267
 20
-970.34466557
 30
0.0
  0
VERTEX
  5
186
  8
0
 10
1157.20436267
 20
-980.09466557
 30
0.0
  0
VERTEX
  5
187
  8
0
 10
1157.20436267
 20
-989.84466557
 30
0.0
  0
SEQEND
  5
188
  8
0
  0
POLYLINE
  5
189
  8
0
 66
     1
 10
0.0
 20
0.0
 30
0.0
  0
VERTEX
  5
18A
  8
0
 10
1227.14936267
 20
-970.34466557
 30
0.0
  0
VERTEX
  5
18B
  8
0
 10
1227.14936267
 20
-980.09466557
 30
0.0
  0
VERTEX
  5
18C
  8
0
 10
1227.14936267
 20
-989.84466557
 30
0.0
  0
SEQEND
  5
18D
  8
0
  0
TEXT
  5
18E
  8
TXT_ALL
 10
1159.20436267
 20
-976.51966552
 30
0.0
 40
2.5999999
  1
E-mail: verkoop@jonkers-bouwmetaal.nl
  7
ARIAL
  0
TEXT
  5
18F
  8
TXT_ALL
 10
1159.20436267
 20
-986.26966552
 30
0.0
 40
2.5999999
  1
Telefoon: 0527-685156
  7
ARIAL
  0
TEXT
  5
190
  8
TXT_ALL
 10
1229.14936267
 20
-986.26966552
 30
0.0
 40
2.5999999
  1
Website: www.jonkers-bouwmetaal.nl
  7
ARIAL
  0
TEXT
  5
191
  8
TXT_ALL
 10
1229.14936267
 20
-976.51966552
 30
0.0
 40
2.5999999
  1
Adres: Hoornse Hop 10, 8321 WX Urk
  7
ARIAL
  0
TEXT
  5
192
  8
TXT_ALL
 10
957.62632293
 20
-709.09466557
 30
0.0
 40
2.5
  1
Art. nr. 91001104
  7
ARIAL
  0
TEXT
  5
193
  8
TXT_ALL
 10
1000.36435974
 20
-709.09466557
 30
0.0
 40
2.5
  1
Omschrijving: Knieschotstrip 220x30x2
  7
ARIAL
  0
LINE
  5
194
  8
0
 10
1364.18436267
 20
-712.84466557
 30
0.0
 11
954.18436267
 21
-712.84466557
 31
0.0
  0
LINE
  5
195
  8
0
 10
997.20436267
 20
-712.84466557
 30
0.0
 11
997.20436267
 21
-702.84466557
 31
0.0
  0
LINE
  5
196
  8
0
 10
1157.20436267
 20
-712.84466557
 30
0.0
 11
1157.20436267
 21
-702.84466557
 31
0.0
  0
TEXT
  5
197
  8
TXT_ALL
 10
1228.19806267
 20
-709.09466557
 30
0.0
 40
2.5
  1
Behandeling: N.V.T.
  7
ARIAL
  0
LINE
  5
198
  8
0
 10
1297.09436267
 20
-970.34466557
 30
0.0
 11
1364.18436267
 21
-970.34466557
 31
0.0
  0
LINE
  5
199
  8
0
 10
1297.09436267
 20
-989.84466557
 30
0.0
 11
1297.09436267
 21
-970.34466557
 31
0.0
  0
LINE
  5
19A
  8
0
 10
1297.09436267
 20
-989.84466557
 30
0.0
 11
1297.09436267
 21
-970.34466557
 31
0.0
  0
TEXT
  5
19B
  8
TXT_ALL
 10
1091.54956077
 20
-988.69013215
 30
0.0
 40
2.5
  1

  0
TEXT
  5
19C
  8
TXT_ALL
 10
1212.68474373
 20
-978.59466557
 30
0.0
 40
2.5
  1

  0
POLYLINE
  5
19D
  8
0
 66
     1
 10
0.0
 20
0.0
 30
0.0
  0
VERTEX
  5
19E
  8
0
 10
1295.19106267
 20
-712.84466557
 30
0.0
  0
VERTEX
  5
19F
  8
0
 10
1226.19806267
 20
-712.84466557
 30
0.0
  0
VERTEX
  5
1A0
  8
0
 10
1226.19806267
 20
-702.84466557
 30
0.0
  0
SEQEND
  5
1A1
  8
0
  0
TEXT
  5
1A2
  8
TXT_ALL
 10
1297.19106267
 20
-709.09466557
 30
0.0
 40
2.5
  1
Verpakkingshoeveelheid: 200 st.
  7
ARIAL
  0
TEXT
  5
1A3
  8
TXT_ALL
 10
1159.20436267
 20
-709.09466557
 30
0.0
 40
2.5
  1
Materiaal: Sendzimir Verzinkt
  7
ARIAL
  0
TEXT
  5
1A4
  8
TXT_ALL
 10
1332.30084809
 20
-993.09417542
 30
0.0
 40
1.5
  1
Onderdeel van
  7
ARIAL
  0
LINE
  5
1A5
  8
0
 10
1346.56890155
 20
-753.34227659
 30
0.0
 11
1344.56890155
 21
-753.34227659
 31
0.0
  0
POLYLINE
  5
1A6
  8
0
 66
     1
 10
0.0
 20
0.0
 30
0.0
  0
VERTEX
  5
1A7
  8
0
 10
1344.56890155
 20
-751.34227659
 30
0.0
  0
VERTEX
  5
1A8
  8
0
 10
1346.56890155
 20
-751.34227659
 30
0.0
  0
VERTEX
  5
1A9
  8
0
 10
1346.56890155
 20
-753.34227659
 30
0.0
  0
SEQEND
  5
1AA
  8
0
  0
LINE
  5
1AB
  8
0
 10
1344.56890155
 20
-751.34227659
 30
0.0
 11
1128.56890155
 21
-751.34227659
 31
0.0
  0
POLYLINE
  5
1AC
  8
0
 66
     1
 10
0.0
 20
0.0
 30
0.0
  0
VERTEX
  5
1AD
  8
0
 10
1344.56890155
 20
-753.34227659
 30
0.0
  0
VERTEX
  5
1AE
  8
0
 10
1128.56890155
 20
-753.34227659
 30
0.0
  0
VERTEX
  5
1AF
  8
0
 10
1126.56890155
 20
-753.34227659
 30
0.0
  0
SEQEND
  5
1B0
  8
0
  0
LINE
  5
1B1
  8
0
 10
1126.56890155
 20
-751.34227659
 30
0.0
 11
1126.56890155
 21
-753.34227659
 31
0.0
  0
LINE
  5
1B2
  8
0
 10
1126.56890155
 20
-751.34227659
 30
0.0
 11
1128.56890155
 21
-751.34227659
 31
0.0
  0
LINE
  5
1B3
  8
0
  6
STRICHPUNKT2
 62
     1
 10
1141.56890155
 20
-751.34227659
 30
0.0
 11
1141.56890155
 21
-749.09227659
 31
0.0
  0
LINE
  5
1B4
  8
0
  6
STRICHPUNKT2
 62
     1
 10
1141.56890155
 20
-755.59227659
 30
0.0
 11
1141.56890155
 21
-753.34227659
 31
0.0
  0
LINE
  5
1B5
  8
0
  6
STRICHPUNKT2
 62
     1
 10
1156.56890155
 20
-751.34227659
 30
0.0
 11
1156.56890155
 21
-750.09227659
 31
0.0
  0
LINE
  5
1B6
  8
0
  6
STRICHPUNKT2
 62
     1
 10
1156.56890155
 20
-754.59227659
 30
0.0
 11
1156.56890155
 21
-753.34227659
 31
0.0
  0
LINE
  5
1B7
  8
0
  6
STRICHPUNKT2
 62
     1
 10
1334.06890155
 20
-751.34227659
 30
0.0
 11
1334.06890155
 21
-749.09227659
 31
0.0
  0
LINE
  5
1B8
  8
0
  6
STRICHPUNKT2
 62
     1
 10
1334.06890155
 20
-755.59227659
 30
0.0
 11
1334.06890155
 21
-753.34227659
 31
0.0
  0
LINE
  5
1B9
  8
0
  6
STRICHPUNKT2
 62
     1
 10
1323.06890155
 20
-751.34227659
 30
0.0
 11
1323.06890155
 21
-749.09227659
 31
0.0
  0
LINE
  5
1BA
  8
0
  6
STRICHPUNKT2
 62
     1
 10
1323.06890155
 20
-755.59227659
 30
0.0
 11
1323.06890155
 21
-753.34227659
 31
0.0
  0
POLYLINE
  5
1BB
  8
0
 66
     1
 10
0.0
 20
0.0
 30
0.0
 70
     1
  0
VERTEX
  5
1BC
  8
0
 10
1334.06890155
 20
-804.86876138
 30
0.0
  0
VERTEX
  5
1BD
  8
0
 10
1323.06890155
 20
-804.86876138
 30
0.0
 42
1.0
  0
VERTEX
  5
1BE
  8
0
 10
1323.06890155
 20
-813.86876138
 30
0.0
  0
VERTEX
  5
1BF
  8
0
 10
1334.06890155
 20
-813.86876138
 30
0.0
 42
1.0
  0
SEQEND
  5
1C0
  8
0
  0
CIRCLE
  5
1C1
  8
0
 10
1141.56890155
 20
-809.36876138
 30
0.0
 40
4.5
  0
CIRCLE
  5
1C2
  8
0
 10
1156.56890155
 20
-809.36876138
 30
0.0
 40
2.5
  0
POLYLINE
  5
1C3
  8
0
 66
     1
 10
0.0
 20
0.0
 30
0.0
 70
     1
  0
VERTEX
  5
1C4
  8
0
 10
1344.56890155
 20
-794.36876138
 30
0.0
  0
VERTEX
  5
1C5
  8
0
 10
1128.56890155
 20
-794.36876138
 30
0.0
 42
0.414213562
  0
VERTEX
  5
1C6
  8
0
 10
1126.56890155
 20
-796.36876138
 30
0.0
  0
VERTEX
  5
1C7
  8
0
 10
1126.56890155
 20
-822.36876138
 30
0.0
 42
0.414213562
  0
VERTEX
  5
1C8
  8
0
 10
1128.56890155
 20
-824.36876138
 30
0.0
  0
VERTEX
  5
1C9
  8
0
 10
1344.56890155
 20
-824.36876138
 30
0.0
 42
0.414213562
  0
VERTEX
  5
1CA
  8
0
 10
1346.56890155
 20
-822.36876138
 30
0.0
  0
VERTEX
  5
1CB
  8
0
 10
1346.56890155
 20
-796.36876138
 30
0.0
 42
0.414213562
  0
SEQEND
  5
1CC
  8
0
  0
LINE
  5
1CD
  8
0
  6
STRICHPUNKT2
 62
     1
 10
1141.56890155
 20
-809.36876138
 30
0.0
 11
1134.81890155
 21
-809.36876138
 31
0.0
  0
LINE
  5
1CE
  8
0
  6
STRICHPUNKT2
 62
     1
 10
1141.56890155
 20
-809.36876138
 30
0.0
 11
1148.31890155
 21
-809.36876138
 31
0.0
  0
LINE
  5
1CF
  8
0
  6
STRICHPUNKT2
 62
     1
 10
1141.56890155
 20
-809.36876138
 30
0.0
 11
1141.56890155
 21
-816.11876138
 31
0.0
  0
LINE
  5
1D0
  8
0
  6
STRICHPUNKT2
 62
     1
 10
1141.56890155
 20
-809.36876138
 30
0.0
 11
1141.56890155
 21
-802.61876138
 31
0.0
  0
LINE
  5
1D1
  8
0
  6
STRICHPUNKT2
 62
     1
 10
1340.81890155
 20
-809.36876138
 30
0.0
 11
1316.31890155
 21
-809.36876138
 31
0.0
  0
LINE
  5
1D2
  8
0
  6
STRICHPUNKT2
 62
     1
 10
1334.06890155
 20
-802.61876138
 30
0.0
 11
1334.06890155
 21
-816.11876138
 31
0.0
  0
LINE
  5
1D3
  8
0
  6
STRICHPUNKT2
 62
     1
 10
1323.06890155
 20
-802.61876138
 30
0.0
 11
1323.06890155
 21
-816.11876138
 31
0.0
  0
LINE
  5
1D4
  8
0
  6
STRICHPUNKT2
 62
     1
 10
1156.56890155
 20
-809.36876138
 30
0.0
 11
1160.31890155
 21
-809.36876138
 31
0.0
  0
LINE
  5
1D5
  8
0
  6
STRICHPUNKT2
 62
     1
 10
1156.56890155
 20
-809.36876138
 30
0.0
 11
1152.81890155
 21
-809.36876138
 31
0.0
  0
LINE
  5
1D6
  8
0
  6
STRICHPUNKT2
 62
     1
 10
1156.56890155
 20
-809.36876138
 30
0.0
 11
1156.56890155
 21
-805.61876138
 31
0.0
  0
LINE
  5
1D7
  8
0
  6
STRICHPUNKT2
 62
     1
 10
1156.56890155
 20
-809.36876138
 30
0.0
 11
1156.56890155
 21
-813.11876138
 31
0.0
  0
POLYLINE
  5
1D8
  8
0
 66
     1
 10
0.0
 20
0.0
 30
0.0
  0
VERTEX
  5
1D9
  8
0
 10
1179.46049744
 20
-925.09087463
 30
0.0
  0
VERTEX
  5
1DA
  8
0
 10
1169.86116492
 20
-922.44242376
 30
0.0
  0
SEQEND
  5
1DB
  8
0
  0
POLYLINE
  5
1DC
  8
0
 66
     1
 10
0.0
 20
0.0
 30
0.0
  0
VERTEX
  5
2D3
  8
0
 10
1169.861164906971
 20
-922.4424237481836
 30
0.0
  0
VERTEX
  5
2D4
  8
0
 10
1169.083483128944
 20
-922.2732221390006
 30
0.0
  0
VERTEX
  5
2D5
  8
0
 10
1168.255142613013
 20
-922.1791460549457
 30
0.0
  0
VERTEX
  5
2D6
  8
0
 10
1167.405699905193
 20
-922.1635522847477
 30
0.0
  0
VERTEX
  5
2D7
  8
0
 10
1166.565464512262
 20
-922.2269972396617
 30
0.0
  0
VERTEX
  5
2D8
  8
0
 10
1165.764417408926
 20
-922.3672170998055
 30
0.0
  0
VERTEX
  5
2D9
  8
0
 10
1165.031141267547
 20
-922.5792085909592
 30
0.0
  0
VERTEX
  5
2DA
  8
0
 10
1164.391800581587
 20
-922.8554075095823
 30
0.0
  0
VERTEX
  5
2DB
  8
0
 10
1163.869208073644
 20
-923.1859586259824
 30
0.0
  0
VERTEX
  5
2DC
  8
0
 10
1163.482010700145
 20
-923.559067335049
 30
0.0
  0
VERTEX
  5
2DD
  8
0
 10
1163.244024297413
 20
-923.961420507077
 30
0.0
  0
VERTEX
  5
2DE
  8
0
 10
1163.16374061
 20
-924.3786615220351
 30
0.0
  0
SEQEND
  5
398
  8
0
  0
POLYLINE
  5
1DD
  8
0
 66
     1
 10
0.0
 20
0.0
 30
0.0
  0
VERTEX
  5
2DF
  8
0
 10
1163.16374061
 20
-924.3786615220351
 30
0.0
  0
VERTEX
  5
2E0
  8
0
 10
1163.264607050024
 20
-924.8457993543603
 30
0.0
  0
VERTEX
  5
2E1
  8
0
 10
1163.562684581759
 20
-925.2919956173821
 30
0.0
  0
VERTEX
  5
2E2
  8
0
 10
1164.044610529429
 20
-925.6972475421579
 30
0.0
  0
VERTEX
  5
2E3
  8
0
 10
1164.688780379109
 20
-926.0433878752018
 30
0.0
  0
VERTEX
  5
2E4
  8
0
 10
1165.466316298932
 20
-926.3148993079271
 30
0.0
  0
SEQEND
  5
399
  8
0
  0
POLYLINE
  5
1DE
  8
0
 66
     1
 10
0.0
 20
0.0
 30
0.0
  0
VERTEX
  5
1DF
  8
0
 10
1165.46631629
 20
-926.3148993
 30
0.0
  0
VERTEX
  5
1E0
  8
0
 10
1175.06564881
 20
-928.96335017
 30
0.0
  0
SEQEND
  5
1E1
  8
0
  0
POLYLINE
  5
1E2
  8
0
 66
     1
 10
0.0
 20
0.0
 30
0.0
  0
VERTEX
  5
2E5
  8
0
 10
1175.065648808932
 20
-928.963350177927
 30
0.0
  0
VERTEX
  5
2E6
  8
0
 10
1175.843330588514
 20
-929.1325517889434
 30
0.0
  0
VERTEX
  5
2E7
  8
0
 10
1176.671671106797
 20
-929.2266278743881
 30
0.0
  0
VERTEX
  5
2E8
  8
0
 10
1177.521113817476
 20
-929.24222164546
 30
0.0
  0
VERTEX
  5
2E9
  8
0
 10
1178.361349213465
 20
-929.1787766908685
 30
0.0
  0
VERTEX
  5
2EA
  8
0
 10
1179.162396319742
 20
-929.0385568305
 30
0.0
  0
VERTEX
  5
2EB
  8
0
 10
1179.895672463644
 20
-928.8265653386172
 30
0.0
  0
VERTEX
  5
2EC
  8
0
 10
1180.535013151437
 20
-928.5503664188384
 30
0.0
  0
VERTEX
  5
2ED
  8
0
 10
1181.057605660303
 20
-928.2198153009648
 30
0.0
  0
VERTEX
  5
2EE
  8
0
 10
1181.444803033652
 20
-927.846706590241
 30
0.0
  0
VERTEX
  5
2EF
  8
0
 10
1181.682789435072
 20
-927.4443534165225
 30
0.0
  0
VERTEX
  5
2F0
  8
0
 10
1181.76307312
 20
-927.0271124
 30
0.0
  0
SEQEND
  5
39A
  8
0
  0
POLYLINE
  5
1E3
  8
0
 66
     1
 10
0.0
 20
0.0
 30
0.0
  0
VERTEX
  5
2F1
  8
0
 10
1181.76307312
 20
-927.0271124
 30
0.0
  0
VERTEX
  5
2F2
  8
0
 10
1181.662206676575
 20
-926.5599745678534
 30
0.0
  0
VERTEX
  5
2F3
  8
0
 10
1181.364129141592
 20
-926.1137783053591
 30
0.0
  0
VERTEX
  5
2F4
  8
0
 10
1180.88220319097
 20
-925.7085263814363
 30
0.0
  0
VERTEX
  5
2F5
  8
0
 10
1180.23803333877
 20
-925.3623860495326
 30
0.0
  0
VERTEX
  5
2F6
  8
0
 10
1179.460497416971
 20
-925.0908746181835
 30
0.0
  0
SEQEND
  5
39B
  8
0
  0
LINE
  5
1E4
  8
0
 10
1169.86116492
 20
-924.18241688
 30
0.0
 11
1179.46049744
 21
-926.83086775
 31
0.0
  0
POLYLINE
  5
1E5
  8
0
 66
     1
 10
0.0
 20
0.0
 30
0.0
  0
VERTEX
  5
2F7
  8
0
 10
1169.861164906971
 20
-924.1824168681836
 30
0.0
  0
VERTEX
  5
2F8
  8
0
 10
1169.095134353582
 20
-924.0151339736594
 30
0.0
  0
VERTEX
  5
2F9
  8
0
 10
1168.279488419189
 20
-923.9207639169024
 30
0.0
  0
VERTEX
  5
2FA
  8
0
 10
1167.442499257405
 20
-923.9025777799205
 30
0.0
  0
VERTEX
  5
2FB
  8
0
 10
1166.61317882692
 20
-923.9612059358168
 30
0.0
  0
VERTEX
  5
2FC
  8
0
 10
1165.820273270658
 20
-924.0946161986146
 30
0.0
  0
VERTEX
  5
2FD
  8
0
 10
1165.091266508715
 20
-924.2981842634726
 30
0.0
  0
VERTEX
  5
2FE
  8
0
 10
1164.451427582827
 20
-924.5648539956665
 30
0.0
  0
VERTEX
  5
2FF
  8
0
 10
1163.92293477359
 20
-924.8853820123574
 30
0.0
  0
VERTEX
  5
300
  8
0
 10
1163.524106850531
 20
-925.2486580793823
 30
0.0
  0
SEQEND
  5
39C
  8
0
  0
POLYLINE
  5
1E6
  8
0
 66
     1
 10
0.0
 20
0.0
 30
0.0
  0
VERTEX
  5
301
  8
0
 10
1181.402706885804
 20
-927.8971089567093
 30
0.0
  0
VERTEX
  5
302
  8
0
 10
1180.919866783058
 20
-927.4740282018308
 30
0.0
  0
VERTEX
  5
303
  8
0
 10
1180.261965053664
 20
-927.1128509174671
 30
0.0
  0
VERTEX
  5
304
  8
0
 10
1179.460497416971
 20
-926.8308677381835
 30
0.0
  0
SEQEND
  5
39D
  8
0
  0
POLYLINE
  5
1E7
  8
0
 66
     1
 10
0.0
 20
0.0
 30
0.0
  0
VERTEX
  5
305
  8
0
 10
1004.77475409
 20
-880.6792221920351
 30
0.0
  0
VERTEX
  5
306
  8
0
 10
1004.861220325231
 20
-881.1120808062828
 30
0.0
  0
VERTEX
  5
307
  8
0
 10
1005.11729618829
 20
-881.5283049070032
 30
0.0
  0
VERTEX
  5
308
  8
0
 10
1005.533140827347
 20
-881.9118992353901
 30
0.0
  0
VERTEX
  5
309
  8
0
 10
1006.092773566094
 20
-882.2481224764923
 30
0.0
  0
VERTEX
  5
30A
  8
0
 10
1006.774688032178
 20
-882.524053759681
 30
0.0
  0
VERTEX
  5
30B
  8
0
 10
1007.552678635029
 20
-882.7290892004631
 30
0.0
  0
VERTEX
  5
30C
  8
0
 10
1008.396847632015
 20
-882.8553494018166
 30
0.0
  0
VERTEX
  5
30D
  8
0
 10
1009.274754081923
 20
-882.897982255
 30
0.0
  0
VERTEX
  5
30E
  8
0
 10
1010.152660532141
 20
-882.8553494033705
 30
0.0
  0
VERTEX
  5
30F
  8
0
 10
1010.996829530046
 20
-882.7290892035112
 30
0.0
  0
VERTEX
  5
310
  8
0
 10
1011.774820134391
 20
-882.524053764106
 30
0.0
  0
VERTEX
  5
311
  8
0
 10
1012.456734602484
 20
-882.2481224821244
 30
0.0
  0
VERTEX
  5
312
  8
0
 10
1013.016367343679
 20
-881.9118992420127
 30
0.0
  0
VERTEX
  5
313
  8
0
 10
1013.432211985528
 20
-881.5283049143618
 30
0.0
  0
VERTEX
  5
314
  8
0
 10
1013.688287851618
 20
-881.1120808140947
 30
0.0
  0
VERTEX
  5
315
  8
0
 10
1013.77475409
 20
-880.6792222
 30
0.0
  0
SEQEND
  5
39E
  8
0
  0
POLYLINE
  5
1E8
  8
0
 66
     1
 10
0.0
 20
0.0
 30
0.0
  0
VERTEX
  5
316
  8
0
 10
1013.77475409
 20
-880.6792222
 30
0.0
  0
VERTEX
  5
317
  8
0
 10
1013.688287852012
 20
-880.2463635868818
 30
0.0
  0
VERTEX
  5
318
  8
0
 10
1013.432211987074
 20
-879.8301394874779
 30
0.0
  0
VERTEX
  5
319
  8
0
 10
1013.016367347044
 20
-879.4465451604708
 30
0.0
  0
VERTEX
  5
31A
  8
0
 10
1012.456734608195
 20
-879.1103219206917
 30
0.0
  0
VERTEX
  5
31B
  8
0
 10
1011.774820142786
 20
-878.8343906386597
 30
0.0
  0
VERTEX
  5
31C
  8
0
 10
1010.99682954124
 20
-878.6293551987749
 30
0.0
  0
VERTEX
  5
31D
  8
0
 10
1010.152660546004
 20
-878.5030949979891
 30
0.0
  0
VERTEX
  5
31E
  8
0
 10
1009.274754098077
 20
-878.4604621450001
 30
0.0
  0
VERTEX
  5
31F
  8
0
 10
1008.39684764984
 20
-878.5030949964353
 30
0.0
  0
VERTEX
  5
320
  8
0
 10
1007.552678653685
 20
-878.6293551957269
 30
0.0
  0
VERTEX
  5
321
  8
0
 10
1006.774688050646
 20
-878.8343906342345
 30
0.0
  0
VERTEX
  5
322
  8
0
 10
1006.092773583228
 20
-879.1103219150597
 30
0.0
  0
VERTEX
  5
323
  8
0
 10
1005.533140841931
 20
-879.4465451538482
 30
0.0
  0
VERTEX
  5
324
  8
0
 10
1005.117296199108
 20
-879.8301394801193
 30
0.0
  0
VERTEX
  5
325
  8
0
 10
1004.86122033114
 20
-880.2463635790699
 30
0.0
  0
VERTEX
  5
326
  8
0
 10
1004.77475409
 20
-880.6792221920351
 30
0.0
  0
SEQEND
  5
39F
  8
0
  0
POLYLINE
  5
1E9
  8
0
 66
     1
 10
0.0
 20
0.0
 30
0.0
  0
VERTEX
  5
327
  8
0
 10
1013.414387855804
 20
-881.5492187567094
 30
0.0
  0
VERTEX
  5
328
  8
0
 10
1012.994930462236
 20
-881.1708646820465
 30
0.0
  0
VERTEX
  5
329
  8
0
 10
1012.434971695694
 20
-880.8396575598495
 30
0.0
  0
VERTEX
  5
32A
  8
0
 10
1011.755659740466
 20
-880.5681062205475
 30
0.0
  0
VERTEX
  5
32B
  8
0
 10
1010.982650439942
 20
-880.3664664510142
 30
0.0
  0
VERTEX
  5
32C
  8
0
 10
1010.145138342225
 20
-880.242353660206
 30
0.0
  0
VERTEX
  5
32D
  8
0
 10
1009.274754098077
 20
-880.2004552650001
 30
0.0
  0
VERTEX
  5
32E
  8
0
 10
1008.404369853624
 20
-880.2423536586655
 30
0.0
  0
VERTEX
  5
32F
  8
0
 10
1007.566857755003
 20
-880.3664664479912
 30
0.0
  0
VERTEX
  5
330
  8
0
 10
1006.793848453011
 20
-880.5681062161564
 30
0.0
  0
VERTEX
  5
331
  8
0
 10
1006.114536495807
 20
-880.839657554256
 30
0.0
  0
VERTEX
  5
332
  8
0
 10
1005.554577726853
 20
-881.1708646754619
 30
0.0
  0
VERTEX
  5
333
  8
0
 10
1005.135120330531
 20
-881.5492187493822
 30
0.0
  0
SEQEND
  5
3A0
  8
0
  0
POLYLINE
  5
1EA
  8
0
 66
     1
 10
0.0
 20
0.0
 30
0.0
  0
VERTEX
  5
334
  8
0
 10
1019.86475298
 20
-884.2907461055751
 30
0.0
  0
VERTEX
  5
335
  8
0
 10
1019.912789777351
 20
-884.5312231134905
 30
0.0
  0
VERTEX
  5
336
  8
0
 10
1020.055054145717
 20
-884.7624587250018
 30
0.0
  0
VERTEX
  5
337
  8
0
 10
1020.286078945193
 20
-884.9755666852167
 30
0.0
  0
VERTEX
  5
338
  8
0
 10
1020.596986022274
 20
-885.1623573747179
 30
0.0
  0
VERTEX
  5
339
  8
0
 10
1020.975827392321
 20
-885.315652532045
 30
0.0
  0
VERTEX
  5
33A
  8
0
 10
1021.408044393905
 20
-885.4295611102573
 30
0.0
  0
VERTEX
  5
33B
  8
0
 10
1021.877027170009
 20
-885.4997056665648
 30
0.0
  0
VERTEX
  5
33C
  8
0
 10
1022.364752975513
 20
-885.523390585
 30
0.0
  0
VERTEX
  5
33D
  8
0
 10
1022.852478781189
 20
-885.4997056674281
 30
0.0
  0
VERTEX
  5
33E
  8
0
 10
1023.321461557804
 20
-885.4295611119506
 30
0.0
  0
VERTEX
  5
33F
  8
0
 10
1023.753678560217
 20
-885.3156525345033
 30
0.0
  0
VERTEX
  5
340
  8
0
 10
1024.13251993138
 20
-885.1623573778469
 30
0.0
  0
VERTEX
  5
341
  8
0
 10
1024.443427009822
 20
-884.9755666888959
 30
0.0
  0
VERTEX
  5
342
  8
0
 10
1024.674451810849
 20
-884.7624587290899
 30
0.0
  0
VERTEX
  5
343
  8
0
 10
1024.816716180899
 20
-884.5312231178303
 30
0.0
  0
VERTEX
  5
344
  8
0
 10
1024.86475298
 20
-884.29074611
 30
0.0
  0
SEQEND
  5
3A1
  8
0
  0
POLYLINE
  5
1EB
  8
0
 66
     1
 10
0.0
 20
0.0
 30
0.0
  0
VERTEX
  5
345
  8
0
 10
1024.86475298
 20
-884.29074611
 30
0.0
  0
VERTEX
  5
346
  8
0
 10
1024.816716181117
 20
-884.050269102712
 30
0.0
  0
VERTEX
  5
347
  8
0
 10
1024.674451811708
 20
-883.8190334919321
 30
0.0
  0
VERTEX
  5
348
  8
0
 10
1024.443427011691
 20
-883.6059255324838
 30
0.0
  0
VERTEX
  5
349
  8
0
 10
1024.132519934553
 20
-883.4191348437175
 30
0.0
  0
VERTEX
  5
34A
  8
0
 10
1023.753678564881
 20
-883.2658396870331
 30
0.0
  0
VERTEX
  5
34B
  8
0
 10
1023.321461564022
 20
-883.1519311093193
 30
0.0
  0
VERTEX
  5
34C
  8
0
 10
1022.852478788891
 20
-883.0817865533273
 30
0.0
  0
VERTEX
  5
34D
  8
0
 10
1022.364752984487
 20
-883.058101635
 30
0.0
  0
VERTEX
  5
34E
  8
0
 10
1021.877027179911
 20
-883.081786552464
 30
0.0
  0
VERTEX
  5
34F
  8
0
 10
1021.408044404269
 20
-883.1519311076261
 30
0.0
  0
VERTEX
  5
350
  8
0
 10
1020.975827402581
 20
-883.2658396845748
 30
0.0
  0
VERTEX
  5
351
  8
0
 10
1020.596986031793
 20
-883.4191348405886
 30
0.0
  0
VERTEX
  5
352
  8
0
 10
1020.286078953295
 20
-883.6059255288045
 30
0.0
  0
VERTEX
  5
353
  8
0
 10
1020.055054151727
 20
-883.8190334878441
 30
0.0
  0
VERTEX
  5
354
  8
0
 10
1019.912789780633
 20
-884.0502690983722
 30
0.0
  0
VERTEX
  5
355
  8
0
 10
1019.86475298
 20
-884.2907461055751
 30
0.0
  0
SEQEND
  5
3A2
  8
0
  0
POLYLINE
  5
1EC
  8
0
 66
     1
 10
0.0
 20
0.0
 30
0.0
  0
VERTEX
  5
356
  8
0
 10
1024.135788745397
 20
-885.1607426621455
 30
0.0
  0
VERTEX
  5
357
  8
0
 10
1023.756562681293
 20
-885.0067844094492
 30
0.0
  0
VERTEX
  5
358
  8
0
 10
1023.323598581115
 20
-884.892361246237
 30
0.0
  0
VERTEX
  5
359
  8
0
 10
1022.853613270741
 20
-884.821891072504
 30
0.0
  0
VERTEX
  5
35A
  8
0
 10
1022.364752971987
 20
-884.798094755
 30
0.0
  0
VERTEX
  5
35B
  8
0
 10
1021.875892673543
 20
-884.8218910740491
 30
0.0
  0
VERTEX
  5
35C
  8
0
 10
1021.405907364086
 20
-884.8923612492675
 30
0.0
  0
VERTEX
  5
35D
  8
0
 10
1020.972943265395
 20
-885.0067844138481
 30
0.0
  0
VERTEX
  5
35E
  8
0
 10
1020.593717203292
 20
-885.1607426677431
 30
0.0
  0
SEQEND
  5
3A3
  8
0
  0
POLYLINE
  5
1ED
  8
0
 66
     1
 10
0.0
 20
0.0
 30
0.0
  0
VERTEX
  5
35F
  8
0
 10
1194.519520219171
 20
-924.4431398792452
 30
0.0
  0
VERTEX
  5
360
  8
0
 10
1194.659625394481
 20
-924.2905590776471
 30
0.0
  0
VERTEX
  5
361
  8
0
 10
1194.745338562602
 20
-924.1284884077531
 30
0.0
  0
VERTEX
  5
362
  8
0
 10
1194.77418703
 20
-923.96160336
 30
0.0
  0
SEQEND
  5
3A4
  8
0
  0
LINE
  5
1EE
  8
0
 10
1194.77418703
 20
-925.70159648
 30
0.0
 11
1194.77418703
 21
-923.96160336
 31
0.0
  0
POLYLINE
  5
1EF
  8
0
 66
     1
 10
0.0
 20
0.0
 30
0.0
  0
VERTEX
  5
363
  8
0
 10
1194.519520219171
 20
-926.1831329992452
 30
0.0
  0
VERTEX
  5
364
  8
0
 10
1194.659625394481
 20
-926.0305521976471
 30
0.0
  0
VERTEX
  5
365
  8
0
 10
1194.745338562602
 20
-925.8684815277531
 30
0.0
  0
VERTEX
  5
366
  8
0
 10
1194.77418703
 20
-925.70159648
 30
0.0
  0
SEQEND
  5
3A5
  8
0
  0
LINE
  5
1F0
  8
0
 10
1181.82329084
 20
-935.63029144
 30
0.0
 11
1194.51952022
 21
-924.44313988
 31
0.0
  0
POLYLINE
  5
1F1
  8
0
 66
     1
 10
0.0
 20
0.0
 30
0.0
  0
VERTEX
  5
367
  8
0
 10
1179.101324622859
 20
-936.0093050435231
 30
0.0
  0
VERTEX
  5
368
  8
0
 10
1179.460587966676
 20
-936.0867129294628
 30
0.0
  0
VERTEX
  5
369
  8
0
 10
1179.843576481296
 20
-936.128075614965
 30
0.0
  0
VERTEX
  5
36A
  8
0
 10
1180.235572132823
 20
-936.1318035552162
 30
0.0
  0
VERTEX
  5
36B
  8
0
 10
1180.621510748142
 20
-936.0977534875622
 30
0.0
  0
VERTEX
  5
36C
  8
0
 10
1180.986560922642
 20
-936.027233937013
 30
0.0
  0
VERTEX
  5
36D
  8
0
 10
1181.316693982783
 20
-935.9229549303593
 30
0.0
  0
VERTEX
  5
36E
  8
0
 10
1181.599223100153
 20
-935.7889238513629
 30
0.0
  0
VERTEX
  5
36F
  8
0
 10
1181.823290839171
 20
-935.6302914392452
 30
0.0
  0
SEQEND
  5
3A6
  8
0
  0
LINE
  5
1F2
  8
0
 10
990.60534067
 20
-884.00336071
 30
0.0
 11
1179.10132462
 21
-936.00930504
 31
0.0
  0
POLYLINE
  5
1F3
  8
0
 66
     1
 10
0.0
 20
0.0
 30
0.0
  0
VERTEX
  5
370
  8
0
 10
989.5819737
 20
-883.14281058646
 30
0.0
  0
VERTEX
  5
371
  8
0
 10
989.6268032288997
 20
-883.3504274008268
 30
0.0
  0
VERTEX
  5
372
  8
0
 10
989.7592821318927
 20
-883.5487368510586
 30
0.0
  0
VERTEX
  5
373
  8
0
 10
989.9734714419686
 20
-883.7288488176257
 30
0.0
  0
VERTEX
  5
374
  8
0
 10
990.2597691529375
 20
-883.8826889656452
 30
0.0
  0
VERTEX
  5
375
  8
0
 10
990.6053406728588
 20
-884.0033607135231
 30
0.0
  0
SEQEND
  5
3A7
  8
0
  0
POLYLINE
  5
1F4
  8
0
 66
     1
 10
0.0
 20
0.0
 30
0.0
  0
VERTEX
  5
376
  8
0
 10
989.836640517089
 20
-882.6612740652386
 30
0.0
  0
VERTEX
  5
377
  8
0
 10
989.6965353391687
 20
-882.8138548672678
 30
0.0
  0
VERTEX
  5
378
  8
0
 10
989.6108221689309
 20
-882.9759255378442
 30
0.0
  0
VERTEX
  5
379
  8
0
 10
989.5819737
 20
-883.14281058646
 30
0.0
  0
SEQEND
  5
3A8
  8
0
  0
LINE
  5
1F5
  8
0
 10
1002.5328699
 20
-871.47412251
 30
0.0
 11
989.83664051
 21
-882.66127407
 31
0.0
  0
POLYLINE
  5
1F6
  8
0
 66
     1
 10
0.0
 20
0.0
 30
0.0
  0
VERTEX
  5
37A
  8
0
 10
1005.254836100876
 20
-871.0951089047483
 30
0.0
  0
VERTEX
  5
37B
  8
0
 10
1004.895572758872
 20
-871.0177010198249
 30
0.0
  0
VERTEX
  5
37C
  8
0
 10
1004.512584246539
 20
-870.976338334909
 30
0.0
  0
VERTEX
  5
37D
  8
0
 10
1004.120588597496
 20
-870.9726103947714
 30
0.0
  0
VERTEX
  5
37E
  8
0
 10
1003.734649984572
 20
-871.0066604620599
 30
0.0
  0
VERTEX
  5
37F
  8
0
 10
1003.369599812098
 20
-871.0771800117952
 30
0.0
  0
VERTEX
  5
380
  8
0
 10
1003.039466753357
 20
-871.1814590172523
 30
0.0
  0
VERTEX
  5
381
  8
0
 10
1002.756937636547
 20
-871.3154900947665
 30
0.0
  0
VERTEX
  5
382
  8
0
 10
1002.532869897089
 20
-871.4741225052386
 30
0.0
  0
SEQEND
  5
3A9
  8
0
  0
LINE
  5
1F7
  8
0
 10
1193.75082006
 20
-923.10105324
 30
0.0
 11
1005.25483611
 21
-871.09510891
 31
0.0
  0
POLYLINE
  5
1F8
  8
0
 66
     1
 10
0.0
 20
0.0
 30
0.0
  0
VERTEX
  5
383
  8
0
 10
1194.77418703
 20
-923.96160336
 30
0.0
  0
VERTEX
  5
384
  8
0
 10
1194.729357499589
 20
-923.7539865457127
 30
0.0
  0
VERTEX
  5
385
  8
0
 10
1194.596878595152
 20
-923.5556770957153
 30
0.0
  0
VERTEX
  5
386
  8
0
 10
1194.382689283765
 20
-923.3755651295273
 30
0.0
  0
VERTEX
  5
387
  8
0
 10
1194.096391571676
 20
-923.2217249820145
 30
0.0
  0
VERTEX
  5
388
  8
0
 10
1193.750820050876
 20
-923.1010532347483
 30
0.0
  0
SEQEND
  5
3AA
  8
0
  0
LINE
  5
1F9
  8
0
 10
989.5819737
 20
-884.88280371
 30
0.0
 11
989.5819737
 21
-883.14281059
 31
0.0
  0
POLYLINE
  5
1FA
  8
0
 66
     1
 10
0.0
 20
0.0
 30
0.0
  0
VERTEX
  5
389
  8
0
 10
989.5819737
 20
-884.88280370646
 30
0.0
  0
VERTEX
  5
38A
  8
0
 10
989.6268032288997
 20
-885.0904205208268
 30
0.0
  0
VERTEX
  5
38B
  8
0
 10
989.7592821318927
 20
-885.2887299710586
 30
0.0
  0
VERTEX
  5
38C
  8
0
 10
989.9734714419686
 20
-885.4688419376257
 30
0.0
  0
VERTEX
  5
38D
  8
0
 10
990.2597691529375
 20
-885.6226820856452
 30
0.0
  0
VERTEX
  5
38E
  8
0
 10
990.6053406728588
 20
-885.7433538335231
 30
0.0
  0
SEQEND
  5
3AB
  8
0
  0
LINE
  5
1FB
  8
0
 10
990.60534067
 20
-885.74335383
 30
0.0
 11
1179.10132462
 21
-937.74929816
 31
0.0
  0
POLYLINE
  5
1FC
  8
0
 66
     1
 10
0.0
 20
0.0
 30
0.0
  0
VERTEX
  5
38F
  8
0
 10
1179.101324622859
 20
-937.7492981635231
 30
0.0
  0
VERTEX
  5
390
  8
0
 10
1179.460587966676
 20
-937.8267060494628
 30
0.0
  0
VERTEX
  5
391
  8
0
 10
1179.843576481296
 20
-937.868068734965
 30
0.0
  0
VERTEX
  5
392
  8
0
 10
1180.235572132823
 20
-937.8717966752162
 30
0.0
  0
VERTEX
  5
393
  8
0
 10
1180.621510748142
 20
-937.8377466075622
 30
0.0
  0
VERTEX
  5
394
  8
0
 10
1180.986560922642
 20
-937.767227057013
 30
0.0
  0
VERTEX
  5
395
  8
0
 10
1181.316693982783
 20
-937.6629480503593
 30
0.0
  0
VERTEX
  5
396
  8
0
 10
1181.599223100153
 20
-937.528916971363
 30
0.0
  0
VERTEX
  5
397
  8
0
 10
1181.823290839171
 20
-937.3702845592452
 30
0.0
  0
SEQEND
  5
3AC
  8
0
  0
LINE
  5
1FD
  8
0
 10
1181.82329084
 20
-937.37028456
 30
0.0
 11
1194.51952022
 21
-926.183133
 31
0.0
  0
LINE
  5
1FE
  8
0
  6
STRICHPUNKT2
 62
     1
 10
1009.27475409
 20
-878.72172994
 30
0.0
 11
1009.27475409
 21
-882.89798225
 31
0.0
  0
LINE
  5
1FF
  8
0
  6
STRICHPUNKT2
 62
     1
 10
1009.27475409
 20
-880.6792222
 30
0.0
 11
1003.38425459
 21
-879.05403644
 31
0.0
  0
LINE
  5
200
  8
0
  6
STRICHPUNKT2
 62
     1
 10
1009.27475409
 20
-880.6792222
 30
0.0
 11
1015.16525359
 21
-882.30440796
 31
0.0
  0
LINE
  5
201
  8
0
  6
STRICHPUNKT2
 62
     1
 10
1009.27475409
 20
-880.6792222
 30
0.0
 11
1005.97861762
 21
-883.58357885
 31
0.0
  0
LINE
  5
202
  8
0
  6
STRICHPUNKT2
 62
     1
 10
1009.27475409
 20
-880.6792222
 30
0.0
 11
1012.57089057
 21
-877.77486554
 31
0.0
  0
LINE
  5
203
  8
0
  6
STRICHPUNKT2
 62
     1
 10
1009.27475409
 20
-882.41921532
 30
0.0
 11
1005.34775443
 21
-881.33575815
 31
0.0
  0
LINE
  5
204
  8
0
  6
STRICHPUNKT2
 62
     1
 10
1009.27475409
 20
-882.41921532
 30
0.0
 11
1010.63426555
 21
-882.79430383
 31
0.0
  0
LINE
  5
205
  8
0
  6
STRICHPUNKT2
 62
     1
 10
1009.27475409
 20
-882.41921532
 30
0.0
 11
1008.7486712
 21
-882.88276783
 31
0.0
  0
LINE
  5
206
  8
0
  6
STRICHPUNKT2
 62
     1
 10
1009.27475409
 20
-882.41921532
 30
0.0
 11
1011.47217841
 21
-880.48297755
 31
0.0
  0
LINE
  5
207
  8
0
  6
STRICHPUNKT2
 62
     1
 10
1177.26307312
 20
-925.06962014
 30
0.0
 11
1177.26307312
 21
-929.24587245
 31
0.0
  0
LINE
  5
208
  8
0
  6
STRICHPUNKT2
 62
     1
 10
1167.66374061
 20
-922.42116927
 30
0.0
 11
1167.66374061
 21
-926.92116753
 31
0.0
  0
LINE
  5
209
  8
0
  6
STRICHPUNKT2
 62
     1
 10
1183.15357262
 20
-928.65229816
 30
0.0
 11
1161.77324111
 21
-922.75347577
 31
0.0
  0
LINE
  5
20A
  8
0
  6
STRICHPUNKT2
 62
     1
 10
1180.5592096
 20
-924.12275574
 30
0.0
 11
1173.96693665
 21
-929.93146906
 31
0.0
  0
LINE
  5
20B
  8
0
  6
STRICHPUNKT2
 62
     1
 10
1170.95987708
 20
-921.47430488
 30
0.0
 11
1164.36760413
 21
-927.28301819
 31
0.0
  0
LINE
  5
20C
  8
0
  6
STRICHPUNKT2
 62
     1
 10
1178.62258459
 20
-929.14219403
 30
0.0
 11
1163.73674094
 21
-925.03519748
 31
0.0
  0
LINE
  5
20D
  8
0
  6
STRICHPUNKT2
 62
     1
 10
1179.46049744
 20
-926.83086775
 30
0.0
 11
1176.73699023
 21
-929.23065803
 31
0.0
  0
LINE
  5
20E
  8
0
  6
STRICHPUNKT2
 62
     1
 10
1169.86116492
 20
-924.18241688
 30
0.0
 11
1166.97014881
 21
-926.72980591
 31
0.0
  0
LINE
  5
20F
  8
0
  6
STRICHPUNKT2
 62
     1
 10
1022.36475298
 20
-883.20325041
 30
0.0
 11
1022.36475298
 21
-885.52339058
 31
0.0
  0
LINE
  5
210
  8
0
  6
STRICHPUNKT2
 62
     1
 10
1022.36475298
 20
-884.29074611
 30
0.0
 11
1025.6372527
 21
-885.19362709
 31
0.0
  0
LINE
  5
211
  8
0
  6
STRICHPUNKT2
 62
     1
 10
1022.36475298
 20
-884.29074611
 30
0.0
 11
1019.09225326
 21
-883.38786513
 31
0.0
  0
LINE
  5
212
  8
0
  6
STRICHPUNKT2
 62
     1
 10
1022.36475298
 20
-884.29074611
 30
0.0
 11
1024.19593991
 21
-882.67721464
 31
0.0
  0
LINE
  5
213
  8
0
  6
STRICHPUNKT2
 62
     1
 10
1022.36475298
 20
-884.29074611
 30
0.0
 11
1020.53356605
 21
-885.90427759
 31
0.0
  0
LINE
  5
214
  8
0
  6
STRICHPUNKT2
 62
     1
 10
1022.9841567
 20
-885.48495803
 30
0.0
 11
1023.58554426
 21
-884.95505158
 31
0.0
  0
POLYLINE
  5
215
  8
0
 66
     1
 10
0.0
 20
0.0
 30
0.0
  0
VERTEX
  5
216
  8
0
 10
1090.2612583
 20
-751.34227659
 30
0.0
  0
VERTEX
  5
217
  8
0
 10
1090.2612583
 20
-753.34227659
 30
0.0
  0
VERTEX
  5
218
  8
0
 10
1088.2612583
 20
-753.34227659
 30
0.0
  0
SEQEND
  5
219
  8
0
  0
LINE
  5
21A
  8
0
 10
1088.2612583
 20
-751.34227659
 30
0.0
 11
1090.2612583
 21
-751.34227659
 31
0.0
  0
LINE
  5
21B
  8
0
 10
1088.2612583
 20
-751.34227659
 30
0.0
 11
1062.2612583
 21
-751.34227659
 31
0.0
  0
POLYLINE
  5
21C
  8
0
 66
     1
 10
0.0
 20
0.0
 30
0.0
  0
VERTEX
  5
21D
  8
0
 10
1088.2612583
 20
-753.34227659
 30
0.0
  0
VERTEX
  5
21E
  8
0
 10
1062.2612583
 20
-753.34227659
 30
0.0
  0
VERTEX
  5
21F
  8
0
 10
1060.2612583
 20
-753.34227659
 30
0.0
  0
SEQEND
  5
220
  8
0
  0
LINE
  5
221
  8
0
 10
1060.2612583
 20
-751.34227659
 30
0.0
 11
1060.2612583
 21
-753.34227659
 31
0.0
  0
LINE
  5
222
  8
0
 10
1060.2612583
 20
-751.34227659
 30
0.0
 11
1062.2612583
 21
-751.34227659
 31
0.0
  0
LINE
  5
223
  8
0
  6
STRICHPUNKT2
 62
     1
 10
1075.2612583
 20
-751.34227659
 30
0.0
 11
1075.2612583
 21
-749.09227659
 31
0.0
  0
LINE
  5
224
  8
0
  6
STRICHPUNKT2
 62
     1
 10
1075.2612583
 20
-755.59227659
 30
0.0
 11
1075.2612583
 21
-753.34227659
 31
0.0
  0
TEXT
  5
225
  8
TXT_DIM49
 10
1233.78654505
 20
-741.68047238
 30
0.0
 40
2.5
  1
220
  7
ARIAL
  0
LINE
  5
226
  8
0
 62
     4
 10
1127.56890155
 20
-742.18047238
 30
0.0
 11
1125.56890155
 21
-744.18047238
 31
0.0
  0
LINE
  5
227
  8
0
 62
     4
 10
1345.81890155
 20
-743.93047238
 30
0.0
 11
1347.31890155
 21
-742.43047238
 31
0.0
  0
LINE
  5
228
  8
0
 62
     4
 10
1126.56890155
 20
-743.18047238
 30
0.0
 11
1346.56890155
 21
-743.18047238
 31
0.0
  0
LINE
  5
229
  8
0
 62
     4
 10
1126.56890155
 20
-745.18047238
 30
0.0
 11
1126.56890155
 21
-741.18047238
 31
0.0
  0
LINE
  5
22A
  8
0
 62
     4
 10
1346.56890155
 20
-745.18047238
 30
0.0
 11
1346.56890155
 21
-741.18047238
 31
0.0
  0
TEXT
  5
22B
  8
TXT_DIM49
 10
1120.37356375
 20
-753.26972874
 30
0.0
 40
2.5
  1
2
 50
90.00020741
  7
ARIAL
  0
LINE
  5
22C
  8
0
 62
     4
 10
1122.87356375
 20
-752.34227659
 30
0.0
 11
1120.87356375
 21
-750.34227659
 31
0.0
  0
LINE
  5
22D
  8
0
 62
     4
 10
1121.12356375
 20
-752.59227659
 30
0.0
 11
1122.62356375
 21
-754.09227659
 31
0.0
  0
LINE
  5
22E
  8
0
 62
     4
 10
1121.87356375
 20
-751.34227659
 30
0.0
 11
1121.87356375
 21
-753.34227659
 31
0.0
  0
LINE
  5
22F
  8
0
 62
     4
 10
1123.87356375
 20
-751.34227659
 30
0.0
 11
1119.87356375
 21
-751.34227659
 31
0.0
  0
LINE
  5
230
  8
0
 62
     4
 10
1123.87356375
 20
-753.34227659
 30
0.0
 11
1119.87356375
 21
-753.34227659
 31
0.0
  0
TEXT
  5
231
  8
TXT_DIM49
 10
1132.21399726
 20
-785.1310115
 30
0.0
 40
2.5
  1
15
  7
ARIAL
  0
LINE
  5
232
  8
0
 62
     4
 10
1127.56890155
 20
-785.6310115
 30
0.0
 11
1125.56890155
 21
-787.6310115
 31
0.0
  0
LINE
  5
233
  8
0
 62
     4
 10
1140.81890155
 20
-787.3810115
 30
0.0
 11
1142.31890155
 21
-785.8810115
 31
0.0
  0
LINE
  5
234
  8
0
 62
     4
 10
1126.56890155
 20
-786.6310115
 30
0.0
 11
1141.56890155
 21
-786.6310115
 31
0.0
  0
LINE
  5
235
  8
0
 62
     4
 10
1126.56890155
 20
-788.6310115
 30
0.0
 11
1126.56890155
 21
-784.6310115
 31
0.0
  0
LINE
  5
236
  8
0
 62
     4
 10
1141.56890155
 20
-788.6310115
 30
0.0
 11
1141.56890155
 21
-784.6310115
 31
0.0
  0
TEXT
  5
237
  8
TXT_DIM49
 10
1147.21399726
 20
-785.1310115
 30
0.0
 40
2.5
  1
15
  7
ARIAL
  0
LINE
  5
238
  8
0
 62
     4
 10
1142.56890155
 20
-785.6310115
 30
0.0
 11
1140.56890155
 21
-787.6310115
 31
0.0
  0
LINE
  5
239
  8
0
 62
     4
 10
1155.81890155
 20
-787.3810115
 30
0.0
 11
1157.31890155
 21
-785.8810115
 31
0.0
  0
LINE
  5
23A
  8
0
 62
     4
 10
1141.56890155
 20
-786.6310115
 30
0.0
 11
1156.56890155
 21
-786.6310115
 31
0.0
  0
LINE
  5
23B
  8
0
 62
     4
 10
1141.56890155
 20
-788.6310115
 30
0.0
 11
1141.56890155
 21
-784.6310115
 31
0.0
  0
LINE
  5
23C
  8
0
 62
     4
 10
1156.56890155
 20
-788.6310115
 30
0.0
 11
1156.56890155
 21
-784.6310115
 31
0.0
  0
TEXT
  5
23D
  8
TXT_DIM49
 10
1239.78654505
 20
-785.1310115
 30
0.0
 40
2.5
  1
172
  7
ARIAL
  0
LINE
  5
23E
  8
0
 62
     4
 10
1157.56890155
 20
-785.6310115
 30
0.0
 11
1155.56890155
 21
-787.6310115
 31
0.0
  0
LINE
  5
23F
  8
0
 62
     4
 10
1327.81890155
 20
-787.3810115
 30
0.0
 11
1329.31890155
 21
-785.8810115
 31
0.0
  0
LINE
  5
240
  8
0
 62
     4
 10
1156.56890155
 20
-786.6310115
 30
0.0
 11
1328.56890155
 21
-786.6310115
 31
0.0
  0
LINE
  5
241
  8
0
 62
     4
 10
1156.56890155
 20
-788.6310115
 30
0.0
 11
1156.56890155
 21
-784.6310115
 31
0.0
  0
LINE
  5
242
  8
0
 62
     4
 10
1328.56890155
 20
-788.6310115
 30
0.0
 11
1328.56890155
 21
-784.6310115
 31
0.0
  0
TEXT
  5
243
  8
TXT_DIM49
 10
1335.71399726
 20
-785.1310115
 30
0.0
 40
2.5
  1
18
  7
ARIAL
  0
LINE
  5
244
  8
0
 62
     4
 10
1329.56890155
 20
-785.6310115
 30
0.0
 11
1327.56890155
 21
-787.6310115
 31
0.0
  0
LINE
  5
245
  8
0
 62
     4
 10
1345.81890155
 20
-787.3810115
 30
0.0
 11
1347.31890155
 21
-785.8810115
 31
0.0
  0
LINE
  5
246
  8
0
 62
     4
 10
1328.56890155
 20
-786.6310115
 30
0.0
 11
1346.56890155
 21
-786.6310115
 31
0.0
  0
LINE
  5
247
  8
0
 62
     4
 10
1328.56890155
 20
-788.6310115
 30
0.0
 11
1328.56890155
 21
-784.6310115
 31
0.0
  0
LINE
  5
248
  8
0
 62
     4
 10
1346.56890155
 20
-788.6310115
 30
0.0
 11
1346.56890155
 21
-784.6310115
 31
0.0
  0
TEXT
  5
249
  8
TXT_DIM49
 10
1117.78709372
 20
-811.22366568
 30
0.0
 40
2.5
  1
30
 50
90.00020741
  7
ARIAL
  0
LINE
  5
24A
  8
0
 62
     4
 10
1118.28709372
 20
-823.36876138
 30
0.0
 11
1120.28709372
 21
-825.36876138
 31
0.0
  0
LINE
  5
24B
  8
0
 62
     4
 10
1120.03709372
 20
-795.11876138
 30
0.0
 11
1118.53709372
 21
-793.61876138
 31
0.0
  0
LINE
  5
24C
  8
0
 62
     4
 10
1119.28709372
 20
-824.36876138
 30
0.0
 11
1119.28709372
 21
-794.36876138
 31
0.0
  0
LINE
  5
24D
  8
0
 62
     4
 10
1121.28709372
 20
-824.36876138
 30
0.0
 11
1117.28709372
 21
-824.36876138
 31
0.0
  0
LINE
  5
24E
  8
0
 62
     4
 10
1121.28709372
 20
-794.36876138
 30
0.0
 11
1117.28709372
 21
-794.36876138
 31
0.0
  0
TEXT
  5
24F
  8
TXT_DIM49
 10
1233.78654505
 20
-829.69614609
 30
0.0
 40
2.5
  1
220
  7
ARIAL
  0
LINE
  5
250
  8
0
 62
     4
 10
1127.56890155
 20
-830.19614609
 30
0.0
 11
1125.56890155
 21
-832.19614609
 31
0.0
  0
LINE
  5
251
  8
0
 62
     4
 10
1345.81890155
 20
-831.94614609
 30
0.0
 11
1347.31890155
 21
-830.44614609
 31
0.0
  0
LINE
  5
252
  8
0
 62
     4
 10
1126.56890155
 20
-831.19614609
 30
0.0
 11
1346.56890155
 21
-831.19614609
 31
0.0
  0
LINE
  5
253
  8
0
 62
     4
 10
1126.56890155
 20
-829.19614609
 30
0.0
 11
1126.56890155
 21
-833.19614609
 31
0.0
  0
LINE
  5
254
  8
0
 62
     4
 10
1346.56890155
 20
-829.19614609
 30
0.0
 11
1346.56890155
 21
-833.19614609
 31
0.0
  0
TEXT
  5
255
  8
TXT_DIM49
 10
1353.27135892
 20
-803.72366568
 30
0.0
 40
2.5
  1
15
 50
90.00020741
  7
ARIAL
  0
LINE
  5
256
  8
0
 62
     4
 10
1355.77135892
 20
-795.36876138
 30
0.0
 11
1353.77135892
 21
-793.36876138
 31
0.0
  0
LINE
  5
257
  8
0
 62
     4
 10
1354.02135892
 20
-808.61876138
 30
0.0
 11
1355.52135892
 21
-810.11876138
 31
0.0
  0
LINE
  5
258
  8
0
 62
     4
 10
1354.77135892
 20
-794.36876138
 30
0.0
 11
1354.77135892
 21
-809.36876138
 31
0.0
  0
LINE
  5
259
  8
0
 62
     4
 10
1352.77135892
 20
-794.36876138
 30
0.0
 11
1356.77135892
 21
-794.36876138
 31
0.0
  0
LINE
  5
25A
  8
0
 62
     4
 10
1352.77135892
 20
-809.36876138
 30
0.0
 11
1356.77135892
 21
-809.36876138
 31
0.0
  0
TEXT
  5
25B
  8
TXT_DIM49
 10
1353.27135892
 20
-818.72366568
 30
0.0
 40
2.5
  1
15
 50
90.00020741
  7
ARIAL
  0
LINE
  5
25C
  8
0
 62
     4
 10
1355.77135892
 20
-810.36876138
 30
0.0
 11
1353.77135892
 21
-808.36876138
 31
0.0
  0
LINE
  5
25D
  8
0
 62
     4
 10
1354.02135892
 20
-823.61876138
 30
0.0
 11
1355.52135892
 21
-825.11876138
 31
0.0
  0
LINE
  5
25E
  8
0
 62
     4
 10
1354.77135892
 20
-809.36876138
 30
0.0
 11
1354.77135892
 21
-824.36876138
 31
0.0
  0
LINE
  5
25F
  8
0
 62
     4
 10
1352.77135892
 20
-809.36876138
 30
0.0
 11
1356.77135892
 21
-809.36876138
 31
0.0
  0
LINE
  5
260
  8
0
 62
     4
 10
1352.77135892
 20
-824.36876138
 30
0.0
 11
1356.77135892
 21
-824.36876138
 31
0.0
  0
LINE
  5
261
  8
0
 62
     5
 10
1328.56890155
 20
-809.36876138
 30
0.0
 11
1326.65536445
 21
-820.75058092
 31
0.0
  0
TEXT
  5
262
  8
TXT_DIM49
 10
1305.428223
 20
-822.00058092
 30
0.0
 40
2.5
  1
Slobgat 9 x 20
  7
ARIAL
  0
LINE
  5
263
  8
0
 62
     5
 10
1141.56890155
 20
-809.36876138
 30
0.0
 11
1146.44419874
 21
-800.95309938
 31
0.0
  0
TEXT
  5
264
  8
TXT_DIM49
 10
1146.44419874
 20
-802.20309938
 30
0.0
 40
2.5
  1
Ø9
  7
ARIAL
  0
LINE
  5
265
  8
0
 62
     5
 10
1156.56890155
 20
-809.36876138
 30
0.0
 11
1160.5643148
 21
-814.78287135
 31
0.0
  0
TEXT
  5
266
  8
TXT_DIM49
 10
1160.5643148
 20
-816.03287135
 30
0.0
 40
2.5
  1
Ø5
  7
ARIAL
  0
TEXT
  5
267
  8
TXT_DIM49
 10
1073.406354
 20
-743.59787716
 30
0.0
 40
2.5
  1
30
  7
ARIAL
  0
LINE
  5
268
  8
0
 62
     4
 10
1061.2612583
 20
-744.09787716
 30
0.0
 11
1059.2612583
 21
-746.09787716
 31
0.0
  0
LINE
  5
269
  8
0
 62
     4
 10
1089.5112583
 20
-745.84787716
 30
0.0
 11
1091.0112583
 21
-744.34787716
 31
0.0
  0
LINE
  5
26A
  8
0
 62
     4
 10
1060.2612583
 20
-745.09787716
 30
0.0
 11
1090.2612583
 21
-745.09787716
 31
0.0
  0
LINE
  5
26B
  8
0
 62
     4
 10
1060.2612583
 20
-747.09787716
 30
0.0
 11
1060.2612583
 21
-743.09787716
 31
0.0
  0
LINE
  5
26C
  8
0
 62
     4
 10
1090.2612583
 20
-747.09787716
 30
0.0
 11
1090.2612583
 21
-743.09787716
 31
0.0
  0
POINT
  5
26D
  8
0
 10
1159.18436267
 20
-818.71466557
 30
0.0
  0
POINT
  5
26E
  8
0
 62
     3
 10
1297.85372999
 20
-989.05198351
 30
0.0
  0
POINT
  5
26F
  8
0
 62
     3
 10
1363.71814369
 20
-971.1329886
 30
0.0
  0
POINT
  5
270
  8
0
 62
     3
 10
1297.85372999
 20
-971.1329886
 30
0.0
  0
POINT
  5
271
  8
0
 62
     3
 10
1363.71814369
 20
-989.05198351
 30
0.0
  0
POINT
  5
272
  8
0
 62
     3
 10
1346.02678875
 20
-994.73466557
 30
0.0
  0
POINT
  5
273
  8
0
 62
     3
 10
1363.71882072
 20
-989.92139216
 30
0.0
  0
POINT
  5
274
  8
0
 62
     3
 10
1346.02678875
 20
-989.92139216
 30
0.0
  0
POINT
  5
275
  8
0
 62
     3
 10
1363.71882072
 20
-994.73466557
 30
0.0
  0
ENDSEC
  0
EOF
