  0
SECTION
  2
HEADER
  9
$ACADVER
  1
AC1006
  9
$DWGCODEPAGE
  3
ansi_1252
  9
$INSBASE
 10
0.0
 20
0.0
 30
0.0
  9
$EXTMIN
 10
894.45578212
 20
-1181.13034567
  9
$EXTMAX
 10
1757.80866651
 20
-765.33150261
  9
$LIMMIN
 10
894.45578212
 20
-1181.13034567
  9
$LIMMAX
 10
1757.80866651
 20
-765.33150261
  9
$ORTHOMODE
 70
     0
  9
$REGENMODE
 70
     1
  9
$FILLMODE
 70
     1
  9
$QTEXTMODE
 70
     0
  9
$MIRRTEXT
 70
     1
  9
$DRAGMODE
 70
     2
  9
$LTSCALE
 40
1.0
  9
$OSMODE
 70
    37
  9
$ATTMODE
 70
     1
  9
$TEXTSIZE
 40
1.0
  9
$TRACEWID
 40
0.05
  9
$TEXTSTYLE
  7
STANDARD
  9
$CLAYER
  8
0
  9
$CELTYPE
  6
BYBLOCK
  9
$CECOLOR
 62
   256
  9
$DIMSCALE
 40
1.0
  9
$DIMASZ
 40
0.18
  9
$DIMEXO
 40
0.0625
  9
$DIMDLI
 40
0.38
  9
$DIMRND
 40
0.0
  9
$DIMDLE
 40
0.0
  9
$DIMEXE
 40
0.18
  9
$DIMTP
 40
0.0
  9
$DIMTM
 40
0.0
  9
$DIMTXT
 40
0.18
  9
$DIMCEN
 40
0.09
  9
$DIMTSZ
 40
0.0
  9
$DIMTOL
 70
     0
  9
$DIMLIM
 70
     0
  9
$DIMTIH
 70
     1
  9
$DIMTOH
 70
     1
  9
$DIMSE1
 70
     0
  9
$DIMSE2
 70
     0
  9
$DIMTAD
 70
     0
  9
$DIMZIN
 70
     0
  9
$DIMBLK
  1

  9
$DIMASO
 70
     1
  9
$DIMSHO
 70
     1
  9
$DIMPOST
  1

  9
$DIMAPOST
  1

  9
$DIMALT
 70
     0
  9
$DIMALTD
 70
     2
  9
$DIMALTF
 40
25.4
  9
$DIMLFAC
 40
1.0
  9
$DIMTOFL
 70
     0
  9
$DIMTVP
 40
0.0
  9
$DIMTIX
 70
     0
  9
$DIMSOXD
 70
     0
  9
$DIMSAH
 70
     0
  9
$DIMBLK1
  1

  9
$DIMBLK2
  1

  9
$LUNITS
 70
     2
  9
$LUPREC
 70
     4
  9
$SKETCHINC
 40
0.1
  9
$FILLETRAD
 40
0.5
  9
$AUNITS
 70
     0
  9
$AUPREC
 70
     0
  9
$MENU
  1
.
  9
$ELEVATION
 40
0.0
  9
$THICKNESS
 40
0.0
  9
$LIMCHECK
 70
     0
  9
$CHAMFERA
 40
0.0
  9
$CHAMFERB
 40
0.0
  9
$SKPOLY
 70
     0
  9
$TDCREATE
 40
2447893.125
  9
$TDUPDATE
 40
2460791.491462801
  9
$TDINDWG
 40
0.0
  9
$TDUSRTIMER
 40
0.0
  9
$USRTIMER
 70
     1
  9
$ANGBASE
 50
0.0
  9
$ANGDIR
 70
     0
  9
$PDMODE
 70
     0
  9
$PDSIZE
 40
0.0
  9
$PLINEWID
 40
0.0
  9
$COORDS
 70
     1
  9
$SPLFRAME
 70
     0
  9
$SPLINETYPE
 70
     6
  9
$SPLINESEGS
 70
     8
  9
$ATTDIA
 70
     0
  9
$ATTREQ
 70
     1
  9
$HANDLING
 70
     1
  9
$HANDSEED
  5
2E8
  9
$SURFTAB1
 70
     6
  9
$SURFTAB2
 70
     6
  9
$SURFTYPE
 70
     6
  9
$SURFU
 70
     6
  9
$SURFV
 70
     6
  9
$UCSNAME
  2

  9
$UCSORG
 10
0.0
 20
0.0
 30
0.0
  9
$UCSXDIR
 10
1.0
 20
0.0
 30
0.0
  9
$UCSYDIR
 10
0.0
 20
1.0
 30
0.0
  9
$USERI1
 70
     0
  9
$USERI2
 70
     0
  9
$USERI3
 70
     0
  9
$USERI4
 70
     0
  9
$USERI5
 70
     0
  9
$USERR1
 40
0.0
  9
$USERR2
 40
0.0
  9
$USERR3
 40
0.0
  9
$USERR4
 40
0.0
  9
$USERR5
 40
0.0
  9
$WORLDVIEW
 70
     1
  0
ENDSEC
  0
SECTION
  2
TABLES
  0
TABLE
  2
VPORT
 70
     1
  0
VPORT
  2
*ACTIVE
 70
     0
 10
0.0
 20
0.0
 11
1.0
 21
1.0
 12
1326.13222431
 22
-973.23092414
 13
0.0
 23
0.0
 14
1.0
 24
1.0
 15
0.0
 25
0.0
 16
0.0
 26
0.0
 36
1.0
 17
0.0
 27
0.0
 37
0.0
 40
415.798843057
 41
2.076371541
 42
50.0
 43
0.0
 44
0.0
 50
0.0
 51
0.0
 71
     0
 72
   100
 73
     1
 74
     1
 75
     0
 76
     0
 77
     0
 78
     0
  0
ENDTAB
  0
TABLE
  2
LTYPE
 70
    19
  0
LTYPE
  2
CONTINUOUS
 70
     0
  3
Solid line
 72
    65
 73
     0
 40
0.0
  0
LTYPE
  2
DOT
 70
     0
  3
..............
 72
    65
 73
     2
 40
2.0
 49
0.5
 49
-1.5
  0
LTYPE
  2
HIDDEN
 70
     0
  3
-- -- -- -- --
 72
    65
 73
     2
 40
7.0
 49
4.0
 49
-3.0
  0
LTYPE
  2
DASHDOT
 70
     0
  3
--.--.--.--.--
 72
    65
 73
     4
 40
8.5
 49
4.0
 49
-2.0
 49
0.5
 49
-2.0
  0
LTYPE
  2
STRICHPUNKT2
 70
     0
  3
--.--.--.--.--
 72
    65
 73
     4
 40
18.5
 49
10.0
 49
-4.0
 49
0.5
 49
-4.0
  0
LTYPE
  2
STRICHPUNKT3
 70
     0
  3
--.--.--.--.--
 72
    65
 73
     4
 40
35.5
 49
25.0
 49
-5.0
 49
0.5
 49
-5.0
  0
LTYPE
  2
PHANTOM
 70
     0
  3
--..--..--..--
 72
    65
 73
     6
 40
23.0
 49
10.0
 49
-4.0
 49
0.5
 49
-4.0
 49
0.5
 49
-4.0
  0
LTYPE
  2
PHANTOM2
 70
     0
  3
--..--..--..--
 72
    65
 73
     6
 40
33.0
 49
20.0
 49
-4.0
 49
0.5
 49
-4.0
 49
0.5
 49
-4.0
  0
LTYPE
  2
PHANTOM3
 70
     0
  3
--..--..--..--
 72
    65
 73
     6
 40
50.0
 49
37.0
 49
-4.0
 49
0.5
 49
-4.0
 49
0.5
 49
-4.0
  0
LTYPE
  2
STR3PKT
 70
     0
  3
--...--...--...
 72
    65
 73
     8
 40
31.5
 49
20.0
 49
-2.5
 49
0.5
 49
-2.5
 49
0.5
 49
-2.5
 49
0.5
 49
-2.5
  0
LTYPE
  2
2STRPKT
 70
     0
  3
--.--.--.--.--
 72
    65
 73
     6
 40
28.0
 49
10.0
 49
-2.5
 49
10.0
 49
-2.5
 49
0.5
 49
-2.5
  0
LTYPE
  2
GESTRICHELT2
 70
     0
  3
-- -- -- -- --
 72
    65
 73
     2
 40
25.0
 49
10.0
 49
-15.0
  0
LTYPE
  2
2STR2PKT
 70
     0
  3
--..--..--..--
 72
    65
 73
     8
 40
31.0
 49
10.0
 49
-2.5
 49
10.0
 49
-2.5
 49
0.5
 49
-2.5
 49
0.5
 49
-2.5
  0
LTYPE
  2
STR3PKT2
 70
     0
  3
--...--...--...
 72
    65
 73
     8
 40
21.0
 49
10.0
 49
-2.5
 49
0.5
 49
-2.5
 49
0.5
 49
-2.5
 49
0.5
 49
-2.0
  0
LTYPE
  2
2STR3PKT
 70
     0
  3
--...--...--...
 72
    65
 73
    10
 40
34.0
 49
10.0
 49
-2.5
 49
10.0
 49
-2.5
 49
0.5
 49
-2.5
 49
0.5
 49
-2.5
 49
0.5
 49
-2.5
  0
LTYPE
  2
STRKSTR
 70
     0
  3
-- - -- - -- -
 72
    65
 73
     4
 40
30.0
 49
20.0
 49
-2.5
 49
5.0
 49
-2.5
  0
LTYPE
  2
STRKSTR2
 70
     0
  3
-- - -- - -- -
 72
    65
 73
     6
 40
37.5
 49
20.0
 49
-2.5
 49
5.0
 49
-2.5
 49
5.0
 49
-2.5
  0
LTYPE
  2
STRKSTR3
 70
     0
  3
-- - -- - -- -
 72
    65
 73
     8
 40
45.0
 49
20.0
 49
-2.5
 49
5.0
 49
-2.5
 49
5.0
 49
-2.5
 49
5.0
 49
-2.5
  0
LTYPE
  2
PUNKT2
 70
     0
  3
..............
 72
    65
 73
     2
 40
3.5
 49
0.5
 49
-3.0
  0
ENDTAB
  0
TABLE
  2
LAYER
 70
    15
  0
LAYER
  2
0
 70
     0
 62
     7
  6
CONTINUOUS
  0
LAYER
  2
LE_GREEN
 70
     0
 62
     3
  6
CONTINUOUS
  0
LAYER
  2
LE_RED
 70
     0
 62
     1
  6
CONTINUOUS
  0
LAYER
  2
LE_ALL
 70
     0
 62
     7
  6
CONTINUOUS
  0
LAYER
  2
LE_HIDDEN1
 70
     0
 62
     3
  6
HIDDEN
  0
LAYER
  2
LE_HIDDEN
 70
     0
 62
     7
  6
CONTINUOUS
  0
LAYER
  2
LE_MIDDLE
 70
     0
 62
     7
  6
CONTINUOUS
  0
LAYER
  2
TXT_YELLOW
 70
     0
 62
     2
  6
CONTINUOUS
  0
LAYER
  2
TXT_DIM49
 70
     0
 62
     2
  6
CONTINUOUS
  0
LAYER
  2
TXT_ALL
 70
     0
 62
     7
  6
CONTINUOUS
  0
LAYER
  2
DIM49
 70
     0
 62
     4
  6
CONTINUOUS
  0
LAYER
  2
HATCH
 70
     0
 62
     3
  6
CONTINUOUS
  0
LAYER
  2
APPLE
 70
     0
 62
     7
  6
CONTINUOUS
  0
LAYER
  2
10
 70
     0
 62
     7
  6
CONTINUOUS
  0
LAYER
  2
49
 70
     0
 62
     7
  6
CONTINUOUS
  0
ENDTAB
  0
TABLE
  2
STYLE
 70
     5
  0
STYLE
  2
MONOTXT
 70
     0
 40
0.0
 41
1.0
 50
0.0
 71
     0
 42
1.0
  3
monotxt.shx
  4

  0
STYLE
  2
STANDARD
 70
     0
 40
0.0
 41
1.0
 50
0.0
 71
     0
 42
1.0
  3
txt
  4

  0
STYLE
  2
ARIAL
 70
     0
 40
0.0
 41
1.0
 50
0.0
 71
     0
 42
1.0
  3
arial.ttf
  4

  0
STYLE
  2
ARIAL_NARROW
 70
     0
 40
0.0
 41
1.0
 50
0.0
 71
     0
 42
1.0
  3
ArialN.ttf
  4

  0
STYLE
  2
ISOCPEUR
 70
     0
 40
0.0
 41
1.0
 50
0.0
 71
     0
 42
1.0
  3
ISOCPEUR.ttf
  4

  0
ENDTAB
  0
TABLE
  2
VIEW
 70
     0
  0
ENDTAB
  0
TABLE
  2
UCS
 70
     0
  0
ENDTAB
  0
ENDSEC
  0
SECTION
  2
BLOCKS
  0
ENDSEC
  0
SECTION
  2
ENTITIES
  0
POLYLINE
  5
16C
  8
0
 66
     1
 10
0.0
 20
0.0
 30
0.0
 70
     1
  0
VERTEX
  5
16D
  8
0
 10
960.10345007
 20
-1113.59963818
 30
0.0
  0
VERTEX
  5
16E
  8
0
 10
1380.10345007
 20
-1113.59963818
 30
0.0
  0
VERTEX
  5
16F
  8
0
 10
1380.10345007
 20
-816.59963818
 30
0.0
  0
VERTEX
  5
170
  8
0
 10
960.10345007
 20
-816.59963818
 30
0.0
  0
SEQEND
  5
171
  8
0
  0
POLYLINE
  5
172
  8
0
 66
     1
 10
0.0
 20
0.0
 30
0.0
 70
     1
  0
VERTEX
  5
173
  8
0
 10
965.10345007
 20
-1108.59963818
 30
0.0
  0
VERTEX
  5
174
  8
0
 10
1375.10345007
 20
-1108.59963818
 30
0.0
  0
VERTEX
  5
175
  8
0
 10
1375.10345007
 20
-821.59963818
 30
0.0
  0
VERTEX
  5
176
  8
0
 10
965.10345007
 20
-821.59963818
 30
0.0
  0
SEQEND
  5
177
  8
0
  0
LINE
  5
178
  8
0
 10
1190.10345007
 20
-1108.59963818
 30
0.0
 11
1190.10345007
 21
-1113.59963818
 31
0.0
  0
LINE
  5
179
  8
0
 10
1190.10345007
 20
-821.59963818
 30
0.0
 11
1190.10345007
 21
-816.59963818
 31
0.0
  0
LINE
  5
17A
  8
0
 10
980.10345007
 20
-1108.59963818
 30
0.0
 11
980.10345007
 21
-1113.59963818
 31
0.0
  0
LINE
  5
17B
  8
0
 10
980.10345007
 20
-821.59963818
 30
0.0
 11
980.10345007
 21
-816.59963818
 31
0.0
  0
TEXT
  5
17C
  8
TXT_ALL
 62
     4
 10
1379.10345007
 20
-1112.59963818
 30
0.0
 40
2.5
  1

 50
90.00020741
  0
POLYLINE
  5
17D
  8
0
 66
     1
 10
0.0
 20
0.0
 30
0.0
  0
VERTEX
  5
17E
  8
0
 10
1375.10345007
 20
-831.59963818
 30
0.0
  0
VERTEX
  5
17F
  8
0
 10
1306.11015007
 20
-831.59963818
 30
0.0
  0
VERTEX
  5
180
  8
0
 10
1306.11015007
 20
-821.59963818
 30
0.0
  0
SEQEND
  5
181
  8
0
  0
LINE
  5
182
  8
0
 10
1308.01345007
 20
-1089.09963818
 30
0.0
 11
1168.12345007
 21
-1089.09963818
 31
0.0
  0
LINE
  5
183
  8
0
 10
1168.12345007
 20
-1098.84963818
 30
0.0
 11
1308.01345007
 21
-1098.84963818
 31
0.0
  0
POLYLINE
  5
184
  8
0
 66
     1
 10
0.0
 20
0.0
 30
0.0
  0
VERTEX
  5
185
  8
0
 10
1168.12345007
 20
-1089.09963818
 30
0.0
  0
VERTEX
  5
186
  8
0
 10
1168.12345007
 20
-1098.84963818
 30
0.0
  0
VERTEX
  5
187
  8
0
 10
1168.12345007
 20
-1108.59963818
 30
0.0
  0
SEQEND
  5
188
  8
0
  0
POLYLINE
  5
189
  8
0
 66
     1
 10
0.0
 20
0.0
 30
0.0
  0
VERTEX
  5
18A
  8
0
 10
1238.06845007
 20
-1089.09963818
 30
0.0
  0
VERTEX
  5
18B
  8
0
 10
1238.06845007
 20
-1098.84963818
 30
0.0
  0
VERTEX
  5
18C
  8
0
 10
1238.06845007
 20
-1108.59963818
 30
0.0
  0
SEQEND
  5
18D
  8
0
  0
TEXT
  5
18E
  8
TXT_ALL
 10
1170.12345007
 20
-1095.27463813
 30
0.0
 40
2.5999999
  1
E-mail: verkoop@jonkers-bouwmetaal.nl
  7
ARIAL
  0
TEXT
  5
18F
  8
TXT_ALL
 10
1170.12345007
 20
-1105.02463813
 30
0.0
 40
2.5999999
  1
Telefoon: 0527-685156
  7
ARIAL
  0
TEXT
  5
190
  8
TXT_ALL
 10
1240.06845007
 20
-1105.02463813
 30
0.0
 40
2.5999999
  1
Website: www.jonkers-bouwmetaal.nl
  7
ARIAL
  0
TEXT
  5
191
  8
TXT_ALL
 10
1240.06845007
 20
-1095.27463813
 30
0.0
 40
2.5999999
  1
Adres: Hoornse Hop 10, 8321 WX Urk
  7
ARIAL
  0
TEXT
  5
192
  8
TXT_ALL
 10
968.54541032
 20
-827.84963818
 30
0.0
 40
2.5
  1
Art. nr. 91000699
  7
ARIAL
  0
TEXT
  5
193
  8
TXT_ALL
 10
1011.28344714
 20
-827.84963818
 30
0.0
 40
2.5
  1
Omschrijving: Koppelstrip 150x15x2
  7
ARIAL
  0
LINE
  5
194
  8
0
 10
1375.10345007
 20
-831.59963818
 30
0.0
 11
965.10345007
 21
-831.59963818
 31
0.0
  0
LINE
  5
195
  8
0
 10
1008.12345007
 20
-831.59963818
 30
0.0
 11
1008.12345007
 21
-821.59963818
 31
0.0
  0
LINE
  5
196
  8
0
 10
1168.12345007
 20
-831.59963818
 30
0.0
 11
1168.12345007
 21
-821.59963818
 31
0.0
  0
TEXT
  5
197
  8
TXT_ALL
 10
1239.11715007
 20
-827.84963818
 30
0.0
 40
2.5
  1
Behandeling: N.V.T.
  7
ARIAL
  0
LINE
  5
198
  8
0
 10
1308.01345007
 20
-1089.09963818
 30
0.0
 11
1375.10345007
 21
-1089.09963818
 31
0.0
  0
LINE
  5
199
  8
0
 10
1308.01345007
 20
-1108.59963818
 30
0.0
 11
1308.01345007
 21
-1089.09963818
 31
0.0
  0
LINE
  5
19A
  8
0
 10
1308.01345007
 20
-1108.59963818
 30
0.0
 11
1308.01345007
 21
-1089.09963818
 31
0.0
  0
TEXT
  5
19B
  8
TXT_ALL
 10
1102.46864816
 20
-1107.44510477
 30
0.0
 40
2.5
  1

  0
TEXT
  5
19C
  8
TXT_ALL
 10
1223.60383112
 20
-1097.34963818
 30
0.0
 40
2.5
  1

  0
POLYLINE
  5
19D
  8
0
 66
     1
 10
0.0
 20
0.0
 30
0.0
  0
VERTEX
  5
19E
  8
0
 10
1306.11015007
 20
-831.59963818
 30
0.0
  0
VERTEX
  5
19F
  8
0
 10
1237.11715007
 20
-831.59963818
 30
0.0
  0
VERTEX
  5
1A0
  8
0
 10
1237.11715007
 20
-821.59963818
 30
0.0
  0
SEQEND
  5
1A1
  8
0
  0
TEXT
  5
1A2
  8
TXT_ALL
 10
1308.11015007
 20
-827.84963818
 30
0.0
 40
2.5
  1
Verpakkingshoeveelheid: 500 st.
  7
ARIAL
  0
TEXT
  5
1A3
  8
TXT_ALL
 10
1170.12345007
 20
-827.84963818
 30
0.0
 40
2.5
  1
Materiaal: Sendzimir Verzinkt
  7
ARIAL
  0
TEXT
  5
1A4
  8
TXT_ALL
 10
1343.21993548
 20
-1111.84914803
 30
0.0
 40
1.5
  1
Onderdeel van
  7
ARIAL
  0
LINE
  5
1A5
  8
0
 10
1347.16869556
 20
-870.3707693
 30
0.0
 11
1197.16869556
 21
-870.3707693
 31
0.0
  0
LINE
  5
1A6
  8
0
 10
1197.16869556
 20
-868.3707693
 30
0.0
 11
1197.16869556
 21
-870.3707693
 31
0.0
  0
LINE
  5
1A7
  8
0
 10
1347.16869556
 20
-868.3707693
 30
0.0
 11
1197.16869556
 21
-868.3707693
 31
0.0
  0
LINE
  5
1A8
  8
0
 10
1347.16869556
 20
-868.3707693
 30
0.0
 11
1347.16869556
 21
-870.3707693
 31
0.0
  0
LINE
  5
1A9
  8
0
  6
STRICHPUNKT2
 62
     1
 10
1222.16869556
 20
-868.3707693
 30
0.0
 11
1222.16869556
 21
-866.8707693
 31
0.0
  0
LINE
  5
1AA
  8
0
  6
STRICHPUNKT2
 62
     1
 10
1222.16869556
 20
-871.8707693
 30
0.0
 11
1222.16869556
 21
-870.3707693
 31
0.0
  0
LINE
  5
1AB
  8
0
  6
STRICHPUNKT2
 62
     1
 10
1322.16869556
 20
-868.3707693
 30
0.0
 11
1322.16869556
 21
-866.8707693
 31
0.0
  0
LINE
  5
1AC
  8
0
  6
STRICHPUNKT2
 62
     1
 10
1322.16869556
 20
-871.8707693
 30
0.0
 11
1322.16869556
 21
-870.3707693
 31
0.0
  0
CIRCLE
  5
1AD
  8
0
 10
1222.16869556
 20
-916.95808593
 30
0.0
 40
3.0
  0
CIRCLE
  5
1AE
  8
0
 10
1322.16869556
 20
-916.95808593
 30
0.0
 40
3.0
  0
POLYLINE
  5
1AF
  8
0
 66
     1
 10
0.0
 20
0.0
 30
0.0
 70
     1
  0
VERTEX
  5
1B0
  8
0
 10
1197.16869556
 20
-924.45808593
 30
0.0
  0
VERTEX
  5
1B1
  8
0
 10
1347.16869556
 20
-924.45808593
 30
0.0
  0
VERTEX
  5
1B2
  8
0
 10
1347.16869556
 20
-909.45808593
 30
0.0
  0
VERTEX
  5
1B3
  8
0
 10
1197.16869556
 20
-909.45808593
 30
0.0
  0
SEQEND
  5
1B4
  8
0
  0
LINE
  5
1B5
  8
0
  6
STRICHPUNKT2
 62
     1
 10
1222.16869556
 20
-916.95808593
 30
0.0
 11
1226.66869556
 21
-916.95808593
 31
0.0
  0
LINE
  5
1B6
  8
0
  6
STRICHPUNKT2
 62
     1
 10
1222.16869556
 20
-916.95808593
 30
0.0
 11
1217.66869556
 21
-916.95808593
 31
0.0
  0
LINE
  5
1B7
  8
0
  6
STRICHPUNKT2
 62
     1
 10
1222.16869556
 20
-916.95808593
 30
0.0
 11
1222.16869556
 21
-912.45808593
 31
0.0
  0
LINE
  5
1B8
  8
0
  6
STRICHPUNKT2
 62
     1
 10
1222.16869556
 20
-916.95808593
 30
0.0
 11
1222.16869556
 21
-921.45808593
 31
0.0
  0
LINE
  5
1B9
  8
0
  6
STRICHPUNKT2
 62
     1
 10
1322.16869556
 20
-916.95808593
 30
0.0
 11
1326.66869556
 21
-916.95808593
 31
0.0
  0
LINE
  5
1BA
  8
0
  6
STRICHPUNKT2
 62
     1
 10
1322.16869556
 20
-916.95808593
 30
0.0
 11
1317.66869556
 21
-916.95808593
 31
0.0
  0
LINE
  5
1BB
  8
0
  6
STRICHPUNKT2
 62
     1
 10
1322.16869556
 20
-916.95808593
 30
0.0
 11
1322.16869556
 21
-912.45808593
 31
0.0
  0
LINE
  5
1BC
  8
0
  6
STRICHPUNKT2
 62
     1
 10
1322.16869556
 20
-916.95808593
 30
0.0
 11
1322.16869556
 21
-921.45808593
 31
0.0
  0
POLYLINE
  5
1BD
  8
0
 66
     1
 10
0.0
 20
0.0
 30
0.0
  0
VERTEX
  5
288
  8
0
 10
1021.60987618
 20
-1015.72429922461
 30
0.0
  0
VERTEX
  5
289
  8
0
 10
1021.667520336821
 20
-1016.017241676837
 30
0.0
  0
VERTEX
  5
28A
  8
0
 10
1021.83823757886
 20
-1016.29892651509
 30
0.0
  0
VERTEX
  5
28B
  8
0
 10
1022.115467338231
 20
-1016.558528748982
 30
0.0
  0
VERTEX
  5
28C
  8
0
 10
1022.488555830729
 20
-1016.786072010228
 30
0.0
  0
VERTEX
  5
28D
  8
0
 10
1022.943165474785
 20
-1016.972811938886
 30
0.0
  0
VERTEX
  5
28E
  8
0
 10
1023.461825876686
 20
-1017.111572224206
 30
0.0
  0
VERTEX
  5
28F
  8
0
 10
1024.02460520801
 20
-1017.197020386228
 30
0.0
  0
VERTEX
  5
290
  8
0
 10
1024.609876174615
 20
-1017.2258727
 30
0.0
  0
VERTEX
  5
291
  8
0
 10
1025.195147141427
 20
-1017.19702038728
 30
0.0
  0
VERTEX
  5
292
  8
0
 10
1025.757926473364
 20
-1017.111572226269
 30
0.0
  0
VERTEX
  5
293
  8
0
 10
1026.27658687626
 20
-1016.972811941881
 30
0.0
  0
VERTEX
  5
294
  8
0
 10
1026.731196521656
 20
-1016.78607201404
 30
0.0
  0
VERTEX
  5
295
  8
0
 10
1027.104285015786
 20
-1016.558528753464
 30
0.0
  0
VERTEX
  5
296
  8
0
 10
1027.381514777019
 20
-1016.29892652007
 30
0.0
  0
VERTEX
  5
297
  8
0
 10
1027.552232021078
 20
-1016.017241682124
 30
0.0
  0
VERTEX
  5
298
  8
0
 10
1027.60987618
 20
-1015.72429923
 30
0.0
  0
SEQEND
  5
2E2
  8
0
  0
POLYLINE
  5
1BE
  8
0
 66
     1
 10
0.0
 20
0.0
 30
0.0
  0
VERTEX
  5
299
  8
0
 10
1027.60987618
 20
-1015.72429923
 30
0.0
  0
VERTEX
  5
29A
  8
0
 10
1027.552232021341
 20
-1015.431356778537
 30
0.0
  0
VERTEX
  5
29B
  8
0
 10
1027.381514778049
 20
-1015.149671941175
 30
0.0
  0
VERTEX
  5
29C
  8
0
 10
1027.104285018029
 20
-1014.890069708216
 30
0.0
  0
VERTEX
  5
29D
  8
0
 10
1026.731196525463
 20
-1014.662526447866
 30
0.0
  0
VERTEX
  5
29E
  8
0
 10
1026.276586881857
 20
-1014.475786519991
 30
0.0
  0
VERTEX
  5
29F
  8
0
 10
1025.757926480826
 20
-1014.337026235279
 30
0.0
  0
VERTEX
  5
2A0
  8
0
 10
1025.195147150669
 20
-1014.25157807364
 30
0.0
  0
VERTEX
  5
2A1
  8
0
 10
1024.609876185385
 20
-1014.22272576
 30
0.0
  0
VERTEX
  5
2A2
  8
0
 10
1024.024605219893
 20
-1014.251578072588
 30
0.0
  0
VERTEX
  5
2A3
  8
0
 10
1023.461825889123
 20
-1014.337026233216
 30
0.0
  0
VERTEX
  5
2A4
  8
0
 10
1022.943165487097
 20
-1014.475786516996
 30
0.0
  0
VERTEX
  5
2A5
  8
0
 10
1022.488555842152
 20
-1014.662526444055
 30
0.0
  0
VERTEX
  5
2A6
  8
0
 10
1022.115467347954
 20
-1014.890069703735
 30
0.0
  0
VERTEX
  5
2A7
  8
0
 10
1021.838237586072
 20
-1015.149671936195
 30
0.0
  0
VERTEX
  5
2A8
  8
0
 10
1021.66752034076
 20
-1015.431356773251
 30
0.0
  0
VERTEX
  5
2A9
  8
0
 10
1021.60987618
 20
-1015.72429922461
 30
0.0
  0
SEQEND
  5
2E3
  8
0
  0
POLYLINE
  5
1BF
  8
0
 66
     1
 10
0.0
 20
0.0
 30
0.0
  0
VERTEX
  5
2AA
  8
0
 10
1027.061075610357
 20
-1016.590021601519
 30
0.0
  0
VERTEX
  5
2AB
  8
0
 10
1026.687581350467
 20
-1016.372580624278
 30
0.0
  0
VERTEX
  5
2AC
  8
0
 10
1026.238314538392
 20
-1016.194641908023
 30
0.0
  0
VERTEX
  5
2AD
  8
0
 10
1025.729659641691
 20
-1016.062694761659
 30
0.0
  0
VERTEX
  5
2AE
  8
0
 10
1025.180166972628
 20
-1015.981551211538
 30
0.0
  0
VERTEX
  5
2AF
  8
0
 10
1024.609876170384
 20
-1015.95417051
 30
0.0
  0
VERTEX
  5
2B0
  8
0
 10
1024.039585368492
 20
-1015.981551213368
 30
0.0
  0
VERTEX
  5
2B1
  8
0
 10
1023.490092700468
 20
-1016.062694765252
 30
0.0
  0
VERTEX
  5
2B2
  8
0
 10
1022.981437805457
 20
-1016.194641913248
 30
0.0
  0
VERTEX
  5
2B3
  8
0
 10
1022.532170995661
 20
-1016.372580630944
 30
0.0
  0
VERTEX
  5
2B4
  8
0
 10
1022.158676738556
 20
-1016.590021609384
 30
0.0
  0
SEQEND
  5
2E4
  8
0
  0
POLYLINE
  5
1C0
  8
0
 66
     1
 10
0.0
 20
0.0
 30
0.0
  0
VERTEX
  5
2B5
  8
0
 10
1106.48136492
 20
-1042.19457087461
 30
0.0
  0
VERTEX
  5
2B6
  8
0
 10
1106.539009076821
 20
-1042.487513326837
 30
0.0
  0
VERTEX
  5
2B7
  8
0
 10
1106.70972631886
 20
-1042.76919816509
 30
0.0
  0
VERTEX
  5
2B8
  8
0
 10
1106.986956078231
 20
-1043.028800398982
 30
0.0
  0
VERTEX
  5
2B9
  8
0
 10
1107.360044570729
 20
-1043.256343660228
 30
0.0
  0
VERTEX
  5
2BA
  8
0
 10
1107.814654214785
 20
-1043.443083588886
 30
0.0
  0
VERTEX
  5
2BB
  8
0
 10
1108.333314616686
 20
-1043.581843874206
 30
0.0
  0
VERTEX
  5
2BC
  8
0
 10
1108.89609394801
 20
-1043.667292036228
 30
0.0
  0
VERTEX
  5
2BD
  8
0
 10
1109.481364914615
 20
-1043.69614435
 30
0.0
  0
VERTEX
  5
2BE
  8
0
 10
1110.066635881427
 20
-1043.66729203728
 30
0.0
  0
VERTEX
  5
2BF
  8
0
 10
1110.629415213364
 20
-1043.581843876268
 30
0.0
  0
VERTEX
  5
2C0
  8
0
 10
1111.14807561626
 20
-1043.44308359188
 30
0.0
  0
VERTEX
  5
2C1
  8
0
 10
1111.602685261656
 20
-1043.25634366404
 30
0.0
  0
VERTEX
  5
2C2
  8
0
 10
1111.975773755786
 20
-1043.028800403464
 30
0.0
  0
VERTEX
  5
2C3
  8
0
 10
1112.253003517019
 20
-1042.76919817007
 30
0.0
  0
VERTEX
  5
2C4
  8
0
 10
1112.423720761078
 20
-1042.487513332123
 30
0.0
  0
VERTEX
  5
2C5
  8
0
 10
1112.48136492
 20
-1042.19457088
 30
0.0
  0
SEQEND
  5
2E5
  8
0
  0
POLYLINE
  5
1C1
  8
0
 66
     1
 10
0.0
 20
0.0
 30
0.0
  0
VERTEX
  5
2C6
  8
0
 10
1112.48136492
 20
-1042.19457088
 30
0.0
  0
VERTEX
  5
2C7
  8
0
 10
1112.423720761341
 20
-1041.901628428537
 30
0.0
  0
VERTEX
  5
2C8
  8
0
 10
1112.253003518049
 20
-1041.619943591174
 30
0.0
  0
VERTEX
  5
2C9
  8
0
 10
1111.97577375803
 20
-1041.360341358216
 30
0.0
  0
VERTEX
  5
2CA
  8
0
 10
1111.602685265463
 20
-1041.132798097866
 30
0.0
  0
VERTEX
  5
2CB
  8
0
 10
1111.148075621857
 20
-1040.946058169991
 30
0.0
  0
VERTEX
  5
2CC
  8
0
 10
1110.629415220826
 20
-1040.807297885279
 30
0.0
  0
VERTEX
  5
2CD
  8
0
 10
1110.066635890669
 20
-1040.72184972364
 30
0.0
  0
VERTEX
  5
2CE
  8
0
 10
1109.481364925385
 20
-1040.69299741
 30
0.0
  0
VERTEX
  5
2CF
  8
0
 10
1108.896093959893
 20
-1040.721849722588
 30
0.0
  0
VERTEX
  5
2D0
  8
0
 10
1108.333314629123
 20
-1040.807297883216
 30
0.0
  0
VERTEX
  5
2D1
  8
0
 10
1107.814654227097
 20
-1040.946058166996
 30
0.0
  0
VERTEX
  5
2D2
  8
0
 10
1107.360044582152
 20
-1041.132798094054
 30
0.0
  0
VERTEX
  5
2D3
  8
0
 10
1106.986956087954
 20
-1041.360341353734
 30
0.0
  0
VERTEX
  5
2D4
  8
0
 10
1106.709726326072
 20
-1041.619943586194
 30
0.0
  0
VERTEX
  5
2D5
  8
0
 10
1106.53900908076
 20
-1041.90162842325
 30
0.0
  0
VERTEX
  5
2D6
  8
0
 10
1106.48136492
 20
-1042.19457087461
 30
0.0
  0
SEQEND
  5
2E6
  8
0
  0
POLYLINE
  5
1C2
  8
0
 66
     1
 10
0.0
 20
0.0
 30
0.0
  0
VERTEX
  5
2D7
  8
0
 10
1111.932564350357
 20
-1043.060293251519
 30
0.0
  0
VERTEX
  5
2D8
  8
0
 10
1111.559070090467
 20
-1042.842852274278
 30
0.0
  0
VERTEX
  5
2D9
  8
0
 10
1111.109803278392
 20
-1042.664913558023
 30
0.0
  0
VERTEX
  5
2DA
  8
0
 10
1110.601148381691
 20
-1042.532966411659
 30
0.0
  0
VERTEX
  5
2DB
  8
0
 10
1110.051655712628
 20
-1042.451822861538
 30
0.0
  0
VERTEX
  5
2DC
  8
0
 10
1109.481364910385
 20
-1042.42444216
 30
0.0
  0
VERTEX
  5
2DD
  8
0
 10
1108.911074108492
 20
-1042.451822863368
 30
0.0
  0
VERTEX
  5
2DE
  8
0
 10
1108.361581440468
 20
-1042.532966415252
 30
0.0
  0
VERTEX
  5
2DF
  8
0
 10
1107.852926545457
 20
-1042.664913563248
 30
0.0
  0
VERTEX
  5
2E0
  8
0
 10
1107.403659735661
 20
-1042.842852280944
 30
0.0
  0
VERTEX
  5
2E1
  8
0
 10
1107.030165478556
 20
-1043.060293259384
 30
0.0
  0
SEQEND
  5
2E7
  8
0
  0
POLYLINE
  5
1C3
  8
0
 66
     1
 10
0.0
 20
0.0
 30
0.0
 70
     1
  0
VERTEX
  5
1C4
  8
0
 10
999.42562391
 20
-1012.29275071
 30
0.0
  0
VERTEX
  5
1C5
  8
0
 10
1126.73285701
 20
-1051.9981582
 30
0.0
  0
VERTEX
  5
1C6
  8
0
 10
1134.66561719
 20
-1045.62611939
 30
0.0
  0
VERTEX
  5
1C7
  8
0
 10
1007.35838408
 20
-1005.92071191
 30
0.0
  0
SEQEND
  5
1C8
  8
0
  0
LINE
  5
1C9
  8
0
 10
999.42562391
 20
-1014.02419547
 30
0.0
 11
999.42562391
 21
-1012.29275071
 31
0.0
  0
POLYLINE
  5
1CA
  8
0
 66
     1
 10
0.0
 20
0.0
 30
0.0
  0
VERTEX
  5
1CB
  8
0
 10
999.42562391
 20
-1014.02419547
 30
0.0
  0
VERTEX
  5
1CC
  8
0
 10
1126.73285701
 20
-1053.72960295
 30
0.0
  0
VERTEX
  5
1CD
  8
0
 10
1126.73285701
 20
-1051.9981582
 30
0.0
  0
SEQEND
  5
1CE
  8
0
  0
POLYLINE
  5
1CF
  8
0
 66
     1
 10
0.0
 20
0.0
 30
0.0
  0
VERTEX
  5
1D0
  8
0
 10
1126.73285701
 20
-1053.72960295
 30
0.0
  0
VERTEX
  5
1D1
  8
0
 10
1134.66561719
 20
-1047.35756415
 30
0.0
  0
VERTEX
  5
1D2
  8
0
 10
1134.66561719
 20
-1045.62611939
 30
0.0
  0
SEQEND
  5
1D3
  8
0
  0
LINE
  5
1D4
  8
0
  6
STRICHPUNKT2
 62
     1
 10
1024.60987618
 20
-1014.42571566
 30
0.0
 11
1024.60987618
 21
-1017.2258727
 31
0.0
  0
LINE
  5
1D5
  8
0
  6
STRICHPUNKT2
 62
     1
 10
1024.60987618
 20
-1015.72429923
 30
0.0
 11
1028.42909317
 21
-1016.91546145
 31
0.0
  0
LINE
  5
1D6
  8
0
  6
STRICHPUNKT2
 62
     1
 10
1024.60987618
 20
-1015.72429923
 30
0.0
 11
1020.79065919
 21
-1014.533137
 31
0.0
  0
LINE
  5
1D7
  8
0
  6
STRICHPUNKT2
 62
     1
 10
1024.60987618
 20
-1015.72429923
 30
0.0
 11
1026.98970423
 21
-1013.81268758
 31
0.0
  0
LINE
  5
1D8
  8
0
  6
STRICHPUNKT2
 62
     1
 10
1024.60987618
 20
-1015.72429923
 30
0.0
 11
1022.23004813
 21
-1017.63591087
 31
0.0
  0
LINE
  5
1D9
  8
0
  6
STRICHPUNKT2
 62
     1
 10
1023.58062504
 20
-1017.13473444
 30
0.0
 11
1022.53379425
 21
-1016.80824205
 31
0.0
  0
LINE
  5
1DA
  8
0
  6
STRICHPUNKT2
 62
     1
 10
1024.90512563
 20
-1017.21858303
 30
0.0
 11
1026.19642821
 21
-1016.18133622
 31
0.0
  0
LINE
  5
1DB
  8
0
  6
STRICHPUNKT2
 62
     1
 10
1109.48136492
 20
-1040.89598731
 30
0.0
 11
1109.48136492
 21
-1043.69614435
 31
0.0
  0
LINE
  5
1DC
  8
0
  6
STRICHPUNKT2
 62
     1
 10
1109.48136492
 20
-1042.19457088
 30
0.0
 11
1113.30058191
 21
-1043.3857331
 31
0.0
  0
LINE
  5
1DD
  8
0
  6
STRICHPUNKT2
 62
     1
 10
1109.48136492
 20
-1042.19457088
 30
0.0
 11
1105.66214792
 21
-1041.00340866
 31
0.0
  0
LINE
  5
1DE
  8
0
  6
STRICHPUNKT2
 62
     1
 10
1109.48136492
 20
-1042.19457088
 30
0.0
 11
1111.86119297
 21
-1040.28295924
 31
0.0
  0
LINE
  5
1DF
  8
0
  6
STRICHPUNKT2
 62
     1
 10
1109.48136492
 20
-1042.19457088
 30
0.0
 11
1107.10153686
 21
-1044.10618252
 31
0.0
  0
LINE
  5
1E0
  8
0
  6
STRICHPUNKT2
 62
     1
 10
1108.45211378
 20
-1043.6050061
 30
0.0
 11
1107.40528299
 21
-1043.27851371
 31
0.0
  0
LINE
  5
1E1
  8
0
  6
STRICHPUNKT2
 62
     1
 10
1109.77661436
 20
-1043.68885469
 30
0.0
 11
1111.06791695
 21
-1042.65160787
 31
0.0
  0
POLYLINE
  5
1E2
  8
0
 66
     1
 10
0.0
 20
0.0
 30
0.0
  0
VERTEX
  5
1E3
  8
0
 10
1145.32907081
 20
-868.3707693
 30
0.0
  0
VERTEX
  5
1E4
  8
0
 10
1145.32907081
 20
-870.3707693
 30
0.0
  0
VERTEX
  5
1E5
  8
0
 10
1130.32907081
 20
-870.3707693
 30
0.0
  0
SEQEND
  5
1E6
  8
0
  0
LINE
  5
1E7
  8
0
 10
1130.32907081
 20
-868.3707693
 30
0.0
 11
1130.32907081
 21
-870.3707693
 31
0.0
  0
LINE
  5
1E8
  8
0
 10
1145.32907081
 20
-868.3707693
 30
0.0
 11
1130.32907081
 21
-868.3707693
 31
0.0
  0
LINE
  5
1E9
  8
0
  6
STRICHPUNKT2
 62
     1
 10
1137.82907081
 20
-868.3707693
 30
0.0
 11
1137.82907081
 21
-866.8707693
 31
0.0
  0
LINE
  5
1EA
  8
0
  6
STRICHPUNKT2
 62
     1
 10
1137.82907081
 20
-871.8707693
 30
0.0
 11
1137.82907081
 21
-870.3707693
 31
0.0
  0
TEXT
  5
1EB
  8
TXT_DIM49
 10
1189.86282576
 20
-870.29822144
 30
0.0
 40
2.5
  1
2
 50
90.00020741
  7
ARIAL
  0
LINE
  5
1EC
  8
0
 62
     4
 10
1192.36282576
 20
-869.3707693
 30
0.0
 11
1190.36282576
 21
-867.3707693
 31
0.0
  0
LINE
  5
1ED
  8
0
 62
     4
 10
1190.61282576
 20
-869.6207693
 30
0.0
 11
1192.11282576
 21
-871.1207693
 31
0.0
  0
LINE
  5
1EE
  8
0
 62
     4
 10
1191.36282576
 20
-868.3707693
 30
0.0
 11
1191.36282576
 21
-870.3707693
 31
0.0
  0
LINE
  5
1EF
  8
0
 62
     4
 10
1193.36282576
 20
-868.3707693
 30
0.0
 11
1189.36282576
 21
-868.3707693
 31
0.0
  0
LINE
  5
1F0
  8
0
 62
     4
 10
1193.36282576
 20
-870.3707693
 30
0.0
 11
1189.36282576
 21
-870.3707693
 31
0.0
  0
TEXT
  5
1F1
  8
TXT_DIM49
 10
1269.38633906
 20
-861.14154887
 30
0.0
 40
2.5
  1
150
  7
ARIAL
  0
LINE
  5
1F2
  8
0
 62
     4
 10
1198.16869556
 20
-861.64154887
 30
0.0
 11
1196.16869556
 21
-863.64154887
 31
0.0
  0
LINE
  5
1F3
  8
0
 62
     4
 10
1346.41869556
 20
-863.39154887
 30
0.0
 11
1347.91869556
 21
-861.89154887
 31
0.0
  0
LINE
  5
1F4
  8
0
 62
     4
 10
1197.16869556
 20
-862.64154887
 30
0.0
 11
1347.16869556
 21
-862.64154887
 31
0.0
  0
LINE
  5
1F5
  8
0
 62
     4
 10
1197.16869556
 20
-864.64154887
 30
0.0
 11
1197.16869556
 21
-860.64154887
 31
0.0
  0
LINE
  5
1F6
  8
0
 62
     4
 10
1347.16869556
 20
-864.64154887
 30
0.0
 11
1347.16869556
 21
-860.64154887
 31
0.0
  0
TEXT
  5
1F7
  8
TXT_DIM49
 10
1207.81379126
 20
-903.27076981
 30
0.0
 40
2.5
  1
25
  7
ARIAL
  0
LINE
  5
1F8
  8
0
 62
     4
 10
1198.16869556
 20
-903.77076981
 30
0.0
 11
1196.16869556
 21
-905.77076981
 31
0.0
  0
LINE
  5
1F9
  8
0
 62
     4
 10
1221.41869556
 20
-905.52076981
 30
0.0
 11
1222.91869556
 21
-904.02076981
 31
0.0
  0
LINE
  5
1FA
  8
0
 62
     4
 10
1197.16869556
 20
-904.77076981
 30
0.0
 11
1222.16869556
 21
-904.77076981
 31
0.0
  0
LINE
  5
1FB
  8
0
 62
     4
 10
1197.16869556
 20
-906.77076981
 30
0.0
 11
1197.16869556
 21
-902.77076981
 31
0.0
  0
LINE
  5
1FC
  8
0
 62
     4
 10
1222.16869556
 20
-906.77076981
 30
0.0
 11
1222.16869556
 21
-902.77076981
 31
0.0
  0
TEXT
  5
1FD
  8
TXT_DIM49
 10
1269.38633906
 20
-903.27076981
 30
0.0
 40
2.5
  1
100
  7
ARIAL
  0
LINE
  5
1FE
  8
0
 62
     4
 10
1223.16869556
 20
-903.77076981
 30
0.0
 11
1221.16869556
 21
-905.77076981
 31
0.0
  0
LINE
  5
1FF
  8
0
 62
     4
 10
1321.41869556
 20
-905.52076981
 30
0.0
 11
1322.91869556
 21
-904.02076981
 31
0.0
  0
LINE
  5
200
  8
0
 62
     4
 10
1222.16869556
 20
-904.77076981
 30
0.0
 11
1322.16869556
 21
-904.77076981
 31
0.0
  0
LINE
  5
201
  8
0
 62
     4
 10
1222.16869556
 20
-906.77076981
 30
0.0
 11
1222.16869556
 21
-902.77076981
 31
0.0
  0
LINE
  5
202
  8
0
 62
     4
 10
1322.16869556
 20
-906.77076981
 30
0.0
 11
1322.16869556
 21
-902.77076981
 31
0.0
  0
TEXT
  5
203
  8
TXT_DIM49
 10
1332.81379126
 20
-903.27076981
 30
0.0
 40
2.5
  1
25
  7
ARIAL
  0
LINE
  5
204
  8
0
 62
     4
 10
1323.16869556
 20
-903.77076981
 30
0.0
 11
1321.16869556
 21
-905.77076981
 31
0.0
  0
LINE
  5
205
  8
0
 62
     4
 10
1346.41869556
 20
-905.52076981
 30
0.0
 11
1347.91869556
 21
-904.02076981
 31
0.0
  0
LINE
  5
206
  8
0
 62
     4
 10
1322.16869556
 20
-904.77076981
 30
0.0
 11
1347.16869556
 21
-904.77076981
 31
0.0
  0
LINE
  5
207
  8
0
 62
     4
 10
1322.16869556
 20
-906.77076981
 30
0.0
 11
1322.16869556
 21
-902.77076981
 31
0.0
  0
LINE
  5
208
  8
0
 62
     4
 10
1347.16869556
 20
-906.77076981
 30
0.0
 11
1347.16869556
 21
-902.77076981
 31
0.0
  0
TEXT
  5
209
  8
TXT_DIM49
 10
1189.72528563
 20
-918.81299022
 30
0.0
 40
2.5
  1
15
 50
90.00020741
  7
ARIAL
  0
LINE
  5
20A
  8
0
 62
     4
 10
1192.22528563
 20
-910.45808593
 30
0.0
 11
1190.22528563
 21
-908.45808593
 31
0.0
  0
LINE
  5
20B
  8
0
 62
     4
 10
1190.47528563
 20
-923.70808593
 30
0.0
 11
1191.97528563
 21
-925.20808593
 31
0.0
  0
LINE
  5
20C
  8
0
 62
     4
 10
1191.22528563
 20
-909.45808593
 30
0.0
 11
1191.22528563
 21
-924.45808593
 31
0.0
  0
LINE
  5
20D
  8
0
 62
     4
 10
1193.22528563
 20
-909.45808593
 30
0.0
 11
1189.22528563
 21
-909.45808593
 31
0.0
  0
LINE
  5
20E
  8
0
 62
     4
 10
1193.22528563
 20
-924.45808593
 30
0.0
 11
1189.22528563
 21
-924.45808593
 31
0.0
  0
TEXT
  5
20F
  8
TXT_DIM49
 10
1353.91955824
 20
-914.13553807
 30
0.0
 40
2.5
  1
8
 50
90.00020741
  7
ARIAL
  0
LINE
  5
210
  8
0
 62
     4
 10
1356.41955824
 20
-910.45808593
 30
0.0
 11
1354.41955824
 21
-908.45808593
 31
0.0
  0
LINE
  5
211
  8
0
 62
     4
 10
1354.66955824
 20
-916.20808593
 30
0.0
 11
1356.16955824
 21
-917.70808593
 31
0.0
  0
LINE
  5
212
  8
0
 62
     4
 10
1355.41955824
 20
-909.45808593
 30
0.0
 11
1355.41955824
 21
-916.95808593
 31
0.0
  0
LINE
  5
213
  8
0
 62
     4
 10
1353.41955824
 20
-909.45808593
 30
0.0
 11
1357.41955824
 21
-909.45808593
 31
0.0
  0
LINE
  5
214
  8
0
 62
     4
 10
1353.41955824
 20
-916.95808593
 30
0.0
 11
1357.41955824
 21
-916.95808593
 31
0.0
  0
TEXT
  5
215
  8
TXT_DIM49
 10
1353.91955824
 20
-921.63553807
 30
0.0
 40
2.5
  1
8
 50
90.00020741
  7
ARIAL
  0
LINE
  5
216
  8
0
 62
     4
 10
1356.41955824
 20
-917.95808593
 30
0.0
 11
1354.41955824
 21
-915.95808593
 31
0.0
  0
LINE
  5
217
  8
0
 62
     4
 10
1354.66955824
 20
-923.70808593
 30
0.0
 11
1356.16955824
 21
-925.20808593
 31
0.0
  0
LINE
  5
218
  8
0
 62
     4
 10
1355.41955824
 20
-916.95808593
 30
0.0
 11
1355.41955824
 21
-924.45808593
 31
0.0
  0
LINE
  5
219
  8
0
 62
     4
 10
1353.41955824
 20
-916.95808593
 30
0.0
 11
1357.41955824
 21
-916.95808593
 31
0.0
  0
LINE
  5
21A
  8
0
 62
     4
 10
1353.41955824
 20
-924.45808593
 30
0.0
 11
1357.41955824
 21
-924.45808593
 31
0.0
  0
LINE
  5
21B
  8
0
 62
     5
 10
1322.16869556
 20
-916.95808593
 30
0.0
 11
1328.51941627
 21
-920.59656545
 31
0.0
  0
TEXT
  5
21C
  8
TXT_DIM49
 10
1328.51941627
 20
-921.84656545
 30
0.0
 40
2.5
  1
Ø6
  7
ARIAL
  0
LINE
  5
21D
  8
0
 62
     4
 10
1222.16869556
 20
-916.95808593
 30
0.0
 11
1230.07453307
 21
-920.14458295
 31
0.0
  0
TEXT
  5
21E
  8
TXT_DIM49
 10
1230.07453307
 20
-921.39458295
 30
0.0
 40
2.5
  1
Ø6
  7
ARIAL
  0
TEXT
  5
21F
  8
TXT_DIM49
 10
1135.97416651
 20
-861.12831654
 30
0.0
 40
2.5
  1
15
  7
ARIAL
  0
LINE
  5
220
  8
0
 62
     4
 10
1131.32907081
 20
-861.62831654
 30
0.0
 11
1129.32907081
 21
-863.62831654
 31
0.0
  0
LINE
  5
221
  8
0
 62
     4
 10
1144.57907081
 20
-863.37831654
 30
0.0
 11
1146.07907081
 21
-861.87831654
 31
0.0
  0
LINE
  5
222
  8
0
 62
     4
 10
1130.32907081
 20
-862.62831654
 30
0.0
 11
1145.32907081
 21
-862.62831654
 31
0.0
  0
LINE
  5
223
  8
0
 62
     4
 10
1130.32907081
 20
-864.62831654
 30
0.0
 11
1130.32907081
 21
-860.62831654
 31
0.0
  0
LINE
  5
224
  8
0
 62
     4
 10
1145.32907081
 20
-864.62831654
 30
0.0
 11
1145.32907081
 21
-860.62831654
 31
0.0
  0
POINT
  5
225
  8
0
 10
1170.10345007
 20
-937.46963818
 30
0.0
  0
POINT
  5
226
  8
0
 62
     3
 10
1308.77281738
 20
-1107.80695612
 30
0.0
  0
POINT
  5
227
  8
0
 62
     3
 10
1374.63723108
 20
-1089.88796122
 30
0.0
  0
POINT
  5
228
  8
0
 62
     3
 10
1308.77281738
 20
-1089.88796122
 30
0.0
  0
POINT
  5
229
  8
0
 62
     3
 10
1374.63723108
 20
-1107.80695612
 30
0.0
  0
POINT
  5
22A
  8
0
 62
     3
 10
1356.94587614
 20
-1113.48963818
 30
0.0
  0
POINT
  5
22B
  8
0
 62
     3
 10
1374.63790811
 20
-1108.67636478
 30
0.0
  0
POINT
  5
22C
  8
0
 62
     3
 10
1356.94587614
 20
-1108.67636478
 30
0.0
  0
POINT
  5
22D
  8
0
 62
     3
 10
1374.63790811
 20
-1113.48963818
 30
0.0
  0
ENDSEC
  0
EOF
