  0
SECTION
  2
HEADER
  9
$ACADVER
  1
AC1006
  9
$DWGCODEPAGE
  3
ansi_1252
  9
$INSBASE
 10
0.0
 20
0.0
 30
0.0
  9
$EXTMIN
 10
-128.82292668
 20
-41.38059417
  9
$EXTMAX
 10
854.0145648
 20
431.96315583
  9
$LIMMIN
 10
-128.82292668
 20
-41.38059417
  9
$LIMMAX
 10
854.0145648
 20
431.96315583
  9
$ORTHOMODE
 70
     0
  9
$REGENMODE
 70
     1
  9
$FILLMODE
 70
     1
  9
$QTEXTMODE
 70
     0
  9
$MIRRTEXT
 70
     1
  9
$DRAGMODE
 70
     2
  9
$LTSCALE
 40
1.0
  9
$OSMODE
 70
    37
  9
$ATTMODE
 70
     1
  9
$TEXTSIZE
 40
1.0
  9
$TRACEWID
 40
0.05
  9
$TEXTSTYLE
  7
STANDARD
  9
$CLAYER
  8
0
  9
$CELTYPE
  6
BYBLOCK
  9
$CECOLOR
 62
   256
  9
$DIMSCALE
 40
1.0
  9
$DIMASZ
 40
0.18
  9
$DIMEXO
 40
0.0625
  9
$DIMDLI
 40
0.38
  9
$DIMRND
 40
0.0
  9
$DIMDLE
 40
0.0
  9
$DIMEXE
 40
0.18
  9
$DIMTP
 40
0.0
  9
$DIMTM
 40
0.0
  9
$DIMTXT
 40
0.18
  9
$DIMCEN
 40
0.09
  9
$DIMTSZ
 40
0.0
  9
$DIMTOL
 70
     0
  9
$DIMLIM
 70
     0
  9
$DIMTIH
 70
     1
  9
$DIMTOH
 70
     1
  9
$DIMSE1
 70
     0
  9
$DIMSE2
 70
     0
  9
$DIMTAD
 70
     0
  9
$DIMZIN
 70
     0
  9
$DIMBLK
  1

  9
$DIMASO
 70
     1
  9
$DIMSHO
 70
     1
  9
$DIMPOST
  1

  9
$DIMAPOST
  1

  9
$DIMALT
 70
     0
  9
$DIMALTD
 70
     2
  9
$DIMALTF
 40
25.4
  9
$DIMLFAC
 40
1.0
  9
$DIMTOFL
 70
     0
  9
$DIMTVP
 40
0.0
  9
$DIMTIX
 70
     0
  9
$DIMSOXD
 70
     0
  9
$DIMSAH
 70
     0
  9
$DIMBLK1
  1

  9
$DIMBLK2
  1

  9
$LUNITS
 70
     2
  9
$LUPREC
 70
     4
  9
$SKETCHINC
 40
0.1
  9
$FILLETRAD
 40
0.5
  9
$AUNITS
 70
     0
  9
$AUPREC
 70
     0
  9
$MENU
  1
.
  9
$ELEVATION
 40
0.0
  9
$THICKNESS
 40
0.0
  9
$LIMCHECK
 70
     0
  9
$CHAMFERA
 40
0.0
  9
$CHAMFERB
 40
0.0
  9
$SKPOLY
 70
     0
  9
$TDCREATE
 40
2447893.125
  9
$TDUPDATE
 40
2460791.501694595
  9
$TDINDWG
 40
0.0
  9
$TDUSRTIMER
 40
0.0
  9
$USRTIMER
 70
     1
  9
$ANGBASE
 50
0.0
  9
$ANGDIR
 70
     0
  9
$PDMODE
 70
     0
  9
$PDSIZE
 40
0.0
  9
$PLINEWID
 40
0.0
  9
$COORDS
 70
     1
  9
$SPLFRAME
 70
     0
  9
$SPLINETYPE
 70
     6
  9
$SPLINESEGS
 70
     8
  9
$ATTDIA
 70
     0
  9
$ATTREQ
 70
     1
  9
$HANDLING
 70
     1
  9
$HANDSEED
  5
33A
  9
$SURFTAB1
 70
     6
  9
$SURFTAB2
 70
     6
  9
$SURFTYPE
 70
     6
  9
$SURFU
 70
     6
  9
$SURFV
 70
     6
  9
$UCSNAME
  2

  9
$UCSORG
 10
0.0
 20
0.0
 30
0.0
  9
$UCSXDIR
 10
1.0
 20
0.0
 30
0.0
  9
$UCSYDIR
 10
0.0
 20
1.0
 30
0.0
  9
$USERI1
 70
     0
  9
$USERI2
 70
     0
  9
$USERI3
 70
     0
  9
$USERI4
 70
     0
  9
$USERI5
 70
     0
  9
$USERR1
 40
0.0
  9
$USERR2
 40
0.0
  9
$USERR3
 40
0.0
  9
$USERR4
 40
0.0
  9
$USERR5
 40
0.0
  9
$WORLDVIEW
 70
     1
  0
ENDSEC
  0
SECTION
  2
TABLES
  0
TABLE
  2
VPORT
 70
     1
  0
VPORT
  2
*ACTIVE
 70
     0
 10
0.0
 20
0.0
 11
1.0
 21
1.0
 12
362.59581906
 22
195.29128083
 13
0.0
 23
0.0
 14
1.0
 24
1.0
 15
0.0
 25
0.0
 16
0.0
 26
0.0
 36
1.0
 17
0.0
 27
0.0
 37
0.0
 40
473.34375
 41
2.076371541
 42
50.0
 43
0.0
 44
0.0
 50
0.0
 51
0.0
 71
     0
 72
   100
 73
     1
 74
     1
 75
     0
 76
     0
 77
     0
 78
     0
  0
ENDTAB
  0
TABLE
  2
LTYPE
 70
    19
  0
LTYPE
  2
CONTINUOUS
 70
     0
  3
Solid line
 72
    65
 73
     0
 40
0.0
  0
LTYPE
  2
DOT
 70
     0
  3
..............
 72
    65
 73
     2
 40
2.0
 49
0.5
 49
-1.5
  0
LTYPE
  2
HIDDEN
 70
     0
  3
-- -- -- -- --
 72
    65
 73
     2
 40
7.0
 49
4.0
 49
-3.0
  0
LTYPE
  2
DASHDOT
 70
     0
  3
--.--.--.--.--
 72
    65
 73
     4
 40
8.5
 49
4.0
 49
-2.0
 49
0.5
 49
-2.0
  0
LTYPE
  2
STRICHPUNKT2
 70
     0
  3
--.--.--.--.--
 72
    65
 73
     4
 40
18.5
 49
10.0
 49
-4.0
 49
0.5
 49
-4.0
  0
LTYPE
  2
STRICHPUNKT3
 70
     0
  3
--.--.--.--.--
 72
    65
 73
     4
 40
35.5
 49
25.0
 49
-5.0
 49
0.5
 49
-5.0
  0
LTYPE
  2
PHANTOM
 70
     0
  3
--..--..--..--
 72
    65
 73
     6
 40
23.0
 49
10.0
 49
-4.0
 49
0.5
 49
-4.0
 49
0.5
 49
-4.0
  0
LTYPE
  2
PHANTOM2
 70
     0
  3
--..--..--..--
 72
    65
 73
     6
 40
33.0
 49
20.0
 49
-4.0
 49
0.5
 49
-4.0
 49
0.5
 49
-4.0
  0
LTYPE
  2
PHANTOM3
 70
     0
  3
--..--..--..--
 72
    65
 73
     6
 40
50.0
 49
37.0
 49
-4.0
 49
0.5
 49
-4.0
 49
0.5
 49
-4.0
  0
LTYPE
  2
STR3PKT
 70
     0
  3
--...--...--...
 72
    65
 73
     8
 40
31.5
 49
20.0
 49
-2.5
 49
0.5
 49
-2.5
 49
0.5
 49
-2.5
 49
0.5
 49
-2.5
  0
LTYPE
  2
2STRPKT
 70
     0
  3
--.--.--.--.--
 72
    65
 73
     6
 40
28.0
 49
10.0
 49
-2.5
 49
10.0
 49
-2.5
 49
0.5
 49
-2.5
  0
LTYPE
  2
GESTRICHELT2
 70
     0
  3
-- -- -- -- --
 72
    65
 73
     2
 40
25.0
 49
10.0
 49
-15.0
  0
LTYPE
  2
2STR2PKT
 70
     0
  3
--..--..--..--
 72
    65
 73
     8
 40
31.0
 49
10.0
 49
-2.5
 49
10.0
 49
-2.5
 49
0.5
 49
-2.5
 49
0.5
 49
-2.5
  0
LTYPE
  2
STR3PKT2
 70
     0
  3
--...--...--...
 72
    65
 73
     8
 40
21.0
 49
10.0
 49
-2.5
 49
0.5
 49
-2.5
 49
0.5
 49
-2.5
 49
0.5
 49
-2.0
  0
LTYPE
  2
2STR3PKT
 70
     0
  3
--...--...--...
 72
    65
 73
    10
 40
34.0
 49
10.0
 49
-2.5
 49
10.0
 49
-2.5
 49
0.5
 49
-2.5
 49
0.5
 49
-2.5
 49
0.5
 49
-2.5
  0
LTYPE
  2
STRKSTR
 70
     0
  3
-- - -- - -- -
 72
    65
 73
     4
 40
30.0
 49
20.0
 49
-2.5
 49
5.0
 49
-2.5
  0
LTYPE
  2
STRKSTR2
 70
     0
  3
-- - -- - -- -
 72
    65
 73
     6
 40
37.5
 49
20.0
 49
-2.5
 49
5.0
 49
-2.5
 49
5.0
 49
-2.5
  0
LTYPE
  2
STRKSTR3
 70
     0
  3
-- - -- - -- -
 72
    65
 73
     8
 40
45.0
 49
20.0
 49
-2.5
 49
5.0
 49
-2.5
 49
5.0
 49
-2.5
 49
5.0
 49
-2.5
  0
LTYPE
  2
PUNKT2
 70
     0
  3
..............
 72
    65
 73
     2
 40
3.5
 49
0.5
 49
-3.0
  0
ENDTAB
  0
TABLE
  2
LAYER
 70
    15
  0
LAYER
  2
0
 70
     0
 62
     7
  6
CONTINUOUS
  0
LAYER
  2
LE_GREEN
 70
     0
 62
     3
  6
CONTINUOUS
  0
LAYER
  2
LE_RED
 70
     0
 62
     1
  6
CONTINUOUS
  0
LAYER
  2
LE_ALL
 70
     0
 62
     7
  6
CONTINUOUS
  0
LAYER
  2
LE_HIDDEN1
 70
     0
 62
     3
  6
HIDDEN
  0
LAYER
  2
LE_HIDDEN
 70
     0
 62
     7
  6
CONTINUOUS
  0
LAYER
  2
LE_MIDDLE
 70
     0
 62
     7
  6
CONTINUOUS
  0
LAYER
  2
TXT_YELLOW
 70
     0
 62
     2
  6
CONTINUOUS
  0
LAYER
  2
TXT_DIM49
 70
     0
 62
     2
  6
CONTINUOUS
  0
LAYER
  2
TXT_ALL
 70
     0
 62
     7
  6
CONTINUOUS
  0
LAYER
  2
DIM49
 70
     0
 62
     4
  6
CONTINUOUS
  0
LAYER
  2
HATCH
 70
     0
 62
     3
  6
CONTINUOUS
  0
LAYER
  2
APPLE
 70
     0
 62
     7
  6
CONTINUOUS
  0
LAYER
  2
10
 70
     0
 62
     7
  6
CONTINUOUS
  0
LAYER
  2
49
 70
     0
 62
     7
  6
CONTINUOUS
  0
ENDTAB
  0
TABLE
  2
STYLE
 70
     5
  0
STYLE
  2
MONOTXT
 70
     0
 40
0.0
 41
1.0
 50
0.0
 71
     0
 42
1.0
  3
monotxt.shx
  4

  0
STYLE
  2
STANDARD
 70
     0
 40
0.0
 41
1.0
 50
0.0
 71
     0
 42
1.0
  3
txt
  4

  0
STYLE
  2
ARIAL
 70
     0
 40
0.0
 41
1.0
 50
0.0
 71
     0
 42
1.0
  3
arial.ttf
  4

  0
STYLE
  2
ARIAL_NARROW
 70
     0
 40
0.0
 41
1.0
 50
0.0
 71
     0
 42
1.0
  3
ArialN.ttf
  4

  0
STYLE
  2
ISOCPEUR
 70
     0
 40
0.0
 41
1.0
 50
0.0
 71
     0
 42
1.0
  3
ISOCPEUR.ttf
  4

  0
ENDTAB
  0
TABLE
  2
VIEW
 70
     0
  0
ENDTAB
  0
TABLE
  2
UCS
 70
     0
  0
ENDTAB
  0
ENDSEC
  0
SECTION
  2
BLOCKS
  0
ENDSEC
  0
SECTION
  2
ENTITIES
  0
POLYLINE
  5
16C
  8
0
 66
     1
 10
0.0
 20
0.0
 30
0.0
 70
     1
  0
VERTEX
  5
16D
  8
0
 10
-0.23479659
 20
66.88923255
 30
0.0
  0
VERTEX
  5
16E
  8
0
 10
419.76520341
 20
66.88923255
 30
0.0
  0
VERTEX
  5
16F
  8
0
 10
419.76520341
 20
363.88923255
 30
0.0
  0
VERTEX
  5
170
  8
0
 10
-0.23479659
 20
363.88923255
 30
0.0
  0
SEQEND
  5
171
  8
0
  0
POLYLINE
  5
172
  8
0
 66
     1
 10
0.0
 20
0.0
 30
0.0
 70
     1
  0
VERTEX
  5
173
  8
0
 10
4.76520341
 20
71.88923255
 30
0.0
  0
VERTEX
  5
174
  8
0
 10
414.76520341
 20
71.88923255
 30
0.0
  0
VERTEX
  5
175
  8
0
 10
414.76520341
 20
358.88923255
 30
0.0
  0
VERTEX
  5
176
  8
0
 10
4.76520341
 20
358.88923255
 30
0.0
  0
SEQEND
  5
177
  8
0
  0
LINE
  5
178
  8
0
 10
229.76520341
 20
71.88923255
 30
0.0
 11
229.76520341
 21
66.88923255
 31
0.0
  0
LINE
  5
179
  8
0
 10
229.76520341
 20
358.88923255
 30
0.0
 11
229.76520341
 21
363.88923255
 31
0.0
  0
LINE
  5
17A
  8
0
 10
19.76520341
 20
71.88923255
 30
0.0
 11
19.76520341
 21
66.88923255
 31
0.0
  0
LINE
  5
17B
  8
0
 10
19.76520341
 20
358.88923255
 30
0.0
 11
19.76520341
 21
363.88923255
 31
0.0
  0
TEXT
  5
17C
  8
TXT_ALL
 62
     4
 10
418.76520341
 20
67.88923255
 30
0.0
 40
2.5
  1

 50
90.00020741
  0
POLYLINE
  5
17D
  8
0
 66
     1
 10
0.0
 20
0.0
 30
0.0
  0
VERTEX
  5
17E
  8
0
 10
414.76520341
 20
348.88923255
 30
0.0
  0
VERTEX
  5
17F
  8
0
 10
345.77190341
 20
348.88923255
 30
0.0
  0
VERTEX
  5
180
  8
0
 10
345.77190341
 20
358.88923255
 30
0.0
  0
SEQEND
  5
181
  8
0
  0
LINE
  5
182
  8
0
 10
347.67520341
 20
91.38923255
 30
0.0
 11
207.78520341
 21
91.38923255
 31
0.0
  0
LINE
  5
183
  8
0
 10
207.78520341
 20
81.63923255
 30
0.0
 11
347.67520341
 21
81.63923255
 31
0.0
  0
POLYLINE
  5
184
  8
0
 66
     1
 10
0.0
 20
0.0
 30
0.0
  0
VERTEX
  5
185
  8
0
 10
207.78520341
 20
91.38923255
 30
0.0
  0
VERTEX
  5
186
  8
0
 10
207.78520341
 20
81.63923255
 30
0.0
  0
VERTEX
  5
187
  8
0
 10
207.78520341
 20
71.88923255
 30
0.0
  0
SEQEND
  5
188
  8
0
  0
POLYLINE
  5
189
  8
0
 66
     1
 10
0.0
 20
0.0
 30
0.0
  0
VERTEX
  5
18A
  8
0
 10
277.73020341
 20
91.38923255
 30
0.0
  0
VERTEX
  5
18B
  8
0
 10
277.73020341
 20
81.63923255
 30
0.0
  0
VERTEX
  5
18C
  8
0
 10
277.73020341
 20
71.88923255
 30
0.0
  0
SEQEND
  5
18D
  8
0
  0
TEXT
  5
18E
  8
TXT_ALL
 10
209.78520341
 20
85.2142326
 30
0.0
 40
2.5999999
  1
E-mail: verkoop@jonkers-bouwmetaal.nl
  7
ARIAL
  0
TEXT
  5
18F
  8
TXT_ALL
 10
209.78520341
 20
75.4642326
 30
0.0
 40
2.5999999
  1
Telefoon: 0527-685156
  7
ARIAL
  0
TEXT
  5
190
  8
TXT_ALL
 10
279.73020341
 20
75.4642326
 30
0.0
 40
2.5999999
  1
Website: www.jonkers-bouwmetaal.nl
  7
ARIAL
  0
TEXT
  5
191
  8
TXT_ALL
 10
279.73020341
 20
85.2142326
 30
0.0
 40
2.5999999
  1
Adres: Hoornse Hop 10, 8321 WX Urk
  7
ARIAL
  0
TEXT
  5
192
  8
TXT_ALL
 10
8.20716366
 20
352.63923255
 30
0.0
 40
2.5
  1
Art. nr. 81001160
  7
ARIAL
  0
TEXT
  5
193
  8
TXT_ALL
 10
50.94520048
 20
352.63923255
 30
0.0
 40
2.5
  1
Omschrijving: S01-anker 30x2 L=300
  7
ARIAL
  0
LINE
  5
194
  8
0
 10
414.76520341
 20
348.88923255
 30
0.0
 11
4.76520341
 21
348.88923255
 31
0.0
  0
LINE
  5
195
  8
0
 10
47.78520341
 20
348.88923255
 30
0.0
 11
47.78520341
 21
358.88923255
 31
0.0
  0
LINE
  5
196
  8
0
 10
207.78520341
 20
348.88923255
 30
0.0
 11
207.78520341
 21
358.88923255
 31
0.0
  0
TEXT
  5
197
  8
TXT_ALL
 10
278.77890341
 20
352.63923255
 30
0.0
 40
2.5
  1
Behandeling: N.V.T.
  7
ARIAL
  0
LINE
  5
198
  8
0
 10
347.67520341
 20
91.38923255
 30
0.0
 11
414.76520341
 21
91.38923255
 31
0.0
  0
LINE
  5
199
  8
0
 10
347.67520341
 20
71.88923255
 30
0.0
 11
347.67520341
 21
91.38923255
 31
0.0
  0
LINE
  5
19A
  8
0
 10
347.67520341
 20
71.88923255
 30
0.0
 11
347.67520341
 21
91.38923255
 31
0.0
  0
TEXT
  5
19B
  8
TXT_ALL
 10
142.1304015
 20
73.04376597
 30
0.0
 40
2.5
  1

  0
TEXT
  5
19C
  8
TXT_ALL
 10
263.26558446
 20
83.13923255
 30
0.0
 40
2.5
  1

  0
POLYLINE
  5
19D
  8
0
 66
     1
 10
0.0
 20
0.0
 30
0.0
  0
VERTEX
  5
19E
  8
0
 10
345.77190341
 20
348.88923255
 30
0.0
  0
VERTEX
  5
19F
  8
0
 10
276.77890341
 20
348.88923255
 30
0.0
  0
VERTEX
  5
1A0
  8
0
 10
276.77890341
 20
358.88923255
 30
0.0
  0
SEQEND
  5
1A1
  8
0
  0
TEXT
  5
1A2
  8
TXT_ALL
 10
347.77190341
 20
352.63923255
 30
0.0
 40
2.5
  1
Verpakkingshoeveelheid: 100 st.
  7
ARIAL
  0
TEXT
  5
1A3
  8
TXT_ALL
 10
209.78520341
 20
352.63923255
 30
0.0
 40
2.5
  1
Materiaal: Sendzimir Verzinkt
  7
ARIAL
  0
TEXT
  5
1A4
  8
TXT_ALL
 10
382.54685063
 20
68.6397227
 30
0.0
 40
1.5
  1
Onderdeel van
  7
ARIAL
  0
POLYLINE
  5
1A5
  8
0
 66
     1
 10
0.0
 20
0.0
 30
0.0
  0
VERTEX
  5
270
  8
0
 10
86.15459732
 20
178.7121266879129
 30
0.0
  0
VERTEX
  5
271
  8
0
 10
86.24106355523092
 20
178.2820919738907
 30
0.0
  0
VERTEX
  5
272
  8
0
 10
86.49713941829005
 20
177.8685832524955
 30
0.0
  0
VERTEX
  5
273
  8
0
 10
86.91298405734658
 20
177.4874914320287
 30
0.0
  0
VERTEX
  5
274
  8
0
 10
87.47261679609355
 20
177.1534616574652
 30
0.0
  0
VERTEX
  5
275
  8
0
 10
88.15453126217754
 20
176.8793305057447
 30
0.0
  0
VERTEX
  5
276
  8
0
 10
88.93252186502933
 20
176.6756326833175
 30
0.0
  0
VERTEX
  5
277
  8
0
 10
89.77669086201534
 20
176.550196183282
 30
0.0
  0
VERTEX
  5
278
  8
0
 10
90.65459731192296
 20
176.50784146
 30
0.0
  0
VERTEX
  5
279
  8
0
 10
91.53250376214096
 20
176.5501961817382
 30
0.0
  0
VERTEX
  5
27A
  8
0
 10
92.37667276004625
 20
176.6756326802893
 30
0.0
  0
VERTEX
  5
27B
  8
0
 10
93.15466336439083
 20
176.8793305013486
 30
0.0
  0
VERTEX
  5
27C
  8
0
 10
93.8365778324838
 20
177.1534616518699
 30
0.0
  0
VERTEX
  5
27D
  8
0
 10
94.39621057367869
 20
177.4874914254493
 30
0.0
  0
VERTEX
  5
27E
  8
0
 10
94.81205521552805
 20
177.8685832451849
 30
0.0
  0
VERTEX
  5
27F
  8
0
 10
95.06813108161757
 20
178.2820919661298
 30
0.0
  0
VERTEX
  5
280
  8
0
 10
95.15459732
 20
178.71212668
 30
0.0
  0
SEQEND
  5
32E
  8
0
  0
POLYLINE
  5
1A6
  8
0
 66
     1
 10
0.0
 20
0.0
 30
0.0
  0
VERTEX
  5
281
  8
0
 10
95.15459732
 20
178.71212668
 30
0.0
  0
VERTEX
  5
282
  8
0
 10
95.0681310820115
 20
179.1421613929001
 30
0.0
  0
VERTEX
  5
283
  8
0
 10
94.81205521707352
 20
179.5556701129874
 30
0.0
  0
VERTEX
  5
284
  8
0
 10
94.3962105770442
 20
179.9367619320834
 30
0.0
  0
VERTEX
  5
285
  8
0
 10
93.83657783819513
 20
180.2707917053325
 30
0.0
  0
VERTEX
  5
286
  8
0
 10
93.15466337278558
 20
180.5449228559038
 30
0.0
  0
VERTEX
  5
287
  8
0
 10
92.37667277123956
 20
180.7486206774396
 30
0.0
  0
VERTEX
  5
288
  8
0
 10
91.53250377600418
 20
180.874057176911
 30
0.0
  0
VERTEX
  5
289
  8
0
 10
90.65459732807703
 20
180.9164119
 30
0.0
  0
VERTEX
  5
28A
  8
0
 10
89.77669087983948
 20
180.8740571784548
 30
0.0
  0
VERTEX
  5
28B
  8
0
 10
88.93252188368484
 20
180.7486206804678
 30
0.0
  0
VERTEX
  5
28C
  8
0
 10
88.15453128064603
 20
180.5449228603
 30
0.0
  0
VERTEX
  5
28D
  8
0
 10
87.47261681322752
 20
180.2707917109278
 30
0.0
  0
VERTEX
  5
28E
  8
0
 10
86.9129840719305
 20
179.9367619386628
 30
0.0
  0
VERTEX
  5
28F
  8
0
 10
86.49713942910836
 20
179.555670120298
 30
0.0
  0
VERTEX
  5
290
  8
0
 10
86.24106356114
 20
179.142161400661
 30
0.0
  0
VERTEX
  5
291
  8
0
 10
86.15459732
 20
178.7121266879129
 30
0.0
  0
SEQEND
  5
32F
  8
0
  0
POLYLINE
  5
1A7
  8
0
 66
     1
 10
0.0
 20
0.0
 30
0.0
  0
VERTEX
  5
292
  8
0
 10
94.78767935904533
 20
177.8403149829402
 30
0.0
  0
VERTEX
  5
293
  8
0
 10
94.36695567906588
 20
178.2143182786818
 30
0.0
  0
VERTEX
  5
294
  8
0
 10
93.80690939007144
 20
178.5415668758792
 30
0.0
  0
VERTEX
  5
295
  8
0
 10
93.12855869736572
 20
178.8097793286296
 30
0.0
  0
VERTEX
  5
296
  8
0
 10
92.35736170040836
 20
179.0088897825428
 30
0.0
  0
VERTEX
  5
297
  8
0
 10
91.5222609654304
 20
179.1314257402899
 30
0.0
  0
VERTEX
  5
298
  8
0
 10
90.65459732807703
 20
179.1727885
 30
0.0
  0
VERTEX
  5
299
  8
0
 10
89.78693369042053
 20
179.1314257418156
 30
0.0
  0
VERTEX
  5
29A
  8
0
 10
88.95183295454456
 20
179.008889785537
 30
0.0
  0
VERTEX
  5
29B
  8
0
 10
88.18063595612803
 20
178.8097793329799
 30
0.0
  0
VERTEX
  5
29C
  8
0
 10
87.50228526145672
 20
178.5415668814223
 30
0.0
  0
VERTEX
  5
29D
  8
0
 10
86.94223897006404
 20
178.2143182852097
 30
0.0
  0
VERTEX
  5
29E
  8
0
 10
86.52151528734372
 20
177.8403149902079
 30
0.0
  0
SEQEND
  5
330
  8
0
  0
POLYLINE
  5
1A8
  8
0
 66
     1
 10
0.0
 20
0.0
 30
0.0
  0
VERTEX
  5
29F
  8
0
 10
126.93135574
 20
169.3889685779129
 30
0.0
  0
VERTEX
  5
2A0
  8
0
 10
127.0178219752309
 20
168.9589338638906
 30
0.0
  0
VERTEX
  5
2A1
  8
0
 10
127.27389783829
 20
168.5454251424955
 30
0.0
  0
VERTEX
  5
2A2
  8
0
 10
127.6897424773466
 20
168.1643333220287
 30
0.0
  0
VERTEX
  5
2A3
  8
0
 10
128.2493752160935
 20
167.8303035474652
 30
0.0
  0
VERTEX
  5
2A4
  8
0
 10
128.9312896821775
 20
167.5561723957447
 30
0.0
  0
VERTEX
  5
2A5
  8
0
 10
129.7092802850293
 20
167.3524745733175
 30
0.0
  0
VERTEX
  5
2A6
  8
0
 10
130.5534492820154
 20
167.227038073282
 30
0.0
  0
VERTEX
  5
2A7
  8
0
 10
131.431355731923
 20
167.18468335
 30
0.0
  0
VERTEX
  5
2A8
  8
0
 10
132.309262182141
 20
167.2270380717382
 30
0.0
  0
VERTEX
  5
2A9
  8
0
 10
133.1534311800462
 20
167.3524745702893
 30
0.0
  0
VERTEX
  5
2AA
  8
0
 10
133.9314217843908
 20
167.5561723913486
 30
0.0
  0
VERTEX
  5
2AB
  8
0
 10
134.6133362524838
 20
167.8303035418699
 30
0.0
  0
VERTEX
  5
2AC
  8
0
 10
135.1729689936787
 20
168.1643333154493
 30
0.0
  0
VERTEX
  5
2AD
  8
0
 10
135.588813635528
 20
168.5454251351849
 30
0.0
  0
VERTEX
  5
2AE
  8
0
 10
135.8448895016176
 20
168.9589338561298
 30
0.0
  0
VERTEX
  5
2AF
  8
0
 10
135.93135574
 20
169.38896857
 30
0.0
  0
SEQEND
  5
331
  8
0
  0
POLYLINE
  5
1A9
  8
0
 66
     1
 10
0.0
 20
0.0
 30
0.0
  0
VERTEX
  5
2B0
  8
0
 10
135.93135574
 20
169.38896857
 30
0.0
  0
VERTEX
  5
2B1
  8
0
 10
135.8448895020115
 20
169.8190032829001
 30
0.0
  0
VERTEX
  5
2B2
  8
0
 10
135.5888136370735
 20
170.2325120029874
 30
0.0
  0
VERTEX
  5
2B3
  8
0
 10
135.1729689970442
 20
170.6136038220834
 30
0.0
  0
VERTEX
  5
2B4
  8
0
 10
134.6133362581951
 20
170.9476335953325
 30
0.0
  0
VERTEX
  5
2B5
  8
0
 10
133.9314217927856
 20
171.2217647459038
 30
0.0
  0
VERTEX
  5
2B6
  8
0
 10
133.1534311912395
 20
171.4254625674396
 30
0.0
  0
VERTEX
  5
2B7
  8
0
 10
132.3092621960042
 20
171.550899066911
 30
0.0
  0
VERTEX
  5
2B8
  8
0
 10
131.431355748077
 20
171.59325379
 30
0.0
  0
VERTEX
  5
2B9
  8
0
 10
130.5534492998395
 20
171.5508990684548
 30
0.0
  0
VERTEX
  5
2BA
  8
0
 10
129.7092803036848
 20
171.4254625704677
 30
0.0
  0
VERTEX
  5
2BB
  8
0
 10
128.931289700646
 20
171.2217647503
 30
0.0
  0
VERTEX
  5
2BC
  8
0
 10
128.2493752332275
 20
170.9476336009278
 30
0.0
  0
VERTEX
  5
2BD
  8
0
 10
127.6897424919305
 20
170.6136038286628
 30
0.0
  0
VERTEX
  5
2BE
  8
0
 10
127.2738978491084
 20
170.232512010298
 30
0.0
  0
VERTEX
  5
2BF
  8
0
 10
127.01782198114
 20
169.819003290661
 30
0.0
  0
VERTEX
  5
2C0
  8
0
 10
126.93135574
 20
169.3889685779129
 30
0.0
  0
SEQEND
  5
332
  8
0
  0
POLYLINE
  5
1AA
  8
0
 66
     1
 10
0.0
 20
0.0
 30
0.0
  0
VERTEX
  5
2C1
  8
0
 10
135.5644377790453
 20
168.5171568729402
 30
0.0
  0
VERTEX
  5
2C2
  8
0
 10
135.1437140990659
 20
168.8911601686818
 30
0.0
  0
VERTEX
  5
2C3
  8
0
 10
134.5836678100714
 20
169.2184087658792
 30
0.0
  0
VERTEX
  5
2C4
  8
0
 10
133.9053171173657
 20
169.4866212186297
 30
0.0
  0
VERTEX
  5
2C5
  8
0
 10
133.1341201204084
 20
169.6857316725428
 30
0.0
  0
VERTEX
  5
2C6
  8
0
 10
132.2990193854304
 20
169.8082676302899
 30
0.0
  0
VERTEX
  5
2C7
  8
0
 10
131.431355748077
 20
169.84963039
 30
0.0
  0
VERTEX
  5
2C8
  8
0
 10
130.5636921104205
 20
169.8082676318156
 30
0.0
  0
VERTEX
  5
2C9
  8
0
 10
129.7285913745445
 20
169.685731675537
 30
0.0
  0
VERTEX
  5
2CA
  8
0
 10
128.957394376128
 20
169.4866212229799
 30
0.0
  0
VERTEX
  5
2CB
  8
0
 10
128.2790436814567
 20
169.2184087714223
 30
0.0
  0
VERTEX
  5
2CC
  8
0
 10
127.718997390064
 20
168.8911601752098
 30
0.0
  0
VERTEX
  5
2CD
  8
0
 10
127.2982737073437
 20
168.5171568802079
 30
0.0
  0
SEQEND
  5
333
  8
0
  0
POLYLINE
  5
1AB
  8
0
 66
     1
 10
0.0
 20
0.0
 30
0.0
  0
VERTEX
  5
2CE
  8
0
 10
269.41538568
 20
136.239961982309
 30
0.0
  0
VERTEX
  5
2CF
  8
0
 10
269.5498887125814
 20
135.5710190938299
 30
0.0
  0
VERTEX
  5
2D0
  8
0
 10
269.9482289440068
 20
134.9277833049931
 30
0.0
  0
VERTEX
  5
2D1
  8
0
 10
270.5950983825391
 20
134.334973806489
 30
0.0
  0
VERTEX
  5
2D2
  8
0
 10
271.4656381983677
 20
133.8153719349458
 30
0.0
  0
VERTEX
  5
2D3
  8
0
 10
272.5263940344984
 20
133.3889456989363
 30
0.0
  0
VERTEX
  5
2D4
  8
0
 10
273.7366016389345
 20
133.0720824196049
 30
0.0
  0
VERTEX
  5
2D5
  8
0
 10
275.0497534120238
 20
132.8769589751053
 30
0.0
  0
VERTEX
  5
2D6
  8
0
 10
276.4153856674357
 20
132.81107385
 30
0.0
  0
VERTEX
  5
2D7
  8
0
 10
277.7810179233304
 20
132.8769589727039
 30
0.0
  0
VERTEX
  5
2D8
  8
0
 10
279.0941696978497
 20
133.0720824148945
 30
0.0
  0
VERTEX
  5
2D9
  8
0
 10
280.304377304608
 20
133.3889456920978
 30
0.0
  0
VERTEX
  5
2DA
  8
0
 10
281.3651331438637
 20
133.8153719262421
 30
0.0
  0
VERTEX
  5
2DB
  8
0
 10
282.2356729635002
 20
134.3349737962545
 30
0.0
  0
VERTEX
  5
2DC
  8
0
 10
282.882542406377
 20
134.927783293621
 30
0.0
  0
VERTEX
  5
2DD
  8
0
 10
283.2808826425162
 20
135.5710190817574
 30
0.0
  0
VERTEX
  5
2DE
  8
0
 10
283.41538568
 20
136.23996197
 30
0.0
  0
SEQEND
  5
334
  8
0
  0
POLYLINE
  5
1AC
  8
0
 66
     1
 10
0.0
 20
0.0
 30
0.0
  0
VERTEX
  5
2DF
  8
0
 10
283.41538568
 20
136.23996197
 30
0.0
  0
VERTEX
  5
2E0
  8
0
 10
283.280882643129
 20
136.9089048567335
 30
0.0
  0
VERTEX
  5
2E1
  8
0
 10
282.882542408781
 20
137.552140643536
 30
0.0
  0
VERTEX
  5
2E2
  8
0
 10
282.2356729687355
 20
138.1449501399076
 30
0.0
  0
VERTEX
  5
2E3
  8
0
 10
281.3651331527479
 20
138.664552009406
 30
0.0
  0
VERTEX
  5
2E4
  8
0
 10
280.3043773176665
 20
139.0909782436282
 30
0.0
  0
VERTEX
  5
2E5
  8
0
 10
279.0941697152615
 20
139.4078415215727
 30
0.0
  0
VERTEX
  5
2E6
  8
0
 10
277.7810179448954
 20
139.6029649651949
 30
0.0
  0
VERTEX
  5
2E7
  8
0
 10
276.4153856925643
 20
139.66885009
 30
0.0
  0
VERTEX
  5
2E8
  8
0
 10
275.0497534397503
 20
139.6029649675963
 30
0.0
  0
VERTEX
  5
2E9
  8
0
 10
273.7366016679542
 20
139.4078415262831
 30
0.0
  0
VERTEX
  5
2EA
  8
0
 10
272.5263940632271
 20
139.0909782504667
 30
0.0
  0
VERTEX
  5
2EB
  8
0
 10
271.4656382250206
 20
138.6645520181098
 30
0.0
  0
VERTEX
  5
2EC
  8
0
 10
270.5950984052252
 20
138.1449501501421
 30
0.0
  0
VERTEX
  5
2ED
  8
0
 10
269.9482289608353
 20
137.552140654908
 30
0.0
  0
VERTEX
  5
2EE
  8
0
 10
269.5498887217733
 20
136.908904868806
 30
0.0
  0
VERTEX
  5
2EF
  8
0
 10
269.41538568
 20
136.239961982309
 30
0.0
  0
SEQEND
  5
335
  8
0
  0
POLYLINE
  5
1AD
  8
0
 66
     1
 10
0.0
 20
0.0
 30
0.0
  0
VERTEX
  5
2F0
  8
0
 10
283.1853463188102
 20
135.3681502853858
 30
0.0
  0
VERTEX
  5
2F1
  8
0
 10
282.6902749013346
 20
136.0160912157807
 30
0.0
  0
VERTEX
  5
2F2
  8
0
 10
281.9397537210093
 20
136.6021632526763
 30
0.0
  0
VERTEX
  5
2F3
  8
0
 10
280.9643363781871
 20
137.1025074947348
 30
0.0
  0
VERTEX
  5
2F4
  8
0
 10
279.8037319609676
 20
137.4967550057933
 30
0.0
  0
VERTEX
  5
2F5
  8
0
 10
278.5051884944046
 20
137.7688560310832
 30
0.0
  0
VERTEX
  5
2F6
  8
0
 10
277.1215694807663
 20
137.9077333802461
 30
0.0
  0
VERTEX
  5
2F7
  8
0
 10
275.7092018345911
 20
137.9077333780287
 30
0.0
  0
VERTEX
  5
2F8
  8
0
 10
274.3255828227702
 20
137.7688560245212
 30
0.0
  0
VERTEX
  5
2F9
  8
0
 10
273.0270393597681
 20
137.4967549951539
 30
0.0
  0
VERTEX
  5
2FA
  8
0
 10
271.8664349477078
 20
137.1025074804511
 30
0.0
  0
VERTEX
  5
2FB
  8
0
 10
270.8910176114333
 20
136.6021632353299
 30
0.0
  0
VERTEX
  5
2FC
  8
0
 10
270.1404964387775
 20
136.0160911960777
 30
0.0
  0
VERTEX
  5
2FD
  8
0
 10
269.645425029781
 20
135.3681502641282
 30
0.0
  0
SEQEND
  5
336
  8
0
  0
POLYLINE
  5
1AE
  8
0
 66
     1
 10
0.0
 20
0.0
 30
0.0
  0
VERTEX
  5
2FE
  8
0
 10
43.8778389
 20
188.0352847905506
 30
0.0
  0
VERTEX
  5
2FF
  8
0
 10
43.99312721364124
 20
187.4619051718542
 30
0.0
  0
VERTEX
  5
300
  8
0
 10
44.33456169772007
 20
186.9105602099941
 30
0.0
  0
VERTEX
  5
301
  8
0
 10
44.88902121646212
 20
186.4024377827049
 30
0.0
  0
VERTEX
  5
302
  8
0
 10
45.63519820145807
 20
185.9570647499536
 30
0.0
  0
VERTEX
  5
303
  8
0
 10
46.54441748957007
 20
185.5915565476597
 30
0.0
  0
VERTEX
  5
304
  8
0
 10
47.58173829337245
 20
185.3199594510899
 30
0.0
  0
VERTEX
  5
305
  8
0
 10
48.70729695602047
 20
185.152710784376
 30
0.0
  0
VERTEX
  5
306
  8
0
 10
49.87783888923062
 20
185.09623782
 30
0.0
  0
VERTEX
  5
307
  8
0
 10
51.04838082285463
 20
185.1527107823176
 30
0.0
  0
VERTEX
  5
308
  8
0
 10
52.17393948672833
 20
185.3199594470524
 30
0.0
  0
VERTEX
  5
309
  8
0
 10
53.2112602925211
 20
185.5915565417981
 30
0.0
  0
VERTEX
  5
30A
  8
0
 10
54.12047958331173
 20
185.9570647424932
 30
0.0
  0
VERTEX
  5
30B
  8
0
 10
54.86665657157159
 20
186.4024377739324
 30
0.0
  0
VERTEX
  5
30C
  8
0
 10
55.4211160940374
 20
186.9105602002466
 30
0.0
  0
VERTEX
  5
30D
  8
0
 10
55.76255058215676
 20
187.4619051615063
 30
0.0
  0
VERTEX
  5
30E
  8
0
 10
55.8778389
 20
188.03528478
 30
0.0
  0
SEQEND
  5
337
  8
0
  0
POLYLINE
  5
1AF
  8
0
 66
     1
 10
0.0
 20
0.0
 30
0.0
  0
VERTEX
  5
30F
  8
0
 10
55.8778389
 20
188.03528478
 30
0.0
  0
VERTEX
  5
310
  8
0
 10
55.76255058268201
 20
188.6086643972002
 30
0.0
  0
VERTEX
  5
311
  8
0
 10
55.42111609609804
 20
189.1600093573166
 30
0.0
  0
VERTEX
  5
312
  8
0
 10
54.86665657605895
 20
189.6681317827779
 30
0.0
  0
VERTEX
  5
313
  8
0
 10
54.12047959092683
 20
190.1135048137766
 30
0.0
  0
VERTEX
  5
314
  8
0
 10
53.21126030371412
 20
190.4790130145385
 30
0.0
  0
VERTEX
  5
315
  8
0
 10
52.17393950165275
 20
190.7506101099194
 30
0.0
  0
VERTEX
  5
316
  8
0
 10
51.04838084133891
 20
190.9178587758814
 30
0.0
  0
VERTEX
  5
317
  8
0
 10
49.87783891076938
 20
190.97433174
 30
0.0
  0
VERTEX
  5
318
  8
0
 10
48.70729697978599
 20
190.9178587779397
 30
0.0
  0
VERTEX
  5
319
  8
0
 10
47.58173831824647
 20
190.750610113957
 30
0.0
  0
VERTEX
  5
31A
  8
0
 10
46.54441751419471
 20
190.4790130204
 30
0.0
  0
VERTEX
  5
31B
  8
0
 10
45.63519822430337
 20
190.113504821237
 30
0.0
  0
VERTEX
  5
31C
  8
0
 10
44.88902123590734
 20
189.6681317915504
 30
0.0
  0
VERTEX
  5
31D
  8
0
 10
44.33456171214449
 20
189.160009367064
 30
0.0
  0
VERTEX
  5
31E
  8
0
 10
43.99312722152
 20
188.608664407548
 30
0.0
  0
VERTEX
  5
31F
  8
0
 10
43.8778389
 20
188.0352847905506
 30
0.0
  0
SEQEND
  5
338
  8
0
  0
POLYLINE
  5
1B0
  8
0
 66
     1
 10
0.0
 20
0.0
 30
0.0
  0
VERTEX
  5
320
  8
0
 10
55.60779240607049
 20
187.1634730774012
 30
0.0
  0
VERTEX
  5
321
  8
0
 10
55.15339587416909
 20
187.691656090087
 30
0.0
  0
VERTEX
  5
322
  8
0
 10
54.49835948537297
 20
188.1665945373816
 30
0.0
  0
VERTEX
  5
323
  8
0
 10
53.66759556798271
 20
188.5702255715963
 30
0.0
  0
VERTEX
  5
324
  8
0
 10
52.69269971547111
 20
188.8871983068738
 30
0.0
  0
VERTEX
  5
325
  8
0
 10
51.61074914362655
 20
189.1054576437135
 30
0.0
  0
VERTEX
  5
326
  8
0
 10
50.4628925707673
 20
189.2167027482272
 30
0.0
  0
VERTEX
  5
327
  8
0
 10
49.29278525066881
 20
189.216702749256
 30
0.0
  0
VERTEX
  5
328
  8
0
 10
48.14492867699431
 20
189.1054576467607
 30
0.0
  0
VERTEX
  5
329
  8
0
 10
47.06297810355024
 20
188.8871983118236
 30
0.0
  0
VERTEX
  5
32A
  8
0
 10
46.08808224871571
 20
188.5702255782603
 30
0.0
  0
VERTEX
  5
32B
  8
0
 10
45.25731832836745
 20
188.1665945455065
 30
0.0
  0
VERTEX
  5
32C
  8
0
 10
44.60228193609075
 20
187.6916560993636
 30
0.0
  0
VERTEX
  5
32D
  8
0
 10
44.14788540031857
 20
187.163473087477
 30
0.0
  0
SEQEND
  5
339
  8
0
  0
LINE
  5
1B1
  8
0
 10
297.25555022
 20
121.62285499
 30
0.0
 11
297.25555022
 21
123.3664784
 31
0.0
  0
LINE
  5
1B2
  8
0
 10
309.94423236
 20
136.68256807
 30
0.0
 11
297.25555022
 21
123.3664784
 31
0.0
  0
LINE
  5
1B3
  8
0
 10
309.94423236
 20
134.93894467
 30
0.0
 11
309.94423236
 21
136.68256807
 31
0.0
  0
LINE
  5
1B4
  8
0
 10
297.25555022
 20
121.62285499
 30
0.0
 11
309.94423236
 21
134.93894467
 31
0.0
  0
LINE
  5
1B5
  8
0
 10
25.41049409
 20
183.77724237
 30
0.0
 11
297.25555022
 21
121.62285499
 31
0.0
  0
LINE
  5
1B6
  8
0
 10
25.41049409
 20
183.77724237
 30
0.0
 11
25.41049409
 21
185.52086577
 31
0.0
  0
POLYLINE
  5
1B7
  8
0
 66
     1
 10
0.0
 20
0.0
 30
0.0
  0
VERTEX
  5
1B8
  8
0
 10
297.25555022
 20
123.3664784
 30
0.0
  0
VERTEX
  5
1B9
  8
0
 10
25.41049409
 20
185.52086577
 30
0.0
  0
VERTEX
  5
1BA
  8
0
 10
38.09917623
 20
198.83695545
 30
0.0
  0
VERTEX
  5
1BB
  8
0
 10
309.94423236
 20
136.68256807
 30
0.0
  0
SEQEND
  5
1BC
  8
0
  0
CIRCLE
  5
1BD
  8
0
 10
150.62083267
 20
256.72238636
 30
0.0
 40
4.5
  0
CIRCLE
  5
1BE
  8
0
 10
195.62083267
 20
256.72238636
 30
0.0
 40
4.5
  0
CIRCLE
  5
1BF
  8
0
 10
355.62083267
 20
256.72238636
 30
0.0
 40
7.0
  0
CIRCLE
  5
1C0
  8
0
 10
105.62083267
 20
256.72238636
 30
0.0
 40
6.0
  0
POLYLINE
  5
1C1
  8
0
 66
     1
 10
0.0
 20
0.0
 30
0.0
 70
     1
  0
VERTEX
  5
1C2
  8
0
 10
385.62083267
 20
271.72238636
 30
0.0
  0
VERTEX
  5
1C3
  8
0
 10
385.62083267
 20
241.72238636
 30
0.0
  0
VERTEX
  5
1C4
  8
0
 10
85.62083267
 20
241.72238636
 30
0.0
  0
VERTEX
  5
1C5
  8
0
 10
85.62083267
 20
271.72238636
 30
0.0
  0
SEQEND
  5
1C6
  8
0
  0
LINE
  5
1C7
  8
0
 10
385.62083267
 20
313.93075505
 30
0.0
 11
385.62083267
 21
311.93075505
 31
0.0
  0
LINE
  5
1C8
  8
0
 10
85.62083267
 20
311.93075505
 30
0.0
 11
385.62083267
 21
311.93075505
 31
0.0
  0
LINE
  5
1C9
  8
0
 10
85.62083267
 20
313.93075505
 30
0.0
 11
85.62083267
 21
311.93075505
 31
0.0
  0
LINE
  5
1CA
  8
0
 10
385.62083267
 20
313.93075505
 30
0.0
 11
85.62083267
 21
313.93075505
 31
0.0
  0
LINE
  5
1CB
  8
0
 10
63.9094227
 20
313.93075505
 30
0.0
 11
63.9094227
 21
311.93075505
 31
0.0
  0
LINE
  5
1CC
  8
0
 10
33.9094227
 20
311.93075505
 30
0.0
 11
63.9094227
 21
311.93075505
 31
0.0
  0
LINE
  5
1CD
  8
0
 10
33.9094227
 20
313.93075505
 30
0.0
 11
33.9094227
 21
311.93075505
 31
0.0
  0
LINE
  5
1CE
  8
0
 10
63.9094227
 20
313.93075505
 30
0.0
 11
33.9094227
 21
313.93075505
 31
0.0
  0
TEXT
  5
1CF
  8
TXT_DIM49
 10
93.70099722
 20
282.79426918
 30
0.0
 40
2.5
  1
20
  7
ARIAL
  0
LINE
  5
1D0
  8
0
 62
     4
 10
86.62083267
 20
282.29426918
 30
0.0
 11
84.62083267
 21
280.29426918
 31
0.0
  0
LINE
  5
1D1
  8
0
 62
     4
 10
104.87083267
 20
280.54426918
 30
0.0
 11
106.37083267
 21
282.04426918
 31
0.0
  0
LINE
  5
1D2
  8
0
 62
     4
 10
85.62083267
 20
281.29426918
 30
0.0
 11
105.62083267
 21
281.29426918
 31
0.0
  0
LINE
  5
1D3
  8
0
 62
     4
 10
85.62083267
 20
279.29426918
 30
0.0
 11
85.62083267
 21
283.29426918
 31
0.0
  0
LINE
  5
1D4
  8
0
 62
     4
 10
105.62083267
 20
279.29426918
 30
0.0
 11
105.62083267
 21
283.29426918
 31
0.0
  0
TEXT
  5
1D5
  8
TXT_DIM49
 10
126.20099722
 20
282.79426918
 30
0.0
 40
2.5
  1
45
  7
ARIAL
  0
LINE
  5
1D6
  8
0
 62
     4
 10
106.62083267
 20
282.29426918
 30
0.0
 11
104.62083267
 21
280.29426918
 31
0.0
  0
LINE
  5
1D7
  8
0
 62
     4
 10
149.87083267
 20
280.54426918
 30
0.0
 11
151.37083267
 21
282.04426918
 31
0.0
  0
LINE
  5
1D8
  8
0
 62
     4
 10
105.62083267
 20
281.29426918
 30
0.0
 11
150.62083267
 21
281.29426918
 31
0.0
  0
LINE
  5
1D9
  8
0
 62
     4
 10
105.62083267
 20
279.29426918
 30
0.0
 11
105.62083267
 21
283.29426918
 31
0.0
  0
LINE
  5
1DA
  8
0
 62
     4
 10
150.62083267
 20
279.29426918
 30
0.0
 11
150.62083267
 21
283.29426918
 31
0.0
  0
TEXT
  5
1DB
  8
TXT_DIM49
 10
171.20099722
 20
282.79426918
 30
0.0
 40
2.5
  1
45
  7
ARIAL
  0
LINE
  5
1DC
  8
0
 62
     4
 10
151.62083267
 20
282.29426918
 30
0.0
 11
149.62083267
 21
280.29426918
 31
0.0
  0
LINE
  5
1DD
  8
0
 62
     4
 10
194.87083267
 20
280.54426918
 30
0.0
 11
196.37083267
 21
282.04426918
 31
0.0
  0
LINE
  5
1DE
  8
0
 62
     4
 10
150.62083267
 20
281.29426918
 30
0.0
 11
195.62083267
 21
281.29426918
 31
0.0
  0
LINE
  5
1DF
  8
0
 62
     4
 10
150.62083267
 20
279.29426918
 30
0.0
 11
150.62083267
 21
283.29426918
 31
0.0
  0
LINE
  5
1E0
  8
0
 62
     4
 10
195.62083267
 20
279.29426918
 30
0.0
 11
195.62083267
 21
283.29426918
 31
0.0
  0
TEXT
  5
1E1
  8
TXT_DIM49
 10
272.74107956
 20
282.79426918
 30
0.0
 40
2.5
  1
160
  7
ARIAL
  0
LINE
  5
1E2
  8
0
 62
     4
 10
196.62083267
 20
282.29426918
 30
0.0
 11
194.62083267
 21
280.29426918
 31
0.0
  0
LINE
  5
1E3
  8
0
 62
     4
 10
354.87083267
 20
280.54426918
 30
0.0
 11
356.37083267
 21
282.04426918
 31
0.0
  0
LINE
  5
1E4
  8
0
 62
     4
 10
195.62083267
 20
281.29426918
 30
0.0
 11
355.62083267
 21
281.29426918
 31
0.0
  0
LINE
  5
1E5
  8
0
 62
     4
 10
195.62083267
 20
279.29426918
 30
0.0
 11
195.62083267
 21
283.29426918
 31
0.0
  0
LINE
  5
1E6
  8
0
 62
     4
 10
355.62083267
 20
279.29426918
 30
0.0
 11
355.62083267
 21
283.29426918
 31
0.0
  0
TEXT
  5
1E7
  8
TXT_DIM49
 10
368.70099722
 20
282.79426918
 30
0.0
 40
2.5
  1
30
  7
ARIAL
  0
LINE
  5
1E8
  8
0
 62
     4
 10
356.62083267
 20
282.29426918
 30
0.0
 11
354.62083267
 21
280.29426918
 31
0.0
  0
LINE
  5
1E9
  8
0
 62
     4
 10
384.87083267
 20
280.54426918
 30
0.0
 11
386.37083267
 21
282.04426918
 31
0.0
  0
LINE
  5
1EA
  8
0
 62
     4
 10
355.62083267
 20
281.29426918
 30
0.0
 11
385.62083267
 21
281.29426918
 31
0.0
  0
LINE
  5
1EB
  8
0
 62
     4
 10
355.62083267
 20
279.29426918
 30
0.0
 11
355.62083267
 21
283.29426918
 31
0.0
  0
LINE
  5
1EC
  8
0
 62
     4
 10
385.62083267
 20
279.29426918
 30
0.0
 11
385.62083267
 21
283.29426918
 31
0.0
  0
TEXT
  5
1ED
  8
TXT_DIM49
 10
74.14640446
 20
262.30255091
 30
0.0
 40
2.5
  1
15
 50
90.00020741
  7
ARIAL
  0
LINE
  5
1EE
  8
0
 62
     4
 10
76.64640446
 20
270.72238636
 30
0.0
 11
74.64640446
 21
272.72238636
 31
0.0
  0
LINE
  5
1EF
  8
0
 62
     4
 10
74.89640446
 20
257.47238636
 30
0.0
 11
76.39640446
 21
255.97238636
 31
0.0
  0
LINE
  5
1F0
  8
0
 62
     4
 10
75.64640446
 20
271.72238636
 30
0.0
 11
75.64640446
 21
256.72238636
 31
0.0
  0
LINE
  5
1F1
  8
0
 62
     4
 10
77.64640446
 20
271.72238636
 30
0.0
 11
73.64640446
 21
271.72238636
 31
0.0
  0
LINE
  5
1F2
  8
0
 62
     4
 10
77.64640446
 20
256.72238636
 30
0.0
 11
73.64640446
 21
256.72238636
 31
0.0
  0
TEXT
  5
1F3
  8
TXT_DIM49
 10
74.14640446
 20
247.30255091
 30
0.0
 40
2.5
  1
15
 50
90.00020741
  7
ARIAL
  0
LINE
  5
1F4
  8
0
 62
     4
 10
76.64640446
 20
255.72238636
 30
0.0
 11
74.64640446
 21
257.72238636
 31
0.0
  0
LINE
  5
1F5
  8
0
 62
     4
 10
74.89640446
 20
242.47238636
 30
0.0
 11
76.39640446
 21
240.97238636
 31
0.0
  0
LINE
  5
1F6
  8
0
 62
     4
 10
75.64640446
 20
256.72238636
 30
0.0
 11
75.64640446
 21
241.72238636
 31
0.0
  0
LINE
  5
1F7
  8
0
 62
     4
 10
77.64640446
 20
256.72238636
 30
0.0
 11
73.64640446
 21
256.72238636
 31
0.0
  0
LINE
  5
1F8
  8
0
 62
     4
 10
77.64640446
 20
241.72238636
 30
0.0
 11
73.64640446
 21
241.72238636
 31
0.0
  0
LINE
  5
1F9
  8
0
 62
     5
 10
105.62083267
 20
256.72238636
 30
0.0
 11
113.07689436
 21
265.3406112
 31
0.0
  0
TEXT
  5
1FA
  8
TXT_DIM49
 10
113.07689436
 20
264.0906112
 30
0.0
 40
2.5
  1
Ø12
  7
ARIAL
  0
LINE
  5
1FB
  8
0
 62
     5
 10
150.62083267
 20
256.72238636
 30
0.0
 11
156.91918264
 21
264.30342771
 31
0.0
  0
TEXT
  5
1FC
  8
TXT_DIM49
 10
156.91918264
 20
263.05342771
 30
0.0
 40
2.5
  1
Ø9
  7
ARIAL
  0
LINE
  5
1FD
  8
0
 62
     5
 10
195.62083267
 20
256.72238636
 30
0.0
 11
200.82682642
 21
265.14674945
 31
0.0
  0
TEXT
  5
1FE
  8
TXT_DIM49
 10
200.82682642
 20
263.89674945
 30
0.0
 40
2.5
  1
Ø9
  7
ARIAL
  0
LINE
  5
1FF
  8
0
 62
     5
 10
355.62083267
 20
256.72238636
 30
0.0
 11
362.46506654
 21
266.43308716
 31
0.0
  0
TEXT
  5
200
  8
TXT_DIM49
 10
362.46506654
 20
265.18308716
 30
0.0
 40
2.5
  1
Ø12
  7
ARIAL
  0
TEXT
  5
201
  8
TXT_DIM49
 10
232.74107956
 20
320.59026775
 30
0.0
 40
2.5
  1
300
  7
ARIAL
  0
LINE
  5
202
  8
0
 62
     4
 10
86.62083267
 20
320.09026775
 30
0.0
 11
84.62083267
 21
318.09026775
 31
0.0
  0
LINE
  5
203
  8
0
 62
     4
 10
384.87083267
 20
318.34026775
 30
0.0
 11
386.37083267
 21
319.84026775
 31
0.0
  0
LINE
  5
204
  8
0
 62
     4
 10
85.62083267
 20
319.09026775
 30
0.0
 11
385.62083267
 21
319.09026775
 31
0.0
  0
LINE
  5
205
  8
0
 62
     4
 10
85.62083267
 20
317.09026775
 30
0.0
 11
85.62083267
 21
321.09026775
 31
0.0
  0
LINE
  5
206
  8
0
 62
     4
 10
385.62083267
 20
317.09026775
 30
0.0
 11
385.62083267
 21
321.09026775
 31
0.0
  0
TEXT
  5
207
  8
TXT_DIM49
 10
46.98958725
 20
320.5962434
 30
0.0
 40
2.5
  1
30
  7
ARIAL
  0
LINE
  5
208
  8
0
 62
     4
 10
34.9094227
 20
320.0962434
 30
0.0
 11
32.9094227
 21
318.0962434
 31
0.0
  0
LINE
  5
209
  8
0
 62
     4
 10
63.1594227
 20
318.3462434
 30
0.0
 11
64.6594227
 21
319.8462434
 31
0.0
  0
LINE
  5
20A
  8
0
 62
     4
 10
33.9094227
 20
319.0962434
 30
0.0
 11
63.9094227
 21
319.0962434
 31
0.0
  0
LINE
  5
20B
  8
0
 62
     4
 10
33.9094227
 20
317.0962434
 30
0.0
 11
33.9094227
 21
321.0962434
 31
0.0
  0
LINE
  5
20C
  8
0
 62
     4
 10
63.9094227
 20
317.0962434
 30
0.0
 11
63.9094227
 21
321.0962434
 31
0.0
  0
TEXT
  5
20D
  8
TXT_DIM49
 10
27.91049409
 20
311.97083733
 30
0.0
 40
2.5
  1
2
 50
90.00020741
  7
ARIAL
  0
LINE
  5
20E
  8
0
 62
     4
 10
30.41049409
 20
312.93075505
 30
0.0
 11
28.41049409
 21
314.93075505
 31
0.0
  0
LINE
  5
20F
  8
0
 62
     4
 10
28.66049409
 20
312.68075505
 30
0.0
 11
30.16049409
 21
311.18075505
 31
0.0
  0
LINE
  5
210
  8
0
 62
     4
 10
29.41049409
 20
313.93075505
 30
0.0
 11
29.41049409
 21
311.93075505
 31
0.0
  0
LINE
  5
211
  8
0
 62
     4
 10
31.41049409
 20
313.93075505
 30
0.0
 11
27.41049409
 21
313.93075505
 31
0.0
  0
LINE
  5
212
  8
0
 62
     4
 10
31.41049409
 20
311.93075505
 30
0.0
 11
27.41049409
 21
311.93075505
 31
0.0
  0
ENDSEC
  0
EOF
