999
NT  : - 1800
  0
SECTION
  2
HEADER
  9
$ACADVER
  1
AC1015
  9
$DWGCODEPAGE
  3
ANSI_1252
  9
$INSBASE
 10
0.0
 20
0.0
 30
0.0
  9
$EXTMIN
 10
-152.99901529
 20
-102.31896016
 30
0.0
  9
$EXTMAX
 10
778.46129180
 20
276.35603984
 30
0.0
  9
$LIMMIN
 10
-152.99901529
 20
-102.31896016
  9
$LIMMAX
 10
778.46129180
 20
276.35603984
  9
$INSUNITS
 70
     4
  9
$FILLMODE
 70
     1
  9
$QTEXTMODE
 70
     0
  9
$LTSCALE
 40
1.000000000
  9
$ATTMODE
 70
     1
  9
$TEXTSTYLE
  7
Standard
  9
$LUNITS
 70
     2
  9
$LUPREC
 70
     4
  9
$AUNITS
 70
     0
  9
$AUPREC
 70
     0
  9
$ANGBASE
 50
0.0
  9
$ANGDIR
 70
     0
  9
$HANDSEED
  5
B4B
  9
$TILEMODE
 70
     1
  9
$VISRETAIN
 70
     0
  9
$MEASUREMENT
 70
     1
  0
ENDSEC
  0
SECTION
  2
CLASSES
  0
ENDSEC
  0
SECTION
  2
TABLES
  0
TABLE
  2
VPORT
  5
1
100
AcDbSymbolTable
 70
     1
  0
VPORT
  5
2
100
AcDbSymbolTableRecord
100
AcDbViewportTableRecord
  2
*Active
 70
     0
 10
0.0
 20
0.0
 11
1.0
 21
1.0
 12
312.73113825
 22
87.01853984
 13
0.0
 23
0.0
 14
1.0
 24
1.0
 15
0.0
 25
0.0
 16
0.0
 26
0.0
 36
1.0
 17
0.0
 27
0.0
 37
0.0
 40
378.675000000
 41
2.459788228
 42
50.0
 43
0.0
 44
0.0
 50
0.0
 51
0.0
 71
     0
 72
   100
 73
     1
 74
     1
 75
     0
 76
     0
 77
     0
 78
     0
  0
ENDTAB
  0
TABLE
  2
LTYPE
  5
3
100
AcDbSymbolTable
 70
    21
  0
LTYPE
  5
4
100
AcDbSymbolTableRecord
100
AcDbLinetypeTableRecord
  2
ByBlock
 70
    64
  3

 72
    65
 73
     0
 40
0.0
  0
LTYPE
  5
5
100
AcDbSymbolTableRecord
100
AcDbLinetypeTableRecord
  2
ByLayer
 70
    64
  3

 72
    65
 73
     0
 40
0.0
  0
LTYPE
  5
6
100
AcDbSymbolTableRecord
100
AcDbLinetypeTableRecord
  2
CONTINUOUS
 70
    64
  3
Solid line
 72
    65
 73
     0
 40
0.0
  0
LTYPE
  5
7
100
AcDbSymbolTableRecord
100
AcDbLinetypeTableRecord
  2
DOT
 70
    64
  3
..............
 72
    65
 73
     2
 40
2.000
 49
0.500
 74
     0
 49
-1.500
 74
     0
  0
LTYPE
  5
8
100
AcDbSymbolTableRecord
100
AcDbLinetypeTableRecord
  2
HIDDEN
 70
    64
  3
-- -- -- -- --
 72
    65
 73
     2
 40
7.000
 49
4.000
 74
     0
 49
-3.000
 74
     0
  0
LTYPE
  5
9
100
AcDbSymbolTableRecord
100
AcDbLinetypeTableRecord
  2
DASHDOT
 70
    64
  3
--.--.--.--.--
 72
    65
 73
     4
 40
8.500
 49
4.000
 74
     0
 49
-2.000
 74
     0
 49
0.500
 74
     0
 49
-2.000
 74
     0
  0
LTYPE
  5
A
100
AcDbSymbolTableRecord
100
AcDbLinetypeTableRecord
  2
STRICHPUNKT2
 70
    64
  3
--.--.--.--.--
 72
    65
 73
     4
 40
18.500
 49
10.000
 74
     0
 49
-4.000
 74
     0
 49
0.500
 74
     0
 49
-4.000
 74
     0
  0
LTYPE
  5
B
100
AcDbSymbolTableRecord
100
AcDbLinetypeTableRecord
  2
STRICHPUNKT3
 70
    64
  3
--.--.--.--.--
 72
    65
 73
     4
 40
35.500
 49
25.000
 74
     0
 49
-5.000
 74
     0
 49
0.500
 74
     0
 49
-5.000
 74
     0
  0
LTYPE
  5
13F
100
AcDbSymbolTableRecord
100
AcDbLinetypeTableRecord
  2
PHANTOM
 70
    64
  3
--..--..--..--
 72
    65
 73
     6
 40
23.000
 49
10.000
 74
     0
 49
-4.000
 74
     0
 49
0.500
 74
     0
 49
-4.000
 74
     0
 49
0.500
 74
     0
 49
-4.000
 74
     0
  0
LTYPE
  5
140
100
AcDbSymbolTableRecord
100
AcDbLinetypeTableRecord
  2
PHANTOM2
 70
    64
  3
--..--..--..--
 72
    65
 73
     6
 40
33.000
 49
20.000
 74
     0
 49
-4.000
 74
     0
 49
0.500
 74
     0
 49
-4.000
 74
     0
 49
0.500
 74
     0
 49
-4.000
 74
     0
  0
LTYPE
  5
141
100
AcDbSymbolTableRecord
100
AcDbLinetypeTableRecord
  2
PHANTOM3
 70
    64
  3
--..--..--..--
 72
    65
 73
     6
 40
50.000
 49
37.000
 74
     0
 49
-4.000
 74
     0
 49
0.500
 74
     0
 49
-4.000
 74
     0
 49
0.500
 74
     0
 49
-4.000
 74
     0
  0
LTYPE
  5
142
100
AcDbSymbolTableRecord
100
AcDbLinetypeTableRecord
  2
STR3PKT
 70
    64
  3
--...--...--...
 72
    65
 73
     8
 40
31.500
 49
20.000
 74
     0
 49
-2.500
 74
     0
 49
0.500
 74
     0
 49
-2.500
 74
     0
 49
0.500
 74
     0
 49
-2.500
 74
     0
 49
0.500
 74
     0
 49
-2.500
 74
     0
  0
LTYPE
  5
143
100
AcDbSymbolTableRecord
100
AcDbLinetypeTableRecord
  2
2STRPKT
 70
    64
  3
--.--.--.--.--
 72
    65
 73
     6
 40
28.000
 49
10.000
 74
     0
 49
-2.500
 74
     0
 49
10.000
 74
     0
 49
-2.500
 74
     0
 49
0.500
 74
     0
 49
-2.500
 74
     0
  0
LTYPE
  5
144
100
AcDbSymbolTableRecord
100
AcDbLinetypeTableRecord
  2
GESTRICHELT2
 70
    64
  3
-- -- -- -- --
 72
    65
 73
     2
 40
25.000
 49
10.000
 74
     0
 49
-15.000
 74
     0
  0
LTYPE
  5
145
100
AcDbSymbolTableRecord
100
AcDbLinetypeTableRecord
  2
2STR2PKT
 70
    64
  3
--..--..--..--
 72
    65
 73
     8
 40
31.000
 49
10.000
 74
     0
 49
-2.500
 74
     0
 49
10.000
 74
     0
 49
-2.500
 74
     0
 49
0.500
 74
     0
 49
-2.500
 74
     0
 49
0.500
 74
     0
 49
-2.500
 74
     0
  0
LTYPE
  5
146
100
AcDbSymbolTableRecord
100
AcDbLinetypeTableRecord
  2
STR3PKT2
 70
    64
  3
--...--...--...
 72
    65
 73
     8
 40
21.000
 49
10.000
 74
     0
 49
-2.500
 74
     0
 49
0.500
 74
     0
 49
-2.500
 74
     0
 49
0.500
 74
     0
 49
-2.500
 74
     0
 49
0.500
 74
     0
 49
-2.000
 74
     0
  0
LTYPE
  5
147
100
AcDbSymbolTableRecord
100
AcDbLinetypeTableRecord
  2
2STR3PKT
 70
    64
  3
--...--...--...
 72
    65
 73
    10
 40
34.000
 49
10.000
 74
     0
 49
-2.500
 74
     0
 49
10.000
 74
     0
 49
-2.500
 74
     0
 49
0.500
 74
     0
 49
-2.500
 74
     0
 49
0.500
 74
     0
 49
-2.500
 74
     0
 49
0.500
 74
     0
 49
-2.500
 74
     0
  0
LTYPE
  5
148
100
AcDbSymbolTableRecord
100
AcDbLinetypeTableRecord
  2
STRKSTR
 70
    64
  3
-- - -- - -- -
 72
    65
 73
     4
 40
30.000
 49
20.000
 74
     0
 49
-2.500
 74
     0
 49
5.000
 74
     0
 49
-2.500
 74
     0
  0
LTYPE
  5
149
100
AcDbSymbolTableRecord
100
AcDbLinetypeTableRecord
  2
STRKSTR2
 70
    64
  3
-- - -- - -- -
 72
    65
 73
     6
 40
37.500
 49
20.000
 74
     0
 49
-2.500
 74
     0
 49
5.000
 74
     0
 49
-2.500
 74
     0
 49
5.000
 74
     0
 49
-2.500
 74
     0
  0
LTYPE
  5
14A
100
AcDbSymbolTableRecord
100
AcDbLinetypeTableRecord
  2
STRKSTR3
 70
    64
  3
-- - -- - -- -
 72
    65
 73
     8
 40
45.000
 49
20.000
 74
     0
 49
-2.500
 74
     0
 49
5.000
 74
     0
 49
-2.500
 74
     0
 49
5.000
 74
     0
 49
-2.500
 74
     0
 49
5.000
 74
     0
 49
-2.500
 74
     0
  0
LTYPE
  5
14B
100
AcDbSymbolTableRecord
100
AcDbLinetypeTableRecord
  2
PUNKT2
 70
    64
  3
..............
 72
    65
 73
     2
 40
3.500
 49
0.500
 74
     0
 49
-3.000
 74
     0
  0
ENDTAB
  0
TABLE
  2
LAYER
  5
14C
100
AcDbSymbolTable
 70
    15
  0
LAYER
  5
14D
100
AcDbSymbolTableRecord
100
AcDbLayerTableRecord
  2
0
 70
    64
 62
     7
  6
CONTINUOUS
370
    -3
390
F
  0
LAYER
  5
14E
100
AcDbSymbolTableRecord
100
AcDbLayerTableRecord
  2
LE_GREEN
 70
    64
 62
     3
  6
CONTINUOUS
370
    -3
390
F
  0
LAYER
  5
14F
100
AcDbSymbolTableRecord
100
AcDbLayerTableRecord
  2
LE_RED
 70
    64
 62
     1
  6
CONTINUOUS
370
    -3
390
F
  0
LAYER
  5
150
100
AcDbSymbolTableRecord
100
AcDbLayerTableRecord
  2
LE_ALL
 70
    64
 62
     7
  6
CONTINUOUS
370
    50
390
F
  0
LAYER
  5
151
100
AcDbSymbolTableRecord
100
AcDbLayerTableRecord
  2
LE_HIDDEN1
 70
    64
 62
     3
  6
HIDDEN
370
    -3
390
F
  0
LAYER
  5
152
100
AcDbSymbolTableRecord
100
AcDbLayerTableRecord
  2
LE_HIDDEN
 70
    64
 62
     7
  6
CONTINUOUS
370
    -3
390
F
  0
LAYER
  5
153
100
AcDbSymbolTableRecord
100
AcDbLayerTableRecord
  2
LE_MIDDLE
 70
    64
 62
     7
  6
CONTINUOUS
370
    -3
390
F
  0
LAYER
  5
154
100
AcDbSymbolTableRecord
100
AcDbLayerTableRecord
  2
TXT_YELLOW
 70
    64
 62
     2
  6
CONTINUOUS
370
    -3
390
F
  0
LAYER
  5
155
100
AcDbSymbolTableRecord
100
AcDbLayerTableRecord
  2
TXT_DIM49
 70
    64
 62
     2
  6
CONTINUOUS
370
    -3
390
F
  0
LAYER
  5
156
100
AcDbSymbolTableRecord
100
AcDbLayerTableRecord
  2
TXT_ALL
 70
    64
 62
     7
  6
CONTINUOUS
370
    -3
390
F
  0
LAYER
  5
157
100
AcDbSymbolTableRecord
100
AcDbLayerTableRecord
  2
DIM49
 70
    64
 62
     4
  6
CONTINUOUS
370
    -3
390
F
  0
LAYER
  5
158
100
AcDbSymbolTableRecord
100
AcDbLayerTableRecord
  2
HATCH
 70
    64
 62
     3
  6
CONTINUOUS
370
    -3
390
F
  0
LAYER
  5
159
100
AcDbSymbolTableRecord
100
AcDbLayerTableRecord
  2
APPLE
 70
    64
 62
     7
  6
CONTINUOUS
370
    -3
390
F
  0
LAYER
  5
15A
100
AcDbSymbolTableRecord
100
AcDbLayerTableRecord
  2
10
 70
    64
 62
     7
  6
CONTINUOUS
370
    -3
390
F
  0
LAYER
  5
15B
100
AcDbSymbolTableRecord
100
AcDbLayerTableRecord
  2
49
 70
    64
 62
     7
  6
CONTINUOUS
370
    -3
390
F
  0
ENDTAB
  0
TABLE
  2
STYLE
  5
15C
100
AcDbSymbolTable
 70
     5
  0
STYLE
  5
15D
100
AcDbSymbolTableRecord
100
AcDbTextStyleTableRecord
  2
MONOTXT
 70
     0
 40
0.0
 41
1.000
 50
0.0
 71
     0
 42
1.000
  3
monotxt.shx
  4

  0
STYLE
  5
15E
100
AcDbSymbolTableRecord
100
AcDbTextStyleTableRecord
  2
STANDARD
 70
     0
 40
0.0
 41
1.000
 50
0.0
 71
     0
 42
1.000
  3
txt
  4

  0
STYLE
  5
15F
100
AcDbSymbolTableRecord
100
AcDbTextStyleTableRecord
  2
ARIAL
 70
     0
 40
0.0
 41
1.000
 50
0.0
 71
     0
 42
1.000
  3
arial.ttf
  4

  0
STYLE
  5
160
100
AcDbSymbolTableRecord
100
AcDbTextStyleTableRecord
  2
ARIAL Narrow
 70
     0
 40
0.0
 41
1.000
 50
0.0
 71
     0
 42
1.000
  3
ArialN.ttf
  4

  0
STYLE
  5
161
100
AcDbSymbolTableRecord
100
AcDbTextStyleTableRecord
  2
ISOCPEUR
 70
     0
 40
0.0
 41
1.000
 50
0.0
 71
     0
 42
1.000
  3
ISOCPEUR.ttf
  4

  0
ENDTAB
  0
TABLE
  2
VIEW
  5
162
100
AcDbSymbolTable
 70
     0
  0
ENDTAB
  0
TABLE
  2
UCS
  5
163
100
AcDbSymbolTable
 70
     0
  0
ENDTAB
  0
TABLE
  2
APPID
  5
164
100
AcDbSymbolTable
 70
     1
  0
APPID
  5
165
100
AcDbSymbolTableRecord
100
AcDbRegAppTableRecord
  2
ACAD
 70
     0
  0
ENDTAB
  0
TABLE
  2
DIMSTYLE
  5
166
100
AcDbSymbolTable
100
AcDbDimStyleTable
 70
     0
  0
ENDTAB
  0
TABLE
  2
BLOCK_RECORD
  5
167
100
AcDbSymbolTable
 70
     2
  0
BLOCK_RECORD
  5
1E
100
AcDbSymbolTableRecord
100
AcDbBlockTableRecord
  2
*Model_Space
  0
BLOCK_RECORD
  5
1A
100
AcDbSymbolTableRecord
100
AcDbBlockTableRecord
  2
*Paper_Space
  0
ENDTAB
  0
ENDSEC
  0
SECTION
  2
BLOCKS
  0
BLOCK
  5
168
100
AcDbEntity
  8
0
100
AcDbBlockBegin
  2
*Model_Space
 70
     0
 10
0.0
 20
0.0
 30
0.0
  3
*Model_Space
  1

  0
ENDBLK
  5
169
100
AcDbEntity
  8
0
100
AcDbBlockEnd
  0
BLOCK
  5
16A
100
AcDbEntity
100
AcDbBlockBegin
 67
     1
  8
0
  2
*Paper_Space
 70
     0
 10
0.0
 20
0.0
 30
0.0
  3
*Paper_Space
  1

  0
ENDBLK
  5
16B
100
AcDbEntity
100
AcDbBlockEnd
 67
     1
  8
0
  0
ENDSEC
  0
SECTION
  2
ENTITIES
  0
POLYLINE
  5
16C
100
AcDbEntity
  8
0
100
AcDb2dPolyline
 66
     1
 70
     1
  0
VERTEX
  5
16D
100
AcDbEntity
  8
0
100
AcDbVertex
100
AcDb2dVertex
 10
-45.10327650
 20
-45.51444268
 30
0.0
  0
VERTEX
  5
16E
100
AcDbEntity
  8
0
100
AcDbVertex
100
AcDb2dVertex
 10
374.89672350
 20
-45.51444268
 30
0.0
  0
VERTEX
  5
16F
100
AcDbEntity
  8
0
100
AcDbVertex
100
AcDb2dVertex
 10
374.89672350
 20
251.48555732
 30
0.0
  0
VERTEX
  5
170
100
AcDbEntity
  8
0
100
AcDbVertex
100
AcDb2dVertex
 10
-45.10327650
 20
251.48555732
 30
0.0
  0
SEQEND
  5
171
100
AcDbEntity
  8
0
  0
POLYLINE
  5
172
100
AcDbEntity
  8
0
100
AcDb2dPolyline
 66
     1
 70
     1
  0
VERTEX
  5
173
100
AcDbEntity
  8
0
100
AcDbVertex
100
AcDb2dVertex
 10
-40.10327650
 20
-40.51444268
 30
0.0
  0
VERTEX
  5
174
100
AcDbEntity
  8
0
100
AcDbVertex
100
AcDb2dVertex
 10
369.89672350
 20
-40.51444268
 30
0.0
  0
VERTEX
  5
175
100
AcDbEntity
  8
0
100
AcDbVertex
100
AcDb2dVertex
 10
369.89672350
 20
246.48555732
 30
0.0
  0
VERTEX
  5
176
100
AcDbEntity
  8
0
100
AcDbVertex
100
AcDb2dVertex
 10
-40.10327650
 20
246.48555732
 30
0.0
  0
SEQEND
  5
177
100
AcDbEntity
  8
0
  0
LINE
  5
178
100
AcDbEntity
  8
0
100
AcDbLine
 10
184.89672350
 20
-40.51444268
 30
0.0
 11
184.89672350
 21
-45.51444268
 31
0.0
  0
LINE
  5
179
100
AcDbEntity
  8
0
100
AcDbLine
 10
184.89672350
 20
246.48555732
 30
0.0
 11
184.89672350
 21
251.48555732
 31
0.0
  0
LINE
  5
17A
100
AcDbEntity
  8
0
100
AcDbLine
 10
-25.10327650
 20
-40.51444268
 30
0.0
 11
-25.10327650
 21
-45.51444268
 31
0.0
  0
LINE
  5
17B
100
AcDbEntity
  8
0
100
AcDbLine
 10
-25.10327650
 20
246.48555732
 30
0.0
 11
-25.10327650
 21
251.48555732
 31
0.0
  0
TEXT
  5
17C
100
AcDbEntity
  8
TXT_ALL
100
AcDbText
 62
     4
 10
373.89672350
 20
-44.51444268
 30
0.0
 40
2.50000000
  1

  7
MONOTXT
 41
1.000
 50
90.000207410
 51
0.0
100
AcDbText
  0
POLYLINE
  5
17D
100
AcDbEntity
  8
0
100
AcDb2dPolyline
 66
     1
  0
VERTEX
  5
17E
100
AcDbEntity
  8
0
100
AcDbVertex
100
AcDb2dVertex
 10
369.89672350
 20
236.48555732
 30
0.0
  0
VERTEX
  5
17F
100
AcDbEntity
  8
0
100
AcDbVertex
100
AcDb2dVertex
 10
300.90342350
 20
236.48555732
 30
0.0
  0
VERTEX
  5
180
100
AcDbEntity
  8
0
100
AcDbVertex
100
AcDb2dVertex
 10
300.90342350
 20
246.48555732
 30
0.0
  0
SEQEND
  5
181
100
AcDbEntity
  8
0
  0
LINE
  5
182
100
AcDbEntity
  8
0
100
AcDbLine
 10
302.80672350
 20
-21.01444268
 30
0.0
 11
162.91672350
 21
-21.01444268
 31
0.0
  0
LINE
  5
183
100
AcDbEntity
  8
0
100
AcDbLine
 10
162.91672350
 20
-30.76444268
 30
0.0
 11
302.80672350
 21
-30.76444268
 31
0.0
  0
POLYLINE
  5
184
100
AcDbEntity
  8
0
100
AcDb2dPolyline
 66
     1
  0
VERTEX
  5
185
100
AcDbEntity
  8
0
100
AcDbVertex
100
AcDb2dVertex
 10
162.91672350
 20
-21.01444268
 30
0.0
  0
VERTEX
  5
186
100
AcDbEntity
  8
0
100
AcDbVertex
100
AcDb2dVertex
 10
162.91672350
 20
-30.76444268
 30
0.0
  0
VERTEX
  5
187
100
AcDbEntity
  8
0
100
AcDbVertex
100
AcDb2dVertex
 10
162.91672350
 20
-40.51444268
 30
0.0
  0
SEQEND
  5
188
100
AcDbEntity
  8
0
  0
POLYLINE
  5
189
100
AcDbEntity
  8
0
100
AcDb2dPolyline
 66
     1
  0
VERTEX
  5
18A
100
AcDbEntity
  8
0
100
AcDbVertex
100
AcDb2dVertex
 10
232.86172350
 20
-21.01444268
 30
0.0
  0
VERTEX
  5
18B
100
AcDbEntity
  8
0
100
AcDbVertex
100
AcDb2dVertex
 10
232.86172350
 20
-30.76444268
 30
0.0
  0
VERTEX
  5
18C
100
AcDbEntity
  8
0
100
AcDbVertex
100
AcDb2dVertex
 10
232.86172350
 20
-40.51444268
 30
0.0
  0
SEQEND
  5
18D
100
AcDbEntity
  8
0
  0
POLYLINE
  5
18E
100
AcDbEntity
  8
0
100
AcDb2dPolyline
 66
     1
  0
VERTEX
  5
18F
100
AcDbEntity
  8
0
100
AcDbVertex
100
AcDb2dVertex
 10
8.88040532
 20
70.55983614
 30
0.0
  0
VERTEX
  5
190
100
AcDbEntity
  8
0
100
AcDbVertex
100
AcDb2dVertex
 10
16.90479211
 20
10.54166850
 30
0.0
  0
VERTEX
  5
191
100
AcDbEntity
  8
0
100
AcDbVertex
100
AcDb2dVertex
 10
75.93177939
 20
2.64980182
 30
0.0
 42
-0.298911125
  0
VERTEX
  5
192
100
AcDbEntity
  8
0
100
AcDbVertex
100
AcDb2dVertex
 10
76.77271497
 20
1.88757274
 30
0.0
 42
0.348074312
  0
VERTEX
  5
193
100
AcDbEntity
  8
0
100
AcDbVertex
100
AcDb2dVertex
 10
78.71961667
 20
0.34540238
 30
0.0
  0
SEQEND
  5
194
100
AcDbEntity
  8
0
  0
POLYLINE
  5
195
100
AcDbEntity
  8
0
100
AcDb2dPolyline
 66
     1
  0
VERTEX
  5
196
100
AcDbEntity
  8
0
100
AcDbVertex
100
AcDb2dVertex
 10
8.88040532
 20
70.55983614
 30
0.0
 42
0.282752999
  0
VERTEX
  5
197
100
AcDbEntity
  8
0
100
AcDbVertex
100
AcDb2dVertex
 10
8.16232721
 20
71.38930105
 30
0.0
 42
-0.335328175
  0
VERTEX
  5
198
100
AcDbEntity
  8
0
100
AcDbVertex
100
AcDb2dVertex
 10
6.70852596
 20
73.31327613
 30
0.0
  0
SEQEND
  5
199
100
AcDbEntity
  8
0
  0
POLYLINE
  5
19A
100
AcDbEntity
  8
0
100
AcDb2dPolyline
 66
     1
  0
VERTEX
  5
19B
100
AcDbEntity
  8
0
100
AcDbVertex
100
AcDb2dVertex
 10
275.09728366
 20
182.60586540
 30
0.0
  0
VERTEX
  5
19C
100
AcDbEntity
  8
0
100
AcDbVertex
100
AcDb2dVertex
 10
280.03272864
 20
144.77800680
 30
0.0
  0
VERTEX
  5
19D
100
AcDbEntity
  8
0
100
AcDbVertex
100
AcDb2dVertex
 10
317.56502885
 20
134.99167037
 30
0.0
 42
-0.225854629
  0
VERTEX
  5
19E
100
AcDbEntity
  8
0
100
AcDbVertex
100
AcDb2dVertex
 10
318.07146999
 20
134.55866519
 30
0.0
  0
SEQEND
  5
19F
100
AcDbEntity
  8
0
  0
ARC
  5
1A0
100
AcDbEntity
  8
0
100
AcDbCircle
 10
318.81519951
 20
134.89091105
 30
0.0
 40
0.81456793
100
AcDbArc
 50
-155.928278917
 51
-124.988374351
  0
POLYLINE
  5
1A1
100
AcDbEntity
  8
0
100
AcDb2dPolyline
 66
     1
  0
VERTEX
  5
1A2
100
AcDbEntity
  8
0
100
AcDbVertex
100
AcDb2dVertex
 10
275.09728366
 20
182.60586540
 30
0.0
 42
0.202255038
  0
VERTEX
  5
1A3
100
AcDbEntity
  8
0
100
AcDbVertex
100
AcDb2dVertex
 10
274.69748820
 20
183.18289221
 30
0.0
 42
-0.149059048
  0
VERTEX
  5
1A4
100
AcDbEntity
  8
0
100
AcDbVertex
100
AcDb2dVertex
 10
274.36597306
 20
183.52222891
 30
0.0
  0
SEQEND
  5
1A5
100
AcDbEntity
  8
0
  0
TEXT
  5
1A6
100
AcDbEntity
  8
TXT_ALL
100
AcDbText
 10
164.91672350
 20
-27.18944263
 30
0.0
 40
2.59999990
  1
E-mail: verkoop@jonkers-bouwmetaal.nl
  7
Arial
 41
1.000
 50
0.0
 51
0.0
 72
     0
 11
164.91672350
 21
-25.88944268
 31
0.0
100
AcDbText
 73
     2
  0
TEXT
  5
1A7
100
AcDbEntity
  8
TXT_ALL
100
AcDbText
 10
164.91672350
 20
-36.93944263
 30
0.0
 40
2.59999990
  1
Telefoon: 0527-685156
  7
Arial
 41
1.000
 50
0.0
 51
0.0
 72
     0
 11
164.91672350
 21
-35.63944268
 31
0.0
100
AcDbText
 73
     2
  0
TEXT
  5
1A8
100
AcDbEntity
  8
TXT_ALL
100
AcDbText
 10
234.86172350
 20
-36.93944263
 30
0.0
 40
2.59999990
  1
Website: www.jonkers-bouwmetaal.nl
  7
Arial
 41
1.000
 50
0.0
 51
0.0
 72
     0
 11
234.86172350
 21
-35.63944268
 31
0.0
100
AcDbText
 73
     2
  0
TEXT
  5
1A9
100
AcDbEntity
  8
TXT_ALL
100
AcDbText
 10
234.86172350
 20
-27.18944263
 30
0.0
 40
2.59999990
  1
Adres: Hoornse Hop 10, 8321 WX Urk
  7
Arial
 41
1.000
 50
0.0
 51
0.0
 72
     0
 11
234.86172350
 21
-25.88944268
 31
0.0
100
AcDbText
 73
     2
  0
TEXT
  5
1AA
100
AcDbEntity
  8
TXT_ALL
100
AcDbText
 10
-36.66131625
 20
240.23555732
 30
0.0
 40
2.50000000
  1
Art. nr. 91017512
  7
Arial
 41
1.000
 50
0.0
 51
0.0
 72
     0
 11
-36.66131625
 21
241.48555732
 31
0.0
100
AcDbText
 73
     2
  0
TEXT
  5
1AB
100
AcDbEntity
  8
TXT_ALL
100
AcDbText
 10
6.07672057
 20
240.23555732
 30
0.0
 40
2.50000000
  1
Omschrijving: SVH06-anker met ril 125x125 60x2.5
  7
Arial
 41
1.000
 50
0.0
 51
0.0
 72
     0
 11
6.07672057
 21
241.48555732
 31
0.0
100
AcDbText
 73
     2
  0
LINE
  5
1AC
100
AcDbEntity
  8
0
100
AcDbLine
 10
369.89672350
 20
236.48555732
 30
0.0
 11
-40.10327650
 21
236.48555732
 31
0.0
  0
LINE
  5
1AD
100
AcDbEntity
  8
0
100
AcDbLine
 10
2.91672350
 20
236.48555732
 30
0.0
 11
2.91672350
 21
246.48555732
 31
0.0
  0
LINE
  5
1AE
100
AcDbEntity
  8
0
100
AcDbLine
 10
162.91672350
 20
236.48555732
 30
0.0
 11
162.91672350
 21
246.48555732
 31
0.0
  0
TEXT
  5
1AF
100
AcDbEntity
  8
TXT_ALL
100
AcDbText
 10
233.91042350
 20
240.23555732
 30
0.0
 40
2.50000000
  1
Behandeling: Sendzimir verzinkt
  7
Arial
 41
1.000
 50
0.0
 51
0.0
 72
     0
 11
233.91042350
 21
241.48555732
 31
0.0
100
AcDbText
 73
     2
  0
LINE
  5
1B0
100
AcDbEntity
  8
0
100
AcDbLine
 10
302.80672350
 20
-21.01444268
 30
0.0
 11
369.89672350
 21
-21.01444268
 31
0.0
  0
LINE
  5
1B1
100
AcDbEntity
  8
0
100
AcDbLine
 10
302.80672350
 20
-40.51444268
 30
0.0
 11
302.80672350
 21
-21.01444268
 31
0.0
  0
LINE
  5
1B2
100
AcDbEntity
  8
0
100
AcDbLine
 10
302.80672350
 20
-40.51444268
 30
0.0
 11
302.80672350
 21
-21.01444268
 31
0.0
  0
TEXT
  5
1B3
100
AcDbEntity
  8
TXT_ALL
100
AcDbText
 10
97.26192159
 20
-39.35990926
 30
0.0
 40
2.50000000
  1

  7
MONOTXT
 41
1.000
 50
0.0
 51
0.0
 72
     0
 11
97.26192159
 21
-38.10990926
 31
0.0
100
AcDbText
 73
     2
  0
TEXT
  5
1B4
100
AcDbEntity
  8
TXT_ALL
100
AcDbText
 10
218.39710455
 20
-29.26444268
 30
0.0
 40
2.50000000
  1

  7
MONOTXT
 41
1.000
 50
0.0
 51
0.0
 72
     0
 11
218.39710455
 21
-28.01444268
 31
0.0
100
AcDbText
 73
     2
  0
POLYLINE
  5
1B5
100
AcDbEntity
  8
0
100
AcDb2dPolyline
 66
     1
  0
VERTEX
  5
1B6
100
AcDbEntity
  8
0
100
AcDbVertex
100
AcDb2dVertex
 10
300.90342350
 20
236.48555732
 30
0.0
  0
VERTEX
  5
1B7
100
AcDbEntity
  8
0
100
AcDbVertex
100
AcDb2dVertex
 10
231.91042350
 20
236.48555732
 30
0.0
  0
VERTEX
  5
1B8
100
AcDbEntity
  8
0
100
AcDbVertex
100
AcDb2dVertex
 10
231.91042350
 20
246.48555732
 30
0.0
  0
SEQEND
  5
1B9
100
AcDbEntity
  8
0
  0
TEXT
  5
1BA
100
AcDbEntity
  8
TXT_ALL
100
AcDbText
 10
302.90342350
 20
240.23555732
 30
0.0
 40
2.50000000
  1
Verpakkingshoeveelheid: 50 st.
  7
Arial
 41
1.000
 50
0.0
 51
0.0
 72
     0
 11
302.90342350
 21
241.48555732
 31
0.0
100
AcDbText
 73
     2
  0
TEXT
  5
1BB
100
AcDbEntity
  8
TXT_ALL
100
AcDbText
 10
164.91672350
 20
240.23555732
 30
0.0
 40
2.50000000
  1
Materiaal: S350
  7
Arial
 41
1.000
 50
0.0
 51
0.0
 72
     0
 11
164.91672350
 21
241.48555732
 31
0.0
100
AcDbText
 73
     2
  0
TEXT
  5
1BC
100
AcDbEntity
  8
TXT_ALL
100
AcDbText
 10
337.67837072
 20
-43.76395253
 30
0.0
 40
1.50000000
  1
Onderdeel van
  7
Arial
 41
1.000
 50
0.0
 51
0.0
 72
     0
 11
337.67837072
 21
-43.01395253
 31
0.0
100
AcDbText
 73
     2
  0
ELLIPSE
  5
1BD
100
AcDbEntity
  8
0
100
AcDbEllipse
 10
269.84702790
 20
156.22292812
 30
0.0
 11
-0.25000000
 21
-1.98431348
 31
0.0
 40
0.33333333
 41
6.28318531
 42
3.14159265
  0
ELLIPSE
  5
1BE
100
AcDbEntity
  8
0
100
AcDbEllipse
 10
269.84702790
 20
156.22292812
 30
0.0
 11
-0.25000000
 21
-1.98431348
 31
0.0
 40
0.33333333
 41
3.14159265
 42
6.28318531
  0
ELLIPSE
  5
1BF
100
AcDbEntity
  8
0
100
AcDbEllipse
 10
276.56454232
 20
181.00339982
 30
0.0
 11
-0.25000000
 21
-1.98431348
 31
0.0
 40
0.33333333
 41
6.28318531
 42
3.14159265
  0
ELLIPSE
  5
1C0
100
AcDbEntity
  8
0
100
AcDbEllipse
 10
276.56454232
 20
181.00339982
 30
0.0
 11
-0.25000000
 21
-1.98431348
 31
0.0
 40
0.33333333
 41
3.14159265
 42
6.28318531
  0
ELLIPSE
  5
1C1
100
AcDbEntity
  8
0
100
AcDbEllipse
 10
270.43628355
 20
175.59878359
 30
0.0
 11
-0.16666667
 21
-1.32287566
 31
0.0
 40
0.33333333
 41
0.0
 42
3.14159265
  0
ELLIPSE
  5
1C2
100
AcDbEntity
  8
0
100
AcDbEllipse
 10
270.43628355
 20
175.59878359
 30
0.0
 11
-0.16666667
 21
-1.32287566
 31
0.0
 40
0.33333333
 41
3.14159265
 42
0.0
  0
ELLIPSE
  5
1C3
100
AcDbEntity
  8
0
100
AcDbEllipse
 10
275.38603102
 20
195.67753457
 30
0.0
 11
-0.16666667
 21
-1.32287566
 31
0.0
 40
0.33333333
 41
0.0
 42
3.14159265
  0
ELLIPSE
  5
1C4
100
AcDbEntity
  8
0
100
AcDbEllipse
 10
275.38603102
 20
195.67753457
 30
0.0
 11
-0.16666667
 21
-1.32287566
 31
0.0
 40
0.33333333
 41
3.14159265
 42
0.0
  0
ELLIPSE
  5
1C5
100
AcDbEntity
  8
0
100
AcDbEllipse
 10
271.61479486
 20
192.35161689
 30
0.0
 11
-0.16666667
 21
-1.32287566
 31
0.0
 40
0.33333333
 41
0.0
 42
3.14159265
  0
ELLIPSE
  5
1C6
100
AcDbEntity
  8
0
100
AcDbEllipse
 10
271.61479486
 20
192.35161689
 30
0.0
 11
-0.16666667
 21
-1.32287566
 31
0.0
 40
0.33333333
 41
3.14159265
 42
0.0
  0
ELLIPSE
  5
1C7
100
AcDbEntity
  8
0
100
AcDbEllipse
 10
273.50041294
 20
203.44266615
 30
0.0
 11
-0.45833333
 21
-3.63790805
 31
0.0
 40
0.33333333
 41
6.28318531
 42
3.14159265
  0
ELLIPSE
  5
1C8
100
AcDbEntity
  8
0
100
AcDbEllipse
 10
273.50041294
 20
203.44266615
 30
0.0
 11
-0.45833333
 21
-3.63790805
 31
0.0
 40
0.33333333
 41
3.14159265
 42
0.00000000
  0
ELLIPSE
  5
1C9
100
AcDbEntity
  8
0
100
AcDbEllipse
 10
271.94138903
 20
203.63908470
 30
0.0
 11
-0.45833333
 21
-3.63790805
 31
0.0
 40
0.33333333
 41
0.69817966
 42
2.44341300
  0
ELLIPSE
  5
1CA
100
AcDbEntity
  8
0
100
AcDbEllipse
 10
270.43628355
 20
207.02575165
 30
0.0
 11
-0.25000000
 21
-1.98431348
 31
0.0
 40
0.33333333
 41
6.28318531
 42
3.14159265
  0
ELLIPSE
  5
1CB
100
AcDbEntity
  8
0
100
AcDbEllipse
 10
270.43628355
 20
207.02575165
 30
0.0
 11
-0.25000000
 21
-1.98431348
 31
0.0
 40
0.33333333
 41
3.14159265
 42
0.0
  0
ELLIPSE
  5
1CC
100
AcDbEntity
  8
0
100
AcDbEllipse
 10
276.56454232
 20
212.43036787
 30
0.0
 11
-0.16666667
 21
-1.32287566
 31
0.0
 40
0.33333333
 41
6.28318531
 42
3.14159265
  0
ELLIPSE
  5
1CD
100
AcDbEntity
  8
0
100
AcDbEllipse
 10
276.56454232
 20
212.43036787
 30
0.0
 11
-0.16666667
 21
-1.32287566
 31
0.0
 40
0.33333333
 41
3.14159265
 42
0.0
  0
ELLIPSE
  5
1CE
100
AcDbEntity
  8
0
100
AcDbEllipse
 10
297.42139674
 20
139.68559515
 30
0.0
 11
2.00000000
 21
0.00000000
 31
0.0
 40
0.33333333
 41
0.05667430
 42
1.75729192
  0
ELLIPSE
  5
1CF
100
AcDbEntity
  8
0
100
AcDbEllipse
 10
290.11462667
 20
133.24162965
 30
0.0
 11
1.33333333
 21
0.0
 31
0.0
 40
0.33333333
 41
0.0
 42
3.14159265
  0
ELLIPSE
  5
1D0
100
AcDbEntity
  8
0
100
AcDbEllipse
 10
290.11462667
 20
133.24162965
 30
0.0
 11
1.33333333
 21
-0.0
 31
0.0
 40
0.33333333
 41
3.14159265
 42
0.0
  0
ELLIPSE
  5
1D1
100
AcDbEntity
  8
0
100
AcDbEllipse
 10
309.41216926
 20
131.40428169
 30
0.0
 11
2.00000000
 21
0.0
 31
0.0
 40
0.33333333
 41
0.0
 42
3.14159265
  0
ELLIPSE
  5
1D2
100
AcDbEntity
  8
0
100
AcDbEllipse
 10
309.41216926
 20
131.40428169
 30
0.0
 11
2.00000000
 21
-0.0
 31
0.0
 40
0.33333333
 41
3.14159265
 42
0.0
  0
ELLIPSE
  5
1D3
100
AcDbEntity
  8
0
100
AcDbEllipse
 10
315.54042803
 20
136.80889791
 30
0.0
 11
1.33333333
 21
0.0
 31
0.0
 40
0.33333333
 41
0.0
 42
3.14159265
  0
ELLIPSE
  5
1D4
100
AcDbEntity
  8
0
100
AcDbEllipse
 10
315.54042803
 20
136.80889791
 30
0.0
 11
1.33333333
 21
-0.0
 31
0.0
 40
0.33333333
 41
3.14159265
 42
0.0
  0
ELLIPSE
  5
1D5
100
AcDbEntity
  8
0
100
AcDbEllipse
 10
329.95215584
 20
133.80536313
 30
0.0
 11
1.33333333
 21
0.0
 31
0.0
 40
0.33333333
 41
0.0
 42
3.14159265
  0
ELLIPSE
  5
1D6
100
AcDbEntity
  8
0
100
AcDbEllipse
 10
329.95215584
 20
133.80536313
 30
0.0
 11
1.33333333
 21
-0.0
 31
0.0
 40
0.33333333
 41
3.14159265
 42
0.0
  0
ELLIPSE
  5
1D7
100
AcDbEntity
  8
0
100
AcDbEllipse
 10
326.18091967
 20
130.47944546
 30
0.0
 11
1.33333333
 21
0.0
 31
0.0
 40
0.33333333
 41
0.0
 42
3.14159265
  0
ELLIPSE
  5
1D8
100
AcDbEntity
  8
0
100
AcDbEllipse
 10
326.18091967
 20
130.47944546
 30
0.0
 11
1.33333333
 21
-0.0
 31
0.0
 40
0.33333333
 41
3.14159265
 42
0.0
  0
ELLIPSE
  5
1D9
100
AcDbEntity
  8
0
100
AcDbEllipse
 10
334.92624296
 20
131.27816267
 30
0.0
 11
3.33333333
 21
-0.00000000
 31
0.0
 40
0.33333333
 41
3.14159265
 42
4.35102186
  0
ELLIPSE
  5
1DA
100
AcDbEntity
  8
0
100
AcDbEllipse
 10
334.92624296
 20
131.27816267
 30
0.0
 11
3.33333333
 21
-0.0
 31
0.0
 40
0.33333333
 41
1.20942920
 42
3.14159265
  0
POLYLINE
  5
1DB
100
AcDbEntity
  8
0
100
AcDb2dPolyline
 66
     1
  0
VERTEX
  5
1DC
100
AcDbEntity
  8
0
100
AcDbVertex
100
AcDb2dVertex
 10
336.10475426
 20
132.31751195
 30
0.0
  0
VERTEX
  5
1DD
100
AcDbEntity
  8
0
100
AcDbVertex
100
AcDb2dVertex
 10
342.34084991
 20
131.53183775
 30
0.0
  0
SEQEND
  5
1DE
100
AcDbEntity
  8
0
  0
ELLIPSE
  5
1DF
100
AcDbEntity
  8
0
100
AcDbEllipse
 10
341.16233861
 20
130.49248847
 30
0.0
 11
3.33333333
 21
0.00000000
 31
0.0
 40
0.33333333
 41
0.0
 42
1.20942920
  0
ELLIPSE
  5
1E0
100
AcDbEntity
  8
0
100
AcDbEllipse
 10
341.16233861
 20
130.49248847
 30
0.0
 11
3.33333333
 21
-0.0
 31
0.0
 40
0.33333333
 41
4.35102186
 42
0.0
  0
LINE
  5
1E1
100
AcDbEntity
  8
0
100
AcDbLine
 10
339.98382730
 20
129.45313920
 30
0.0
 11
333.74773166
 21
130.23881340
 31
0.0
  0
ELLIPSE
  5
1E2
100
AcDbEntity
  8
0
100
AcDbEllipse
 10
341.16233861
 20
128.92114007
 30
0.0
 11
3.33333333
 21
-0.0
 31
0.0
 40
0.33333333
 41
0.78539816
 42
1.20942920
  0
POLYLINE
  5
1E3
100
AcDbEntity
  8
0
100
AcDb2dPolyline
 66
     1
  0
VERTEX
  5
1E4
100
AcDbEntity
  8
0
100
AcDbVertex
100
AcDb2dVertex
 10
342.34084991
 20
129.96048934
 30
0.0
  0
VERTEX
  5
1E5
100
AcDbEntity
  8
0
100
AcDbVertex
100
AcDb2dVertex
 10
336.10475426
 20
130.74616355
 30
0.0
  0
VERTEX
  5
1E6
100
AcDbEntity
  8
0
100
AcDbVertex
100
AcDb2dVertex
 10
336.10475426
 20
132.31751195
 30
0.0
  0
SEQEND
  5
1E7
100
AcDbEntity
  8
0
  0
ELLIPSE
  5
1E8
100
AcDbEntity
  8
0
100
AcDbEllipse
 10
334.92624296
 20
129.70681427
 30
0.0
 11
3.33333333
 21
-0.00000000
 31
0.0
 40
0.33333333
 41
1.20942920
 42
2.35619449
  0
LINE
  5
1E9
100
AcDbEntity
  8
0
100
AcDbLine
 10
342.34084991
 20
129.96048934
 30
0.0
 11
342.34084991
 21
131.53183775
 31
0.0
  0
ELLIPSE
  5
1EA
100
AcDbEntity
  8
0
100
AcDbEllipse
 10
346.72090625
 20
132.88052690
 30
0.0
 11
2.00000000
 21
0.0
 31
0.0
 40
0.33333333
 41
0.0
 42
3.14159265
  0
ELLIPSE
  5
1EB
100
AcDbEntity
  8
0
100
AcDbEllipse
 10
346.72090625
 20
132.88052690
 30
0.0
 11
2.00000000
 21
-0.0
 31
0.0
 40
0.33333333
 41
3.14159265
 42
0.0
  0
ELLIPSE
  5
1EC
100
AcDbEntity
  8
0
100
AcDbEllipse
 10
340.59264748
 20
127.47591068
 30
0.0
 11
1.33333333
 21
0.0
 31
0.0
 40
0.33333333
 41
0.0
 42
3.14159265
  0
ELLIPSE
  5
1ED
100
AcDbEntity
  8
0
100
AcDbEllipse
 10
340.59264748
 20
127.47591068
 30
0.0
 11
1.33333333
 21
-0.0
 31
0.0
 40
0.33333333
 41
3.14159265
 42
0.0
  0
LINE
  5
1EE
100
AcDbEntity
  8
0
100
AcDbLine
 10
341.97728226
 20
124.92580761
 30
0.0
 11
308.04579965
 21
129.20077259
 31
0.0
  0
LINE
  5
1EF
100
AcDbEntity
  8
0
100
AcDbLine
 10
308.04579965
 20
127.62942419
 30
0.0
 11
308.04579965
 21
129.20077259
 31
0.0
  0
LINE
  5
1F0
100
AcDbEntity
  8
0
100
AcDbLine
 10
341.97728226
 20
123.35445921
 30
0.0
 11
308.04579965
 21
127.62942419
 31
0.0
  0
POLYLINE
  5
1F1
100
AcDbEntity
  8
0
100
AcDb2dPolyline
 66
     1
  0
VERTEX
  5
1F2
100
AcDbEntity
  8
0
100
AcDbVertex
100
AcDb2dVertex
 10
341.97728226
 20
123.35445921
 30
0.0
  0
VERTEX
  5
1F3
100
AcDbEntity
  8
0
100
AcDbVertex
100
AcDb2dVertex
 10
341.97728226
 20
124.92580761
 30
0.0
  0
VERTEX
  5
1F4
100
AcDbEntity
  8
0
100
AcDbVertex
100
AcDb2dVertex
 10
345.41452956
 20
125.44301735
 30
0.0
  0
SEQEND
  5
1F5
100
AcDbEntity
  8
0
  0
LINE
  5
1F6
100
AcDbEntity
  8
0
100
AcDbLine
 10
354.37121546
 20
133.34207183
 30
0.0
 11
345.41452956
 21
125.44301735
 31
0.0
  0
LINE
  5
1F7
100
AcDbEntity
  8
0
100
AcDbLine
 10
354.37121546
 20
133.34207183
 30
0.0
 11
352.81958624
 21
134.48782093
 31
0.0
  0
LINE
  5
1F8
100
AcDbEntity
  8
0
100
AcDbLine
 10
318.88810363
 20
138.76278591
 30
0.0
 11
352.81958624
 21
134.48782093
 31
0.0
  0
POLYLINE
  5
1F9
100
AcDbEntity
  8
0
100
AcDb2dPolyline
 66
     1
  0
VERTEX
  5
1FA
100
AcDbEntity
  8
0
100
AcDbVertex
100
AcDb2dVertex
 10
318.88810363
 20
138.76278591
 30
0.0
  0
VERTEX
  5
1FB
100
AcDbEntity
  8
0
100
AcDbVertex
100
AcDb2dVertex
 10
317.64444841
 20
138.87338290
 30
0.0
  0
VERTEX
  5
1FC
100
AcDbEntity
  8
0
100
AcDbVertex
100
AcDb2dVertex
 10
316.50405029
 20
138.97465312
 30
0.0
  0
VERTEX
  5
1FD
100
AcDbEntity
  8
0
100
AcDbVertex
100
AcDb2dVertex
 10
315.47887666
 20
139.06543728
 30
0.0
  0
VERTEX
  5
1FE
100
AcDbEntity
  8
0
100
AcDbVertex
100
AcDb2dVertex
 10
313.90282364
 20
139.20409292
 30
0.0
  0
VERTEX
  5
1FF
100
AcDbEntity
  8
0
100
AcDbVertex
100
AcDb2dVertex
 10
312.88876321
 20
139.29215951
 30
0.0
  0
VERTEX
  5
200
100
AcDbEntity
  8
0
100
AcDbVertex
100
AcDb2dVertex
 10
311.62231149
 20
139.39851518
 30
0.0
  0
VERTEX
  5
201
100
AcDbEntity
  8
0
100
AcDbVertex
100
AcDb2dVertex
 10
306.47404109
 20
139.77054548
 30
0.0
  0
VERTEX
  5
202
100
AcDbEntity
  8
0
100
AcDbVertex
100
AcDb2dVertex
 10
296.38013561
 20
140.51551227
 30
0.0
  0
SEQEND
  5
203
100
AcDbEntity
  8
0
  0
LINE
  5
204
100
AcDbEntity
  8
0
100
AcDbLine
 10
318.24551708
 20
134.36047108
 30
0.0
 11
318.18986540
 21
134.36939519
 31
0.0
  0
POLYLINE
  5
205
100
AcDbEntity
  8
0
100
AcDb2dPolyline
 66
     1
  0
VERTEX
  5
206
100
AcDbEntity
  8
0
100
AcDbVertex
100
AcDb2dVertex
 10
316.29943268
 20
132.64418596
 30
0.0
  0
VERTEX
  5
207
100
AcDbEntity
  8
0
100
AcDbVertex
100
AcDb2dVertex
 10
316.86928515
 20
132.62369857
 30
0.0
  0
VERTEX
  5
208
100
AcDbEntity
  8
0
100
AcDbVertex
100
AcDb2dVertex
 10
317.45252866
 20
132.66644628
 30
0.0
  0
VERTEX
  5
209
100
AcDbEntity
  8
0
100
AcDbVertex
100
AcDb2dVertex
 10
317.98097939
 20
132.76689650
 30
0.0
  0
VERTEX
  5
20A
100
AcDbEntity
  8
0
100
AcDbVertex
100
AcDb2dVertex
 10
318.20456415
 20
132.83251818
 30
0.0
  0
VERTEX
  5
20B
100
AcDbEntity
  8
0
100
AcDbVertex
100
AcDb2dVertex
 10
318.28207283
 20
132.85945233
 30
0.0
  0
VERTEX
  5
20C
100
AcDbEntity
  8
0
100
AcDbVertex
100
AcDb2dVertex
 10
318.35713132
 20
132.88794473
 30
0.0
  0
VERTEX
  5
20D
100
AcDbEntity
  8
0
100
AcDbVertex
100
AcDb2dVertex
 10
318.42969939
 20
132.91800730
 30
0.0
  0
VERTEX
  5
20E
100
AcDbEntity
  8
0
100
AcDbVertex
100
AcDb2dVertex
 10
318.49978464
 20
132.94967131
 30
0.0
  0
VERTEX
  5
20F
100
AcDbEntity
  8
0
100
AcDbVertex
100
AcDb2dVertex
 10
318.56745854
 20
132.98299770
 30
0.0
  0
VERTEX
  5
210
100
AcDbEntity
  8
0
100
AcDbVertex
100
AcDb2dVertex
 10
318.63287721
 20
133.01809211
 30
0.0
  0
VERTEX
  5
211
100
AcDbEntity
  8
0
100
AcDbVertex
100
AcDb2dVertex
 10
318.69630607
 20
133.05512604
 30
0.0
  0
VERTEX
  5
212
100
AcDbEntity
  8
0
100
AcDbVertex
100
AcDb2dVertex
 10
318.75814546
 20
133.09436453
 30
0.0
  0
VERTEX
  5
213
100
AcDbEntity
  8
0
100
AcDbVertex
100
AcDb2dVertex
 10
318.81895475
 20
133.13620010
 30
0.0
  0
VERTEX
  5
214
100
AcDbEntity
  8
0
100
AcDbVertex
100
AcDb2dVertex
 10
318.87947490
 20
133.18119386
 30
0.0
  0
VERTEX
  5
215
100
AcDbEntity
  8
0
100
AcDbVertex
100
AcDb2dVertex
 10
318.94029503
 20
133.22982522
 30
0.0
  0
VERTEX
  5
216
100
AcDbEntity
  8
0
100
AcDbVertex
100
AcDb2dVertex
 10
318.99862943
 20
133.27957771
 30
0.0
  0
VERTEX
  5
217
100
AcDbEntity
  8
0
100
AcDbVertex
100
AcDb2dVertex
 10
319.05644321
 20
133.33182750
 30
0.0
  0
VERTEX
  5
218
100
AcDbEntity
  8
0
100
AcDbVertex
100
AcDb2dVertex
 10
319.11742354
 20
133.39139951
 30
0.0
  0
VERTEX
  5
219
100
AcDbEntity
  8
0
100
AcDbVertex
100
AcDb2dVertex
 10
319.17180198
 20
133.45087051
 30
0.0
  0
VERTEX
  5
21A
100
AcDbEntity
  8
0
100
AcDbVertex
100
AcDb2dVertex
 10
319.21558020
 20
133.50640996
 30
0.0
  0
VERTEX
  5
21B
100
AcDbEntity
  8
0
100
AcDbVertex
100
AcDb2dVertex
 10
319.24866971
 20
133.55690402
 30
0.0
  0
VERTEX
  5
21C
100
AcDbEntity
  8
0
100
AcDbVertex
100
AcDb2dVertex
 10
319.28826271
 20
133.64216876
 30
0.0
  0
VERTEX
  5
21D
100
AcDbEntity
  8
0
100
AcDbVertex
100
AcDb2dVertex
 10
319.30555607
 20
133.73190107
 30
0.0
  0
VERTEX
  5
21E
100
AcDbEntity
  8
0
100
AcDbVertex
100
AcDb2dVertex
 10
319.27354691
 20
133.87836193
 30
0.0
  0
VERTEX
  5
21F
100
AcDbEntity
  8
0
100
AcDbVertex
100
AcDb2dVertex
 10
319.16245470
 20
134.01724144
 30
0.0
  0
VERTEX
  5
220
100
AcDbEntity
  8
0
100
AcDbVertex
100
AcDb2dVertex
 10
318.95017920
 20
134.15492548
 30
0.0
  0
VERTEX
  5
221
100
AcDbEntity
  8
0
100
AcDbVertex
100
AcDb2dVertex
 10
318.90447546
 20
134.17656503
 30
0.0
  0
VERTEX
  5
222
100
AcDbEntity
  8
0
100
AcDbVertex
100
AcDb2dVertex
 10
318.84297275
 20
134.20293026
 30
0.0
  0
VERTEX
  5
223
100
AcDbEntity
  8
0
100
AcDbVertex
100
AcDb2dVertex
 10
318.77789408
 20
134.22794014
 30
0.0
  0
VERTEX
  5
224
100
AcDbEntity
  8
0
100
AcDbVertex
100
AcDb2dVertex
 10
318.70942960
 20
134.25154900
 30
0.0
  0
VERTEX
  5
225
100
AcDbEntity
  8
0
100
AcDbVertex
100
AcDb2dVertex
 10
318.63777716
 20
134.27371281
 30
0.0
  0
VERTEX
  5
226
100
AcDbEntity
  8
0
100
AcDbVertex
100
AcDb2dVertex
 10
318.56314503
 20
134.29438892
 30
0.0
  0
VERTEX
  5
227
100
AcDbEntity
  8
0
100
AcDbVertex
100
AcDb2dVertex
 10
318.48574639
 20
134.31353828
 30
0.0
  0
VERTEX
  5
228
100
AcDbEntity
  8
0
100
AcDbVertex
100
AcDb2dVertex
 10
318.40579588
 20
134.33112595
 30
0.0
  0
VERTEX
  5
229
100
AcDbEntity
  8
0
100
AcDbVertex
100
AcDb2dVertex
 10
318.32351262
 20
134.34712010
 30
0.0
  0
VERTEX
  5
22A
100
AcDbEntity
  8
0
100
AcDbVertex
100
AcDb2dVertex
 10
318.24551708
 20
134.36047108
 30
0.0
  0
SEQEND
  5
22B
100
AcDbEntity
  8
0
  0
POLYLINE
  5
22C
100
AcDbEntity
  8
0
100
AcDb2dPolyline
 66
     1
  0
VERTEX
  5
22D
100
AcDbEntity
  8
0
100
AcDbVertex
100
AcDb2dVertex
 10
276.35017360
 20
137.13056697
 30
0.0
  0
VERTEX
  5
22E
100
AcDbEntity
  8
0
100
AcDbVertex
100
AcDb2dVertex
 10
276.41933804
 20
137.12244254
 30
0.0
  0
VERTEX
  5
22F
100
AcDbEntity
  8
0
100
AcDbVertex
100
AcDb2dVertex
 10
277.29961873
 20
137.01904630
 30
0.0
  0
VERTEX
  5
230
100
AcDbEntity
  8
0
100
AcDbVertex
100
AcDb2dVertex
 10
278.17991501
 20
136.91566482
 30
0.0
  0
VERTEX
  5
231
100
AcDbEntity
  8
0
100
AcDbVertex
100
AcDb2dVertex
 10
279.06023340
 20
136.81230427
 30
0.0
  0
VERTEX
  5
232
100
AcDbEntity
  8
0
100
AcDbVertex
100
AcDb2dVertex
 10
279.94058047
 20
136.70897086
 30
0.0
  0
VERTEX
  5
233
100
AcDbEntity
  8
0
100
AcDbVertex
100
AcDb2dVertex
 10
280.82096288
 20
136.60567091
 30
0.0
  0
VERTEX
  5
234
100
AcDbEntity
  8
0
100
AcDbVertex
100
AcDb2dVertex
 10
281.70138739
 20
136.50241084
 30
0.0
  0
VERTEX
  5
235
100
AcDbEntity
  8
0
100
AcDbVertex
100
AcDb2dVertex
 10
282.58186090
 20
136.39919720
 30
0.0
  0
VERTEX
  5
236
100
AcDbEntity
  8
0
100
AcDbVertex
100
AcDb2dVertex
 10
283.46239048
 20
136.29603672
 30
0.0
  0
VERTEX
  5
237
100
AcDbEntity
  8
0
100
AcDbVertex
100
AcDb2dVertex
 10
284.34298339
 20
136.19293634
 30
0.0
  0
VERTEX
  5
238
100
AcDbEntity
  8
0
100
AcDbVertex
100
AcDb2dVertex
 10
285.22364714
 20
136.08990320
 30
0.0
  0
VERTEX
  5
239
100
AcDbEntity
  8
0
100
AcDbVertex
100
AcDb2dVertex
 10
286.10438948
 20
135.98694474
 30
0.0
  0
VERTEX
  5
23A
100
AcDbEntity
  8
0
100
AcDbVertex
100
AcDb2dVertex
 10
286.98521849
 20
135.88406870
 30
0.0
  0
VERTEX
  5
23B
100
AcDbEntity
  8
0
100
AcDbVertex
100
AcDb2dVertex
 10
287.86614258
 20
135.78128315
 30
0.0
  0
VERTEX
  5
23C
100
AcDbEntity
  8
0
100
AcDbVertex
100
AcDb2dVertex
 10
288.74717054
 20
135.67859658
 30
0.0
  0
VERTEX
  5
23D
100
AcDbEntity
  8
0
100
AcDbVertex
100
AcDb2dVertex
 10
289.62831161
 20
135.57601791
 30
0.0
  0
VERTEX
  5
23E
100
AcDbEntity
  8
0
100
AcDbVertex
100
AcDb2dVertex
 10
290.50957555
 20
135.47355658
 30
0.0
  0
VERTEX
  5
23F
100
AcDbEntity
  8
0
100
AcDbVertex
100
AcDb2dVertex
 10
291.39097263
 20
135.37122258
 30
0.0
  0
VERTEX
  5
240
100
AcDbEntity
  8
0
100
AcDbVertex
100
AcDb2dVertex
 10
292.27251377
 20
135.26902656
 30
0.0
  0
VERTEX
  5
241
100
AcDbEntity
  8
0
100
AcDbVertex
100
AcDb2dVertex
 10
293.15421059
 20
135.16697989
 30
0.0
  0
VERTEX
  5
242
100
AcDbEntity
  8
0
100
AcDbVertex
100
AcDb2dVertex
 10
294.03607549
 20
135.06509472
 30
0.0
  0
VERTEX
  5
243
100
AcDbEntity
  8
0
100
AcDbVertex
100
AcDb2dVertex
 10
294.91812177
 20
134.96338417
 30
0.0
  0
VERTEX
  5
244
100
AcDbEntity
  8
0
100
AcDbVertex
100
AcDb2dVertex
 10
295.80036372
 20
134.86186235
 30
0.0
  0
VERTEX
  5
245
100
AcDbEntity
  8
0
100
AcDbVertex
100
AcDb2dVertex
 10
296.68281675
 20
134.76054460
 30
0.0
  0
VERTEX
  5
246
100
AcDbEntity
  8
0
100
AcDbVertex
100
AcDb2dVertex
 10
297.56549754
 20
134.65944755
 30
0.0
  0
VERTEX
  5
247
100
AcDbEntity
  8
0
100
AcDbVertex
100
AcDb2dVertex
 10
298.44842425
 20
134.55858938
 30
0.0
  0
VERTEX
  5
248
100
AcDbEntity
  8
0
100
AcDbVertex
100
AcDb2dVertex
 10
299.33161662
 20
134.45799002
 30
0.0
  0
VERTEX
  5
249
100
AcDbEntity
  8
0
100
AcDbVertex
100
AcDb2dVertex
 10
300.21509630
 20
134.35767138
 30
0.0
  0
VERTEX
  5
24A
100
AcDbEntity
  8
0
100
AcDbVertex
100
AcDb2dVertex
 10
301.09888706
 20
134.25765767
 30
0.0
  0
VERTEX
  5
24B
100
AcDbEntity
  8
0
100
AcDbVertex
100
AcDb2dVertex
 10
301.98301510
 20
134.15797578
 30
0.0
  0
VERTEX
  5
24C
100
AcDbEntity
  8
0
100
AcDbVertex
100
AcDb2dVertex
 10
302.86750945
 20
134.05865565
 30
0.0
  0
VERTEX
  5
24D
100
AcDbEntity
  8
0
100
AcDbVertex
100
AcDb2dVertex
 10
303.75240238
 20
133.95973082
 30
0.0
  0
VERTEX
  5
24E
100
AcDbEntity
  8
0
100
AcDbVertex
100
AcDb2dVertex
 10
304.63772991
 20
133.86123905
 30
0.0
  0
VERTEX
  5
24F
100
AcDbEntity
  8
0
100
AcDbVertex
100
AcDb2dVertex
 10
305.52353243
 20
133.76322302
 30
0.0
  0
VERTEX
  5
250
100
AcDbEntity
  8
0
100
AcDbVertex
100
AcDb2dVertex
 10
306.40985543
 20
133.66573128
 30
0.0
  0
VERTEX
  5
251
100
AcDbEntity
  8
0
100
AcDbVertex
100
AcDb2dVertex
 10
307.29675042
 20
133.56881933
 30
0.0
  0
VERTEX
  5
252
100
AcDbEntity
  8
0
100
AcDbVertex
100
AcDb2dVertex
 10
308.18427592
 20
133.47255099
 30
0.0
  0
VERTEX
  5
253
100
AcDbEntity
  8
0
100
AcDbVertex
100
AcDb2dVertex
 10
309.07249883
 20
133.37700018
 30
0.0
  0
VERTEX
  5
254
100
AcDbEntity
  8
0
100
AcDbVertex
100
AcDb2dVertex
 10
309.96149594
 20
133.28225296
 30
0.0
  0
VERTEX
  5
255
100
AcDbEntity
  8
0
100
AcDbVertex
100
AcDb2dVertex
 10
310.85135594
 20
133.18841036
 30
0.0
  0
VERTEX
  5
256
100
AcDbEntity
  8
0
100
AcDbVertex
100
AcDb2dVertex
 10
311.74218172
 20
133.09559185
 30
0.0
  0
VERTEX
  5
257
100
AcDbEntity
  8
0
100
AcDbVertex
100
AcDb2dVertex
 10
312.63409327
 20
133.00393975
 30
0.0
  0
VERTEX
  5
258
100
AcDbEntity
  8
0
100
AcDbVertex
100
AcDb2dVertex
 10
313.52721489
 20
132.91360712
 30
0.0
  0
VERTEX
  5
259
100
AcDbEntity
  8
0
100
AcDbVertex
100
AcDb2dVertex
 10
314.42165846
 20
132.82474038
 30
0.0
  0
VERTEX
  5
25A
100
AcDbEntity
  8
0
100
AcDbVertex
100
AcDb2dVertex
 10
315.31754753
 20
132.73750741
 30
0.0
  0
VERTEX
  5
25B
100
AcDbEntity
  8
0
100
AcDbVertex
100
AcDb2dVertex
 10
316.29943268
 20
132.64418596
 30
0.0
  0
SEQEND
  5
25C
100
AcDbEntity
  8
0
  0
LINE
  5
25D
100
AcDbEntity
  8
0
100
AcDbLine
 10
276.35017360
 20
137.13056697
 30
0.0
 11
273.91088136
 21
134.97931342
 31
0.0
  0
POLYLINE
  5
25E
100
AcDbEntity
  8
0
100
AcDb2dPolyline
 66
     1
  0
VERTEX
  5
25F
100
AcDbEntity
  8
0
100
AcDbVertex
100
AcDb2dVertex
 10
308.04579965
 20
129.20077259
 30
0.0
  0
VERTEX
  5
260
100
AcDbEntity
  8
0
100
AcDbVertex
100
AcDb2dVertex
 10
306.31560118
 20
129.48802253
 30
0.0
  0
VERTEX
  5
261
100
AcDbEntity
  8
0
100
AcDbVertex
100
AcDb2dVertex
 10
304.87441128
 20
129.72776622
 30
0.0
  0
VERTEX
  5
262
100
AcDbEntity
  8
0
100
AcDbVertex
100
AcDb2dVertex
 10
303.72020397
 20
129.92050344
 30
0.0
  0
VERTEX
  5
263
100
AcDbEntity
  8
0
100
AcDbVertex
100
AcDb2dVertex
 10
302.82633182
 20
130.07063869
 30
0.0
  0
VERTEX
  5
264
100
AcDbEntity
  8
0
100
AcDbVertex
100
AcDb2dVertex
 10
301.60067059
 20
130.27951471
 30
0.0
  0
VERTEX
  5
265
100
AcDbEntity
  8
0
100
AcDbVertex
100
AcDb2dVertex
 10
296.92329976
 20
131.14676632
 30
0.0
  0
VERTEX
  5
266
100
AcDbEntity
  8
0
100
AcDbVertex
100
AcDb2dVertex
 10
293.84936043
 20
131.72126736
 30
0.0
  0
VERTEX
  5
267
100
AcDbEntity
  8
0
100
AcDbVertex
100
AcDb2dVertex
 10
291.06703621
 20
132.23528238
 30
0.0
  0
VERTEX
  5
268
100
AcDbEntity
  8
0
100
AcDbVertex
100
AcDb2dVertex
 10
288.84488777
 20
132.64022115
 30
0.0
  0
VERTEX
  5
269
100
AcDbEntity
  8
0
100
AcDbVertex
100
AcDb2dVertex
 10
285.49310810
 20
133.23788420
 30
0.0
  0
VERTEX
  5
26A
100
AcDbEntity
  8
0
100
AcDbVertex
100
AcDb2dVertex
 10
282.36831599
 20
133.77255421
 30
0.0
  0
VERTEX
  5
26B
100
AcDbEntity
  8
0
100
AcDbVertex
100
AcDb2dVertex
 10
278.74708348
 20
134.34115153
 30
0.0
  0
VERTEX
  5
26C
100
AcDbEntity
  8
0
100
AcDbVertex
100
AcDb2dVertex
 10
275.66577300
 20
134.76419274
 30
0.0
  0
VERTEX
  5
26D
100
AcDbEntity
  8
0
100
AcDbVertex
100
AcDb2dVertex
 10
273.91088136
 20
134.97931342
 30
0.0
  0
SEQEND
  5
26E
100
AcDbEntity
  8
0
  0
ELLIPSE
  5
26F
100
AcDbEntity
  8
0
100
AcDbEllipse
 10
273.91083167
 20
139.37904512
 30
0.0
 11
3.08653418
 21
-3.50011952
 31
0.0
 40
0.88191710
 41
3.92702497
 42
5.49783268
  0
LINE
  5
270
100
AcDbEntity
  8
0
100
AcDbLine
 10
271.98490665
 20
142.08031444
 30
0.0
 11
269.54561441
 21
139.92906089
 31
0.0
  0
POLYLINE
  5
271
100
AcDbEntity
  8
0
100
AcDb2dPolyline
 66
     1
  0
VERTEX
  5
272
100
AcDbEntity
  8
0
100
AcDbVertex
100
AcDb2dVertex
 10
271.98490665
 20
142.08031444
 30
0.0
  0
VERTEX
  5
273
100
AcDbEntity
  8
0
100
AcDbVertex
100
AcDb2dVertex
 10
272.01636130
 20
141.53285136
 30
0.0
  0
VERTEX
  5
274
100
AcDbEntity
  8
0
100
AcDbVertex
100
AcDb2dVertex
 10
272.11773146
 20
140.98433763
 30
0.0
  0
VERTEX
  5
275
100
AcDbEntity
  8
0
100
AcDbVertex
100
AcDb2dVertex
 10
272.19410187
 20
140.71390791
 30
0.0
  0
VERTEX
  5
276
100
AcDbEntity
  8
0
100
AcDbVertex
100
AcDb2dVertex
 10
272.39869744
 20
140.18160960
 30
0.0
  0
VERTEX
  5
277
100
AcDbEntity
  8
0
100
AcDbVertex
100
AcDb2dVertex
 10
272.52145236
 20
139.93168615
 30
0.0
  0
VERTEX
  5
278
100
AcDbEntity
  8
0
100
AcDbVertex
100
AcDb2dVertex
 10
272.82336071
 20
139.43432034
 30
0.0
  0
VERTEX
  5
279
100
AcDbEntity
  8
0
100
AcDbVertex
100
AcDb2dVertex
 10
272.98622912
 20
139.21229312
 30
0.0
  0
VERTEX
  5
27A
100
AcDbEntity
  8
0
100
AcDbVertex
100
AcDb2dVertex
 10
273.30322896
 20
138.84325401
 30
0.0
  0
VERTEX
  5
27B
100
AcDbEntity
  8
0
100
AcDbVertex
100
AcDb2dVertex
 10
273.70449193
 20
138.40935938
 30
0.0
  0
VERTEX
  5
27C
100
AcDbEntity
  8
0
100
AcDbVertex
100
AcDb2dVertex
 10
274.15128101
 20
138.02892936
 30
0.0
  0
VERTEX
  5
27D
100
AcDbEntity
  8
0
100
AcDbVertex
100
AcDb2dVertex
 10
274.60492577
 20
137.72613667
 30
0.0
  0
VERTEX
  5
27E
100
AcDbEntity
  8
0
100
AcDbVertex
100
AcDb2dVertex
 10
275.11504344
 20
137.46679432
 30
0.0
  0
VERTEX
  5
27F
100
AcDbEntity
  8
0
100
AcDbVertex
100
AcDb2dVertex
 10
275.64585118
 20
137.27496790
 30
0.0
  0
VERTEX
  5
280
100
AcDbEntity
  8
0
100
AcDbVertex
100
AcDb2dVertex
 10
276.18749908
 20
137.15324207
 30
0.0
  0
VERTEX
  5
281
100
AcDbEntity
  8
0
100
AcDbVertex
100
AcDb2dVertex
 10
276.35017360
 20
137.13056697
 30
0.0
  0
SEQEND
  5
282
100
AcDbEntity
  8
0
  0
POLYLINE
  5
283
100
AcDbEntity
  8
0
100
AcDb2dPolyline
 66
     1
  0
VERTEX
  5
284
100
AcDbEntity
  8
0
100
AcDbVertex
100
AcDb2dVertex
 10
276.78715105
 20
138.59186096
 30
0.0
  0
VERTEX
  5
285
100
AcDbEntity
  8
0
100
AcDbVertex
100
AcDb2dVertex
 10
276.71621928
 20
138.02531837
 30
0.0
  0
VERTEX
  5
286
100
AcDbEntity
  8
0
100
AcDbVertex
100
AcDb2dVertex
 10
276.63628064
 20
137.69829286
 30
0.0
  0
VERTEX
  5
287
100
AcDbEntity
  8
0
100
AcDbVertex
100
AcDb2dVertex
 10
276.49009252
 20
137.32721942
 30
0.0
  0
VERTEX
  5
288
100
AcDbEntity
  8
0
100
AcDbVertex
100
AcDb2dVertex
 10
276.35017360
 20
137.13056697
 30
0.0
  0
SEQEND
  5
289
100
AcDbEntity
  8
0
  0
POLYLINE
  5
28A
100
AcDbEntity
  8
0
100
AcDb2dPolyline
 66
     1
  0
VERTEX
  5
28B
100
AcDbEntity
  8
0
100
AcDbVertex
100
AcDb2dVertex
 10
274.53639339
 20
139.93074830
 30
0.0
  0
VERTEX
  5
28C
100
AcDbEntity
  8
0
100
AcDbVertex
100
AcDb2dVertex
 10
274.86130317
 20
139.55232063
 30
0.0
  0
VERTEX
  5
28D
100
AcDbEntity
  8
0
100
AcDbVertex
100
AcDb2dVertex
 10
275.23225148
 20
139.22719192
 30
0.0
  0
VERTEX
  5
28E
100
AcDbEntity
  8
0
100
AcDbVertex
100
AcDb2dVertex
 10
275.54221969
 20
139.01851502
 30
0.0
  0
VERTEX
  5
28F
100
AcDbEntity
  8
0
100
AcDbVertex
100
AcDb2dVertex
 10
275.97018484
 20
138.80456766
 30
0.0
  0
VERTEX
  5
290
100
AcDbEntity
  8
0
100
AcDbVertex
100
AcDb2dVertex
 10
276.41721052
 20
138.65876578
 30
0.0
  0
VERTEX
  5
291
100
AcDbEntity
  8
0
100
AcDbVertex
100
AcDb2dVertex
 10
276.78715105
 20
138.59186096
 30
0.0
  0
SEQEND
  5
292
100
AcDbEntity
  8
0
  0
POLYLINE
  5
293
100
AcDbEntity
  8
0
100
AcDb2dPolyline
 66
     1
  0
VERTEX
  5
294
100
AcDbEntity
  8
0
100
AcDbVertex
100
AcDb2dVertex
 10
274.53639339
 20
139.93074830
 30
0.0
  0
VERTEX
  5
295
100
AcDbEntity
  8
0
100
AcDbVertex
100
AcDb2dVertex
 10
280.03272864
 20
144.77800680
 30
0.0
  0
SEQEND
  5
296
100
AcDbEntity
  8
0
  0
LINE
  5
297
100
AcDbEntity
  8
0
100
AcDbLine
 62
    55
 10
280.03272864
 20
144.77800680
 30
0.0
 11
317.56502885
 21
134.99167037
 31
0.0
  0
POLYLINE
  5
298
100
AcDbEntity
  8
0
100
AcDb2dPolyline
 66
     1
  0
VERTEX
  5
299
100
AcDbEntity
  8
0
100
AcDbVertex
100
AcDb2dVertex
 10
316.60178376
 20
133.57323427
 30
0.0
  0
VERTEX
  5
29A
100
AcDbEntity
  8
0
100
AcDbVertex
100
AcDb2dVertex
 10
316.73190657
 20
133.94860650
 30
0.0
  0
VERTEX
  5
29B
100
AcDbEntity
  8
0
100
AcDbVertex
100
AcDb2dVertex
 10
316.85080291
 20
134.23310359
 30
0.0
  0
VERTEX
  5
29C
100
AcDbEntity
  8
0
100
AcDbVertex
100
AcDb2dVertex
 10
317.06737938
 20
134.61845787
 30
0.0
  0
VERTEX
  5
29D
100
AcDbEntity
  8
0
100
AcDbVertex
100
AcDb2dVertex
 10
317.25355490
 20
134.83530612
 30
0.0
  0
VERTEX
  5
29E
100
AcDbEntity
  8
0
100
AcDbVertex
100
AcDb2dVertex
 10
317.28967813
 20
134.86816090
 30
0.0
  0
VERTEX
  5
29F
100
AcDbEntity
  8
0
100
AcDbVertex
100
AcDb2dVertex
 10
317.34757860
 20
134.91562153
 30
0.0
  0
VERTEX
  5
2A0
100
AcDbEntity
  8
0
100
AcDbVertex
100
AcDb2dVertex
 10
317.39515473
 20
134.94858761
 30
0.0
  0
VERTEX
  5
2A1
100
AcDbEntity
  8
0
100
AcDbVertex
100
AcDb2dVertex
 10
317.43894448
 20
134.97268342
 30
0.0
  0
VERTEX
  5
2A2
100
AcDbEntity
  8
0
100
AcDbVertex
100
AcDb2dVertex
 10
317.50363113
 20
134.99378929
 30
0.0
  0
VERTEX
  5
2A3
100
AcDbEntity
  8
0
100
AcDbVertex
100
AcDb2dVertex
 10
317.56502885
 20
134.99167037
 30
0.0
  0
SEQEND
  5
2A4
100
AcDbEntity
  8
0
  0
POLYLINE
  5
2A5
100
AcDbEntity
  8
0
100
AcDb2dPolyline
 66
     1
  0
VERTEX
  5
2A6
100
AcDbEntity
  8
0
100
AcDbVertex
100
AcDb2dVertex
 10
316.60178376
 20
133.57323427
 30
0.0
  0
VERTEX
  5
2A7
100
AcDbEntity
  8
0
100
AcDbVertex
100
AcDb2dVertex
 10
316.83669397
 20
133.61924612
 30
0.0
  0
VERTEX
  5
2A8
100
AcDbEntity
  8
0
100
AcDbVertex
100
AcDb2dVertex
 10
317.09862941
 20
133.73676098
 30
0.0
  0
VERTEX
  5
2A9
100
AcDbEntity
  8
0
100
AcDbVertex
100
AcDb2dVertex
 10
317.35585554
 20
133.91978312
 30
0.0
  0
VERTEX
  5
2AA
100
AcDbEntity
  8
0
100
AcDbVertex
100
AcDb2dVertex
 10
317.54502753
 20
134.09711395
 30
0.0
  0
VERTEX
  5
2AB
100
AcDbEntity
  8
0
100
AcDbVertex
100
AcDb2dVertex
 10
317.58187273
 20
134.13439956
 30
0.0
  0
VERTEX
  5
2AC
100
AcDbEntity
  8
0
100
AcDbVertex
100
AcDb2dVertex
 10
317.66071201
 20
134.21404066
 30
0.0
  0
VERTEX
  5
2AD
100
AcDbEntity
  8
0
100
AcDbVertex
100
AcDb2dVertex
 10
317.70412694
 20
134.25669305
 30
0.0
  0
VERTEX
  5
2AE
100
AcDbEntity
  8
0
100
AcDbVertex
100
AcDb2dVertex
 10
317.75115114
 20
134.30125709
 30
0.0
  0
VERTEX
  5
2AF
100
AcDbEntity
  8
0
100
AcDbVertex
100
AcDb2dVertex
 10
317.79955611
 20
134.34513650
 30
0.0
  0
VERTEX
  5
2B0
100
AcDbEntity
  8
0
100
AcDbVertex
100
AcDb2dVertex
 10
317.84889713
 20
134.38775296
 30
0.0
  0
VERTEX
  5
2B1
100
AcDbEntity
  8
0
100
AcDbVertex
100
AcDb2dVertex
 10
317.89959404
 20
134.42887621
 30
0.0
  0
VERTEX
  5
2B2
100
AcDbEntity
  8
0
100
AcDbVertex
100
AcDb2dVertex
 10
317.97860203
 20
134.48634954
 30
0.0
  0
VERTEX
  5
2B3
100
AcDbEntity
  8
0
100
AcDbVertex
100
AcDb2dVertex
 10
318.07146999
 20
134.55866519
 30
0.0
  0
SEQEND
  5
2B4
100
AcDbEntity
  8
0
  0
POLYLINE
  5
2B5
100
AcDbEntity
  8
0
100
AcDb2dPolyline
 62
    55
 66
     1
  0
VERTEX
  5
2B6
100
AcDbEntity
  8
0
100
AcDbVertex
100
AcDb2dVertex
 10
318.07146999
 20
134.55866519
 30
0.0
  0
VERTEX
  5
2B7
100
AcDbEntity
  8
0
100
AcDbVertex
100
AcDb2dVertex
 10
318.20295424
 20
134.35362468
 30
0.0
  0
VERTEX
  5
2B8
100
AcDbEntity
  8
0
100
AcDbVertex
100
AcDb2dVertex
 10
318.33722363
 20
134.23023518
 30
0.0
  0
VERTEX
  5
2B9
100
AcDbEntity
  8
0
100
AcDbVertex
100
AcDb2dVertex
 10
318.35901225
 20
134.21688738
 30
0.0
  0
SEQEND
  5
2BA
100
AcDbEntity
  8
0
  0
LINE
  5
2BB
100
AcDbEntity
  8
0
100
AcDbLine
 10
318.21422371
 20
134.34064298
 30
0.0
 11
318.24551708
 21
134.36047108
 31
0.0
  0
POLYLINE
  5
2BC
100
AcDbEntity
  8
0
100
AcDb2dPolyline
 66
     1
  0
VERTEX
  5
2BD
100
AcDbEntity
  8
0
100
AcDbVertex
100
AcDb2dVertex
 10
278.92156493
 20
184.08058112
 30
0.0
  0
VERTEX
  5
2BE
100
AcDbEntity
  8
0
100
AcDbVertex
100
AcDb2dVertex
 10
278.86961861
 20
182.66314182
 30
0.0
  0
VERTEX
  5
2BF
100
AcDbEntity
  8
0
100
AcDbVertex
100
AcDb2dVertex
 10
278.82067703
 20
181.33414430
 30
0.0
  0
VERTEX
  5
2C0
100
AcDbEntity
  8
0
100
AcDbVertex
100
AcDb2dVertex
 10
278.78383231
 20
180.34177692
 30
0.0
  0
VERTEX
  5
2C1
100
AcDbEntity
  8
0
100
AcDbVertex
100
AcDb2dVertex
 10
278.74709383
 20
179.36226354
 30
0.0
  0
VERTEX
  5
2C2
100
AcDbEntity
  8
0
100
AcDbVertex
100
AcDb2dVertex
 10
278.70483393
 20
178.26391852
 30
0.0
  0
VERTEX
  5
2C3
100
AcDbEntity
  8
0
100
AcDbVertex
100
AcDb2dVertex
 10
278.64150049
 20
176.73554917
 30
0.0
  0
VERTEX
  5
2C4
100
AcDbEntity
  8
0
100
AcDbVertex
100
AcDb2dVertex
 10
278.45634339
 20
173.22619315
 30
0.0
  0
VERTEX
  5
2C5
100
AcDbEntity
  8
0
100
AcDbVertex
100
AcDb2dVertex
 10
277.84704945
 20
161.53004852
 30
0.0
  0
SEQEND
  5
2C6
100
AcDbEntity
  8
0
  0
LINE
  5
2C7
100
AcDbEntity
  8
0
100
AcDbLine
 10
278.92156493
 20
218.28030259
 30
0.0
 11
278.92156493
 21
184.08058112
 31
0.0
  0
POLYLINE
  5
2C8
100
AcDbEntity
  8
0
100
AcDb2dPolyline
 66
     1
  0
VERTEX
  5
2C9
100
AcDbEntity
  8
0
100
AcDbVertex
100
AcDb2dVertex
 10
278.92156493
 20
218.28030259
 30
0.0
  0
VERTEX
  5
2CA
100
AcDbEntity
  8
0
100
AcDbVertex
100
AcDb2dVertex
 10
277.97875589
 20
219.96298061
 30
0.0
  0
VERTEX
  5
2CB
100
AcDbEntity
  8
0
100
AcDbVertex
100
AcDb2dVertex
 10
269.02206999
 20
212.06392613
 30
0.0
  0
VERTEX
  5
2CC
100
AcDbEntity
  8
0
100
AcDbVertex
100
AcDb2dVertex
 10
268.07926095
 20
208.71828926
 30
0.0
  0
SEQEND
  5
2CD
100
AcDbEntity
  8
0
  0
LINE
  5
2CE
100
AcDbEntity
  8
0
100
AcDbLine
 10
268.07926095
 20
174.51856780
 30
0.0
 11
268.07926095
 21
208.71828926
 31
0.0
  0
POLYLINE
  5
2CF
100
AcDbEntity
  8
0
100
AcDb2dPolyline
 66
     1
  0
VERTEX
  5
2D0
100
AcDbEntity
  8
0
100
AcDbVertex
100
AcDb2dVertex
 10
269.54561441
 20
139.92906089
 30
0.0
  0
VERTEX
  5
2D1
100
AcDbEntity
  8
0
100
AcDbVertex
100
AcDb2dVertex
 10
269.55098041
 20
141.94573195
 30
0.0
  0
VERTEX
  5
2D2
100
AcDbEntity
  8
0
100
AcDbVertex
100
AcDb2dVertex
 10
269.50370407
 20
145.40011039
 30
0.0
  0
VERTEX
  5
2D3
100
AcDbEntity
  8
0
100
AcDbVertex
100
AcDb2dVertex
 10
269.38883827
 20
148.88796564
 30
0.0
  0
VERTEX
  5
2D4
100
AcDbEntity
  8
0
100
AcDbVertex
100
AcDb2dVertex
 10
269.31479774
 20
150.59349813
 30
0.0
  0
VERTEX
  5
2D5
100
AcDbEntity
  8
0
100
AcDbVertex
100
AcDb2dVertex
 10
269.03409132
 20
156.09742824
 30
0.0
  0
VERTEX
  5
2D6
100
AcDbEntity
  8
0
100
AcDbVertex
100
AcDb2dVertex
 10
268.59889264
 20
163.58479778
 30
0.0
  0
VERTEX
  5
2D7
100
AcDbEntity
  8
0
100
AcDbVertex
100
AcDb2dVertex
 10
268.51651145
 20
164.94646014
 30
0.0
  0
VERTEX
  5
2D8
100
AcDbEntity
  8
0
100
AcDbVertex
100
AcDb2dVertex
 10
268.44384641
 20
166.15226493
 30
0.0
  0
VERTEX
  5
2D9
100
AcDbEntity
  8
0
100
AcDbVertex
100
AcDb2dVertex
 10
268.36840977
 20
167.48734894
 30
0.0
  0
VERTEX
  5
2DA
100
AcDbEntity
  8
0
100
AcDbVertex
100
AcDb2dVertex
 10
268.24163470
 20
170.40740527
 30
0.0
  0
VERTEX
  5
2DB
100
AcDbEntity
  8
0
100
AcDbVertex
100
AcDb2dVertex
 10
268.07926095
 20
174.51856780
 30
0.0
  0
SEQEND
  5
2DC
100
AcDbEntity
  8
0
  0
POLYLINE
  5
2DD
100
AcDbEntity
  8
0
100
AcDb2dPolyline
 66
     1
  0
VERTEX
  5
2DE
100
AcDbEntity
  8
0
100
AcDbVertex
100
AcDb2dVertex
 10
269.54561441
 20
139.92906089
 30
0.0
  0
VERTEX
  5
2DF
100
AcDbEntity
  8
0
100
AcDbVertex
100
AcDb2dVertex
 10
267.98659049
 20
140.12547944
 30
0.0
  0
SEQEND
  5
2E0
100
AcDbEntity
  8
0
  0
ELLIPSE
  5
2E1
100
AcDbEntity
  8
0
100
AcDbEllipse
 10
273.91083167
 20
139.37904512
 30
0.0
 11
4.18893056
 21
-4.75011952
 31
0.0
 40
0.88191710
 41
3.92701598
 42
5.49782069
  0
LINE
  5
2E2
100
AcDbEntity
  8
0
100
AcDbLine
 10
273.91088136
 20
133.40796502
 30
0.0
 11
273.91088136
 21
134.97931342
 31
0.0
  0
POLYLINE
  5
2E3
100
AcDbEntity
  8
0
100
AcDb2dPolyline
 66
     1
  0
VERTEX
  5
2E4
100
AcDbEntity
  8
0
100
AcDbVertex
100
AcDb2dVertex
 10
273.91088136
 20
133.40796502
 30
0.0
  0
VERTEX
  5
2E5
100
AcDbEntity
  8
0
100
AcDbVertex
100
AcDb2dVertex
 10
275.91240590
 20
133.16120506
 30
0.0
  0
VERTEX
  5
2E6
100
AcDbEntity
  8
0
100
AcDbVertex
100
AcDb2dVertex
 10
279.33378121
 20
132.68250221
 30
0.0
  0
VERTEX
  5
2E7
100
AcDbEntity
  8
0
100
AcDbVertex
100
AcDb2dVertex
 10
282.77992209
 20
132.13255543
 30
0.0
  0
VERTEX
  5
2E8
100
AcDbEntity
  8
0
100
AcDbVertex
100
AcDb2dVertex
 10
284.46282258
 20
131.84590406
 30
0.0
  0
VERTEX
  5
2E9
100
AcDbEntity
  8
0
100
AcDbVertex
100
AcDb2dVertex
 10
289.88849564
 20
130.87940802
 30
0.0
  0
VERTEX
  5
2EA
100
AcDbEntity
  8
0
100
AcDbVertex
100
AcDb2dVertex
 10
297.26273997
 20
129.51170152
 30
0.0
  0
VERTEX
  5
2EB
100
AcDbEntity
  8
0
100
AcDbVertex
100
AcDb2dVertex
 10
298.60342481
 20
129.25975867
 30
0.0
  0
VERTEX
  5
2EC
100
AcDbEntity
  8
0
100
AcDbVertex
100
AcDb2dVertex
 10
299.79068903
 20
129.03693797
 30
0.0
  0
VERTEX
  5
2ED
100
AcDbEntity
  8
0
100
AcDbVertex
100
AcDb2dVertex
 10
301.10587206
 20
128.79520749
 30
0.0
  0
VERTEX
  5
2EE
100
AcDbEntity
  8
0
100
AcDbVertex
100
AcDb2dVertex
 10
303.98717875
 20
128.30441972
 30
0.0
  0
VERTEX
  5
2EF
100
AcDbEntity
  8
0
100
AcDbVertex
100
AcDb2dVertex
 10
308.04579965
 20
127.62942419
 30
0.0
  0
SEQEND
  5
2F0
100
AcDbEntity
  8
0
  0
POLYLINE
  5
2F1
100
AcDbEntity
  8
0
100
AcDb2dPolyline
 66
     1
  0
VERTEX
  5
2F2
100
AcDbEntity
  8
0
100
AcDbVertex
100
AcDb2dVertex
 10
266.52023704
 20
174.71498635
 30
0.0
  0
VERTEX
  5
2F3
100
AcDbEntity
  8
0
100
AcDbVertex
100
AcDb2dVertex
 10
266.59587436
 20
172.78640915
 30
0.0
  0
VERTEX
  5
2F4
100
AcDbEntity
  8
0
100
AcDbVertex
100
AcDb2dVertex
 10
266.63734161
 20
171.73732065
 30
0.0
  0
VERTEX
  5
2F5
100
AcDbEntity
  8
0
100
AcDbVertex
100
AcDb2dVertex
 10
266.67035037
 20
170.90925153
 30
0.0
  0
VERTEX
  5
2F6
100
AcDbEntity
  8
0
100
AcDbVertex
100
AcDb2dVertex
 10
266.72486255
 20
169.56972233
 30
0.0
  0
VERTEX
  5
2F7
100
AcDbEntity
  8
0
100
AcDbVertex
100
AcDb2dVertex
 10
266.79040768
 20
168.06786872
 30
0.0
  0
VERTEX
  5
2F8
100
AcDbEntity
  8
0
100
AcDbVertex
100
AcDb2dVertex
 10
266.97236074
 20
164.89737057
 30
0.0
  0
VERTEX
  5
2F9
100
AcDbEntity
  8
0
100
AcDbVertex
100
AcDb2dVertex
 10
267.04871751
 20
163.63453468
 30
0.0
  0
VERTEX
  5
2FA
100
AcDbEntity
  8
0
100
AcDbVertex
100
AcDb2dVertex
 10
267.16261738
 20
161.73426089
 30
0.0
  0
VERTEX
  5
2FB
100
AcDbEntity
  8
0
100
AcDbVertex
100
AcDb2dVertex
 10
267.32614237
 20
158.94079366
 30
0.0
  0
VERTEX
  5
2FC
100
AcDbEntity
  8
0
100
AcDbVertex
100
AcDb2dVertex
 10
267.45971486
 20
156.57257207
 30
0.0
  0
VERTEX
  5
2FD
100
AcDbEntity
  8
0
100
AcDbVertex
100
AcDb2dVertex
 10
267.56997321
 20
154.53241053
 30
0.0
  0
VERTEX
  5
2FE
100
AcDbEntity
  8
0
100
AcDbVertex
100
AcDb2dVertex
 10
267.66144405
 20
152.75371148
 30
0.0
  0
VERTEX
  5
2FF
100
AcDbEntity
  8
0
100
AcDbVertex
100
AcDb2dVertex
 10
267.73664933
 20
151.20249545
 30
0.0
  0
VERTEX
  5
300
100
AcDbEntity
  8
0
100
AcDbVertex
100
AcDb2dVertex
 10
267.79796316
 20
149.84363085
 30
0.0
  0
VERTEX
  5
301
100
AcDbEntity
  8
0
100
AcDbVertex
100
AcDb2dVertex
 10
267.88957378
 20
147.48685269
 30
0.0
  0
VERTEX
  5
302
100
AcDbEntity
  8
0
100
AcDbVertex
100
AcDb2dVertex
 10
267.96608456
 20
144.58632143
 30
0.0
  0
VERTEX
  5
303
100
AcDbEntity
  8
0
100
AcDbVertex
100
AcDb2dVertex
 10
267.99219259
 20
141.25618396
 30
0.0
  0
VERTEX
  5
304
100
AcDbEntity
  8
0
100
AcDbVertex
100
AcDb2dVertex
 10
267.98659049
 20
140.12547944
 30
0.0
  0
SEQEND
  5
305
100
AcDbEntity
  8
0
  0
POLYLINE
  5
306
100
AcDbEntity
  8
0
100
AcDb2dPolyline
 66
     1
  0
VERTEX
  5
307
100
AcDbEntity
  8
0
100
AcDbVertex
100
AcDb2dVertex
 10
268.07926095
 20
174.51856780
 30
0.0
  0
VERTEX
  5
308
100
AcDbEntity
  8
0
100
AcDbVertex
100
AcDb2dVertex
 10
266.52023704
 20
174.71498635
 30
0.0
  0
VERTEX
  5
309
100
AcDbEntity
  8
0
100
AcDbVertex
100
AcDb2dVertex
 10
266.52023704
 20
208.91470781
 30
0.0
  0
VERTEX
  5
30A
100
AcDbEntity
  8
0
100
AcDbVertex
100
AcDb2dVertex
 10
267.46304608
 20
212.26034468
 30
0.0
  0
SEQEND
  5
30B
100
AcDbEntity
  8
0
  0
LINE
  5
30C
100
AcDbEntity
  8
0
100
AcDbLine
 10
276.41973198
 20
220.15939916
 30
0.0
 11
267.46304608
 21
212.26034468
 31
0.0
  0
LINE
  5
30D
100
AcDbEntity
  8
0
100
AcDbLine
 10
276.41973198
 20
220.15939916
 30
0.0
 11
277.97875589
 21
219.96298061
 31
0.0
  0
LINE
  5
30E
100
AcDbEntity
  8
0
100
AcDbLine
 10
269.02206999
 20
212.06392613
 30
0.0
 11
267.46304608
 21
212.26034468
 31
0.0
  0
LINE
  5
30F
100
AcDbEntity
  8
0
100
AcDbLine
 10
268.07926095
 20
208.71828926
 30
0.0
 11
266.52023704
 21
208.91470781
 31
0.0
  0
POLYLINE
  5
310
100
AcDbEntity
  8
0
100
AcDb2dPolyline
 66
     1
  0
VERTEX
  5
311
100
AcDbEntity
  8
0
100
AcDbVertex
100
AcDb2dVertex
 10
274.49483511
 20
183.34042713
 30
0.0
  0
VERTEX
  5
312
100
AcDbEntity
  8
0
100
AcDbVertex
100
AcDb2dVertex
 10
274.49367154
 20
183.37702078
 30
0.0
  0
VERTEX
  5
313
100
AcDbEntity
  8
0
100
AcDbVertex
100
AcDb2dVertex
 10
274.44570248
 20
183.84957190
 30
0.0
  0
VERTEX
  5
314
100
AcDbEntity
  8
0
100
AcDbVertex
100
AcDb2dVertex
 10
274.34974140
 20
184.18992041
 30
0.0
  0
VERTEX
  5
315
100
AcDbEntity
  8
0
100
AcDbVertex
100
AcDb2dVertex
 10
274.22816099
 20
184.39984141
 30
0.0
  0
VERTEX
  5
316
100
AcDbEntity
  8
0
100
AcDbVertex
100
AcDb2dVertex
 10
274.20376602
 20
184.42683719
 30
0.0
  0
VERTEX
  5
317
100
AcDbEntity
  8
0
100
AcDbVertex
100
AcDb2dVertex
 10
274.07270810
 20
184.51507591
 30
0.0
  0
VERTEX
  5
318
100
AcDbEntity
  8
0
100
AcDbVertex
100
AcDb2dVertex
 10
273.93661890
 20
184.53098991
 30
0.0
  0
VERTEX
  5
319
100
AcDbEntity
  8
0
100
AcDbVertex
100
AcDb2dVertex
 10
273.78575359
 20
184.48419100
 30
0.0
  0
VERTEX
  5
31A
100
AcDbEntity
  8
0
100
AcDbVertex
100
AcDb2dVertex
 10
273.74365582
 20
184.46173129
 30
0.0
  0
VERTEX
  5
31B
100
AcDbEntity
  8
0
100
AcDbVertex
100
AcDb2dVertex
 10
273.69499421
 20
184.43164728
 30
0.0
  0
VERTEX
  5
31C
100
AcDbEntity
  8
0
100
AcDbVertex
100
AcDb2dVertex
 10
273.64333182
 20
184.39553779
 30
0.0
  0
VERTEX
  5
31D
100
AcDbEntity
  8
0
100
AcDbVertex
100
AcDb2dVertex
 10
273.58899165
 20
184.35368915
 30
0.0
  0
VERTEX
  5
31E
100
AcDbEntity
  8
0
100
AcDbVertex
100
AcDb2dVertex
 10
273.53442443
 20
184.30842688
 30
0.0
  0
VERTEX
  5
31F
100
AcDbEntity
  8
0
100
AcDbVertex
100
AcDb2dVertex
 10
273.47809308
 20
184.25900521
 30
0.0
  0
VERTEX
  5
320
100
AcDbEntity
  8
0
100
AcDbVertex
100
AcDb2dVertex
 10
273.41630921
 20
184.20174459
 30
0.0
  0
VERTEX
  5
321
100
AcDbEntity
  8
0
100
AcDbVertex
100
AcDb2dVertex
 10
273.35046028
 20
184.13618923
 30
0.0
  0
VERTEX
  5
322
100
AcDbEntity
  8
0
100
AcDbVertex
100
AcDb2dVertex
 10
273.28774583
 20
184.06819836
 30
0.0
  0
VERTEX
  5
323
100
AcDbEntity
  8
0
100
AcDbVertex
100
AcDb2dVertex
 10
273.22824949
 20
183.99749243
 30
0.0
  0
VERTEX
  5
324
100
AcDbEntity
  8
0
100
AcDbVertex
100
AcDb2dVertex
 10
273.17486877
 20
183.92794660
 30
0.0
  0
VERTEX
  5
325
100
AcDbEntity
  8
0
100
AcDbVertex
100
AcDb2dVertex
 10
273.12593356
 20
183.85836757
 30
0.0
  0
VERTEX
  5
326
100
AcDbEntity
  8
0
100
AcDbVertex
100
AcDb2dVertex
 10
273.08024589
 20
183.78777418
 30
0.0
  0
VERTEX
  5
327
100
AcDbEntity
  8
0
100
AcDbVertex
100
AcDb2dVertex
 10
273.03702251
 20
183.71545731
 30
0.0
  0
VERTEX
  5
328
100
AcDbEntity
  8
0
100
AcDbVertex
100
AcDb2dVertex
 10
272.99581731
 20
183.64101902
 30
0.0
  0
VERTEX
  5
329
100
AcDbEntity
  8
0
100
AcDbVertex
100
AcDb2dVertex
 10
272.95637945
 20
183.56426139
 30
0.0
  0
VERTEX
  5
32A
100
AcDbEntity
  8
0
100
AcDbVertex
100
AcDb2dVertex
 10
272.91857220
 20
183.48511593
 30
0.0
  0
VERTEX
  5
32B
100
AcDbEntity
  8
0
100
AcDbVertex
100
AcDb2dVertex
 10
272.88232578
 20
183.40359776
 30
0.0
  0
VERTEX
  5
32C
100
AcDbEntity
  8
0
100
AcDbVertex
100
AcDb2dVertex
 10
272.84761066
 20
183.31977803
 30
0.0
  0
VERTEX
  5
32D
100
AcDbEntity
  8
0
100
AcDbVertex
100
AcDb2dVertex
 10
272.81442201
 20
183.23376681
 30
0.0
  0
VERTEX
  5
32E
100
AcDbEntity
  8
0
100
AcDbVertex
100
AcDb2dVertex
 10
272.78277053
 20
183.14570299
 30
0.0
  0
VERTEX
  5
32F
100
AcDbEntity
  8
0
100
AcDbVertex
100
AcDb2dVertex
 10
272.75267604
 20
183.05574484
 30
0.0
  0
VERTEX
  5
330
100
AcDbEntity
  8
0
100
AcDbVertex
100
AcDb2dVertex
 10
272.72416590
 20
182.96407266
 30
0.0
  0
VERTEX
  5
331
100
AcDbEntity
  8
0
100
AcDbVertex
100
AcDb2dVertex
 10
272.69726893
 20
182.87087507
 30
0.0
  0
VERTEX
  5
332
100
AcDbEntity
  8
0
100
AcDbVertex
100
AcDb2dVertex
 10
272.67201545
 20
182.77634930
 30
0.0
  0
VERTEX
  5
333
100
AcDbEntity
  8
0
100
AcDbVertex
100
AcDb2dVertex
 10
272.64843926
 20
182.68071302
 30
0.0
  0
VERTEX
  5
334
100
AcDbEntity
  8
0
100
AcDbVertex
100
AcDb2dVertex
 10
272.62657185
 20
182.58418754
 30
0.0
  0
VERTEX
  5
335
100
AcDbEntity
  8
0
100
AcDbVertex
100
AcDb2dVertex
 10
272.60644114
 20
182.48699113
 30
0.0
  0
VERTEX
  5
336
100
AcDbEntity
  8
0
100
AcDbVertex
100
AcDb2dVertex
 10
272.58807393
 20
182.38934841
 30
0.0
  0
VERTEX
  5
337
100
AcDbEntity
  8
0
100
AcDbVertex
100
AcDb2dVertex
 10
272.57149640
 20
182.29149530
 30
0.0
  0
VERTEX
  5
338
100
AcDbEntity
  8
0
100
AcDbVertex
100
AcDb2dVertex
 10
272.55673194
 20
182.19367352
 30
0.0
  0
VERTEX
  5
339
100
AcDbEntity
  8
0
100
AcDbVertex
100
AcDb2dVertex
 10
272.54379897
 20
182.09611615
 30
0.0
  0
VERTEX
  5
33A
100
AcDbEntity
  8
0
100
AcDbVertex
100
AcDb2dVertex
 10
272.53271264
 20
181.99905658
 30
0.0
  0
VERTEX
  5
33B
100
AcDbEntity
  8
0
100
AcDbVertex
100
AcDb2dVertex
 10
272.52348480
 20
181.90272835
 30
0.0
  0
VERTEX
  5
33C
100
AcDbEntity
  8
0
100
AcDbVertex
100
AcDb2dVertex
 10
272.51612376
 20
181.80736399
 30
0.0
  0
VERTEX
  5
33D
100
AcDbEntity
  8
0
100
AcDbVertex
100
AcDb2dVertex
 10
272.51063418
 20
181.71319399
 30
0.0
  0
VERTEX
  5
33E
100
AcDbEntity
  8
0
100
AcDbVertex
100
AcDb2dVertex
 10
272.50715431
 20
181.62507725
 30
0.0
  0
VERTEX
  5
33F
100
AcDbEntity
  8
0
100
AcDbVertex
100
AcDb2dVertex
 10
272.50502605
 20
181.55429431
 30
0.0
  0
VERTEX
  5
340
100
AcDbEntity
  8
0
100
AcDbVertex
100
AcDb2dVertex
 10
272.47902343
 20
180.65414709
 30
0.0
  0
VERTEX
  5
341
100
AcDbEntity
  8
0
100
AcDbVertex
100
AcDb2dVertex
 10
272.45488153
 20
179.75526200
 30
0.0
  0
VERTEX
  5
342
100
AcDbEntity
  8
0
100
AcDbVertex
100
AcDb2dVertex
 10
272.43240945
 20
178.85753366
 30
0.0
  0
VERTEX
  5
343
100
AcDbEntity
  8
0
100
AcDbVertex
100
AcDb2dVertex
 10
272.41144362
 20
177.96086833
 30
0.0
  0
VERTEX
  5
344
100
AcDbEntity
  8
0
100
AcDbVertex
100
AcDb2dVertex
 10
272.39182056
 20
177.06516613
 30
0.0
  0
VERTEX
  5
345
100
AcDbEntity
  8
0
100
AcDbVertex
100
AcDb2dVertex
 10
272.37337712
 20
176.17032216
 30
0.0
  0
VERTEX
  5
346
100
AcDbEntity
  8
0
100
AcDbVertex
100
AcDb2dVertex
 10
272.35597518
 20
175.27624536
 30
0.0
  0
VERTEX
  5
347
100
AcDbEntity
  8
0
100
AcDbVertex
100
AcDb2dVertex
 10
272.33949800
 20
174.38285715
 30
0.0
  0
VERTEX
  5
348
100
AcDbEntity
  8
0
100
AcDbVertex
100
AcDb2dVertex
 10
272.32384614
 20
173.49008939
 30
0.0
  0
VERTEX
  5
349
100
AcDbEntity
  8
0
100
AcDbVertex
100
AcDb2dVertex
 10
272.30893430
 20
172.59788265
 30
0.0
  0
VERTEX
  5
34A
100
AcDbEntity
  8
0
100
AcDbVertex
100
AcDb2dVertex
 10
272.29468881
 20
171.70618491
 30
0.0
  0
VERTEX
  5
34B
100
AcDbEntity
  8
0
100
AcDbVertex
100
AcDb2dVertex
 10
272.28104567
 20
170.81495038
 30
0.0
  0
VERTEX
  5
34C
100
AcDbEntity
  8
0
100
AcDbVertex
100
AcDb2dVertex
 10
272.26794893
 20
169.92413860
 30
0.0
  0
VERTEX
  5
34D
100
AcDbEntity
  8
0
100
AcDbVertex
100
AcDb2dVertex
 10
272.25534942
 20
169.03371361
 30
0.0
  0
VERTEX
  5
34E
100
AcDbEntity
  8
0
100
AcDbVertex
100
AcDb2dVertex
 10
272.24320368
 20
168.14364338
 30
0.0
  0
VERTEX
  5
34F
100
AcDbEntity
  8
0
100
AcDbVertex
100
AcDb2dVertex
 10
272.23147312
 20
167.25389919
 30
0.0
  0
VERTEX
  5
350
100
AcDbEntity
  8
0
100
AcDbVertex
100
AcDb2dVertex
 10
272.22012329
 20
166.36445523
 30
0.0
  0
VERTEX
  5
351
100
AcDbEntity
  8
0
100
AcDbVertex
100
AcDb2dVertex
 10
272.20912332
 20
165.47528818
 30
0.0
  0
VERTEX
  5
352
100
AcDbEntity
  8
0
100
AcDbVertex
100
AcDb2dVertex
 10
272.19844538
 20
164.58637691
 30
0.0
  0
VERTEX
  5
353
100
AcDbEntity
  8
0
100
AcDbVertex
100
AcDb2dVertex
 10
272.18806433
 20
163.69770217
 30
0.0
  0
VERTEX
  5
354
100
AcDbEntity
  8
0
100
AcDbVertex
100
AcDb2dVertex
 10
272.17795731
 20
162.80924640
 30
0.0
  0
VERTEX
  5
355
100
AcDbEntity
  8
0
100
AcDbVertex
100
AcDb2dVertex
 10
272.16810349
 20
161.92099348
 30
0.0
  0
VERTEX
  5
356
100
AcDbEntity
  8
0
100
AcDbVertex
100
AcDb2dVertex
 10
272.15848377
 20
161.03292860
 30
0.0
  0
VERTEX
  5
357
100
AcDbEntity
  8
0
100
AcDbVertex
100
AcDb2dVertex
 10
272.14908064
 20
160.14503807
 30
0.0
  0
VERTEX
  5
358
100
AcDbEntity
  8
0
100
AcDbVertex
100
AcDb2dVertex
 10
272.13987791
 20
159.25730920
 30
0.0
  0
VERTEX
  5
359
100
AcDbEntity
  8
0
100
AcDbVertex
100
AcDb2dVertex
 10
272.13086061
 20
158.36973020
 30
0.0
  0
VERTEX
  5
35A
100
AcDbEntity
  8
0
100
AcDbVertex
100
AcDb2dVertex
 10
272.12201482
 20
157.48229007
 30
0.0
  0
VERTEX
  5
35B
100
AcDbEntity
  8
0
100
AcDbVertex
100
AcDb2dVertex
 10
272.11332756
 20
156.59497852
 30
0.0
  0
VERTEX
  5
35C
100
AcDbEntity
  8
0
100
AcDbVertex
100
AcDb2dVertex
 10
272.10478669
 20
155.70778587
 30
0.0
  0
VERTEX
  5
35D
100
AcDbEntity
  8
0
100
AcDbVertex
100
AcDb2dVertex
 10
272.09638079
 20
154.82070302
 30
0.0
  0
VERTEX
  5
35E
100
AcDbEntity
  8
0
100
AcDbVertex
100
AcDb2dVertex
 10
272.08809913
 20
153.93372134
 30
0.0
  0
VERTEX
  5
35F
100
AcDbEntity
  8
0
100
AcDbVertex
100
AcDb2dVertex
 10
272.07993151
 20
153.04683267
 30
0.0
  0
VERTEX
  5
360
100
AcDbEntity
  8
0
100
AcDbVertex
100
AcDb2dVertex
 10
272.07186831
 20
152.16002922
 30
0.0
  0
VERTEX
  5
361
100
AcDbEntity
  8
0
100
AcDbVertex
100
AcDb2dVertex
 10
272.06390030
 20
151.27330357
 30
0.0
  0
VERTEX
  5
362
100
AcDbEntity
  8
0
100
AcDbVertex
100
AcDb2dVertex
 10
272.05601872
 20
150.38664859
 30
0.0
  0
VERTEX
  5
363
100
AcDbEntity
  8
0
100
AcDbVertex
100
AcDb2dVertex
 10
272.04821511
 20
149.50005744
 30
0.0
  0
VERTEX
  5
364
100
AcDbEntity
  8
0
100
AcDbVertex
100
AcDb2dVertex
 10
272.04048136
 20
148.61352351
 30
0.0
  0
VERTEX
  5
365
100
AcDbEntity
  8
0
100
AcDbVertex
100
AcDb2dVertex
 10
272.03280961
 20
147.72704040
 30
0.0
  0
VERTEX
  5
366
100
AcDbEntity
  8
0
100
AcDbVertex
100
AcDb2dVertex
 10
272.02519225
 20
146.84060190
 30
0.0
  0
VERTEX
  5
367
100
AcDbEntity
  8
0
100
AcDbVertex
100
AcDb2dVertex
 10
272.01762185
 20
145.95420192
 30
0.0
  0
VERTEX
  5
368
100
AcDbEntity
  8
0
100
AcDbVertex
100
AcDb2dVertex
 10
272.01009115
 20
145.06783455
 30
0.0
  0
VERTEX
  5
369
100
AcDbEntity
  8
0
100
AcDbVertex
100
AcDb2dVertex
 10
272.00259303
 20
144.18149392
 30
0.0
  0
VERTEX
  5
36A
100
AcDbEntity
  8
0
100
AcDbVertex
100
AcDb2dVertex
 10
271.99512048
 20
143.29517430
 30
0.0
  0
VERTEX
  5
36B
100
AcDbEntity
  8
0
100
AcDbVertex
100
AcDb2dVertex
 10
271.99139161
 20
142.85202057
 30
0.0
  0
VERTEX
  5
36C
100
AcDbEntity
  8
0
100
AcDbVertex
100
AcDb2dVertex
 10
271.98490665
 20
142.08031444
 30
0.0
  0
SEQEND
  5
36D
100
AcDbEntity
  8
0
  0
POLYLINE
  5
36E
100
AcDbEntity
  8
0
100
AcDb2dPolyline
 66
     1
  0
VERTEX
  5
36F
100
AcDbEntity
  8
0
100
AcDbVertex
100
AcDb2dVertex
 10
273.48936151
 20
142.33120281
 30
0.0
  0
VERTEX
  5
370
100
AcDbEntity
  8
0
100
AcDbVertex
100
AcDb2dVertex
 10
272.91839599
 20
142.33164521
 30
0.0
  0
VERTEX
  5
371
100
AcDbEntity
  8
0
100
AcDbVertex
100
AcDb2dVertex
 10
272.58394310
 20
142.29321173
 30
0.0
  0
VERTEX
  5
372
100
AcDbEntity
  8
0
100
AcDbVertex
100
AcDb2dVertex
 10
272.19750656
 20
142.19455439
 30
0.0
  0
VERTEX
  5
373
100
AcDbEntity
  8
0
100
AcDbVertex
100
AcDb2dVertex
 10
271.98490665
 20
142.08031444
 30
0.0
  0
SEQEND
  5
374
100
AcDbEntity
  8
0
  0
POLYLINE
  5
375
100
AcDbEntity
  8
0
100
AcDb2dPolyline
 66
     1
  0
VERTEX
  5
376
100
AcDbEntity
  8
0
100
AcDbVertex
100
AcDb2dVertex
 10
273.50039654
 20
181.81500318
 30
0.0
  0
VERTEX
  5
377
100
AcDbEntity
  8
0
100
AcDbVertex
100
AcDb2dVertex
 10
273.50182777
 20
181.74484718
 30
0.0
  0
VERTEX
  5
378
100
AcDbEntity
  8
0
100
AcDbVertex
100
AcDb2dVertex
 10
273.51945475
 20
180.85214386
 30
0.0
  0
VERTEX
  5
379
100
AcDbEntity
  8
0
100
AcDbVertex
100
AcDb2dVertex
 10
273.53597890
 20
179.95980596
 30
0.0
  0
VERTEX
  5
37A
100
AcDbEntity
  8
0
100
AcDbVertex
100
AcDb2dVertex
 10
273.55140606
 20
179.06784420
 30
0.0
  0
VERTEX
  5
37B
100
AcDbEntity
  8
0
100
AcDbVertex
100
AcDb2dVertex
 10
273.56562807
 20
178.17624622
 30
0.0
  0
VERTEX
  5
37C
100
AcDbEntity
  8
0
100
AcDbVertex
100
AcDb2dVertex
 10
273.57775031
 20
177.28488038
 30
0.0
  0
VERTEX
  5
37D
100
AcDbEntity
  8
0
100
AcDbVertex
100
AcDb2dVertex
 10
273.58782732
 20
176.39374278
 30
0.0
  0
VERTEX
  5
37E
100
AcDbEntity
  8
0
100
AcDbVertex
100
AcDb2dVertex
 10
273.59611042
 20
175.50285077
 30
0.0
  0
VERTEX
  5
37F
100
AcDbEntity
  8
0
100
AcDbVertex
100
AcDb2dVertex
 10
273.60282362
 20
174.61221349
 30
0.0
  0
VERTEX
  5
380
100
AcDbEntity
  8
0
100
AcDbVertex
100
AcDb2dVertex
 10
273.60816415
 20
173.72183400
 30
0.0
  0
VERTEX
  5
381
100
AcDbEntity
  8
0
100
AcDbVertex
100
AcDb2dVertex
 10
273.61230413
 20
172.83171086
 30
0.0
  0
VERTEX
  5
382
100
AcDbEntity
  8
0
100
AcDbVertex
100
AcDb2dVertex
 10
273.61539288
 20
171.94183939
 30
0.0
  0
VERTEX
  5
383
100
AcDbEntity
  8
0
100
AcDbVertex
100
AcDb2dVertex
 10
273.61755942
 20
171.05221269
 30
0.0
  0
VERTEX
  5
384
100
AcDbEntity
  8
0
100
AcDbVertex
100
AcDb2dVertex
 10
273.61891493
 20
170.16282230
 30
0.0
  0
VERTEX
  5
385
100
AcDbEntity
  8
0
100
AcDbVertex
100
AcDb2dVertex
 10
273.61955513
 20
169.27365882
 30
0.0
  0
VERTEX
  5
386
100
AcDbEntity
  8
0
100
AcDbVertex
100
AcDb2dVertex
 10
273.61956233
 20
168.38471223
 30
0.0
  0
VERTEX
  5
387
100
AcDbEntity
  8
0
100
AcDbVertex
100
AcDb2dVertex
 10
273.61900730
 20
167.49597227
 30
0.0
  0
VERTEX
  5
388
100
AcDbEntity
  8
0
100
AcDbVertex
100
AcDb2dVertex
 10
273.61795095
 20
166.60742858
 30
0.0
  0
VERTEX
  5
389
100
AcDbEntity
  8
0
100
AcDbVertex
100
AcDb2dVertex
 10
273.61644566
 20
165.71907089
 30
0.0
  0
VERTEX
  5
38A
100
AcDbEntity
  8
0
100
AcDbVertex
100
AcDb2dVertex
 10
273.61453655
 20
164.83088912
 30
0.0
  0
VERTEX
  5
38B
100
AcDbEntity
  8
0
100
AcDbVertex
100
AcDb2dVertex
 10
273.61226245
 20
163.94287341
 30
0.0
  0
VERTEX
  5
38C
100
AcDbEntity
  8
0
100
AcDbVertex
100
AcDb2dVertex
 10
273.60965684
 20
163.05501424
 30
0.0
  0
VERTEX
  5
38D
100
AcDbEntity
  8
0
100
AcDbVertex
100
AcDb2dVertex
 10
273.60674850
 20
162.16730235
 30
0.0
  0
VERTEX
  5
38E
100
AcDbEntity
  8
0
100
AcDbVertex
100
AcDb2dVertex
 10
273.60356223
 20
161.27972886
 30
0.0
  0
VERTEX
  5
38F
100
AcDbEntity
  8
0
100
AcDbVertex
100
AcDb2dVertex
 10
273.60011933
 20
160.39228517
 30
0.0
  0
VERTEX
  5
390
100
AcDbEntity
  8
0
100
AcDbVertex
100
AcDb2dVertex
 10
273.59643808
 20
159.50496303
 30
0.0
  0
VERTEX
  5
391
100
AcDbEntity
  8
0
100
AcDbVertex
100
AcDb2dVertex
 10
273.59253410
 20
158.61775449
 30
0.0
  0
VERTEX
  5
392
100
AcDbEntity
  8
0
100
AcDbVertex
100
AcDb2dVertex
 10
273.58842068
 20
157.73065190
 30
0.0
  0
VERTEX
  5
393
100
AcDbEntity
  8
0
100
AcDbVertex
100
AcDb2dVertex
 10
273.58410909
 20
156.84364787
 30
0.0
  0
VERTEX
  5
394
100
AcDbEntity
  8
0
100
AcDbVertex
100
AcDb2dVertex
 10
273.57960877
 20
155.95673530
 30
0.0
  0
VERTEX
  5
395
100
AcDbEntity
  8
0
100
AcDbVertex
100
AcDb2dVertex
 10
273.57492755
 20
155.06990730
 30
0.0
  0
VERTEX
  5
396
100
AcDbEntity
  8
0
100
AcDbVertex
100
AcDb2dVertex
 10
273.57007184
 20
154.18315722
 30
0.0
  0
VERTEX
  5
397
100
AcDbEntity
  8
0
100
AcDbVertex
100
AcDb2dVertex
 10
273.56504672
 20
153.29647860
 30
0.0
  0
VERTEX
  5
398
100
AcDbEntity
  8
0
100
AcDbVertex
100
AcDb2dVertex
 10
273.55985611
 20
152.40986517
 30
0.0
  0
VERTEX
  5
399
100
AcDbEntity
  8
0
100
AcDbVertex
100
AcDb2dVertex
 10
273.55450285
 20
151.52331083
 30
0.0
  0
VERTEX
  5
39A
100
AcDbEntity
  8
0
100
AcDbVertex
100
AcDb2dVertex
 10
273.54898880
 20
150.63680959
 30
0.0
  0
VERTEX
  5
39B
100
AcDbEntity
  8
0
100
AcDbVertex
100
AcDb2dVertex
 10
273.54331488
 20
149.75035563
 30
0.0
  0
VERTEX
  5
39C
100
AcDbEntity
  8
0
100
AcDbVertex
100
AcDb2dVertex
 10
273.53748115
 20
148.86394321
 30
0.0
  0
VERTEX
  5
39D
100
AcDbEntity
  8
0
100
AcDbVertex
100
AcDb2dVertex
 10
273.53148686
 20
147.97756668
 30
0.0
  0
VERTEX
  5
39E
100
AcDbEntity
  8
0
100
AcDbVertex
100
AcDb2dVertex
 10
273.52533045
 20
147.09122047
 30
0.0
  0
VERTEX
  5
39F
100
AcDbEntity
  8
0
100
AcDbVertex
100
AcDb2dVertex
 10
273.51900962
 20
146.20489904
 30
0.0
  0
VERTEX
  5
3A0
100
AcDbEntity
  8
0
100
AcDbVertex
100
AcDb2dVertex
 10
273.51252131
 20
145.31859691
 30
0.0
  0
VERTEX
  5
3A1
100
AcDbEntity
  8
0
100
AcDbVertex
100
AcDb2dVertex
 10
273.50586173
 20
144.43230859
 30
0.0
  0
VERTEX
  5
3A2
100
AcDbEntity
  8
0
100
AcDbVertex
100
AcDb2dVertex
 10
273.49902632
 20
143.54602859
 30
0.0
  0
VERTEX
  5
3A3
100
AcDbEntity
  8
0
100
AcDbVertex
100
AcDb2dVertex
 10
273.49554106
 20
143.10288999
 30
0.0
  0
VERTEX
  5
3A4
100
AcDbEntity
  8
0
100
AcDbVertex
100
AcDb2dVertex
 10
273.48936151
 20
142.33120281
 30
0.0
  0
SEQEND
  5
3A5
100
AcDbEntity
  8
0
  0
POLYLINE
  5
3A6
100
AcDbEntity
  8
0
100
AcDb2dPolyline
 66
     1
  0
VERTEX
  5
3A7
100
AcDbEntity
  8
0
100
AcDbVertex
100
AcDb2dVertex
 10
275.09728366
 20
182.60586540
 30
0.0
  0
VERTEX
  5
3A8
100
AcDbEntity
  8
0
100
AcDbVertex
100
AcDb2dVertex
 10
275.07748877
 20
182.50918656
 30
0.0
  0
VERTEX
  5
3A9
100
AcDbEntity
  8
0
100
AcDbVertex
100
AcDb2dVertex
 10
274.98630213
 20
182.39118507
 30
0.0
  0
VERTEX
  5
3AA
100
AcDbEntity
  8
0
100
AcDbVertex
100
AcDb2dVertex
 10
274.76224046
 20
182.21500061
 30
0.0
  0
VERTEX
  5
3AB
100
AcDbEntity
  8
0
100
AcDbVertex
100
AcDb2dVertex
 10
274.45147471
 20
182.06134970
 30
0.0
  0
VERTEX
  5
3AC
100
AcDbEntity
  8
0
100
AcDbVertex
100
AcDb2dVertex
 10
274.39295067
 20
182.03904923
 30
0.0
  0
VERTEX
  5
3AD
100
AcDbEntity
  8
0
100
AcDbVertex
100
AcDb2dVertex
 10
274.27014780
 20
181.99678244
 30
0.0
  0
VERTEX
  5
3AE
100
AcDbEntity
  8
0
100
AcDbVertex
100
AcDb2dVertex
 10
274.20651723
 20
181.97691942
 30
0.0
  0
VERTEX
  5
3AF
100
AcDbEntity
  8
0
100
AcDbVertex
100
AcDb2dVertex
 10
274.07602456
 20
181.93975081
 30
0.0
  0
VERTEX
  5
3B0
100
AcDbEntity
  8
0
100
AcDbVertex
100
AcDb2dVertex
 10
274.00944620
 20
181.92237785
 30
0.0
  0
VERTEX
  5
3B1
100
AcDbEntity
  8
0
100
AcDbVertex
100
AcDb2dVertex
 10
273.80670007
 20
181.87486147
 30
0.0
  0
VERTEX
  5
3B2
100
AcDbEntity
  8
0
100
AcDbVertex
100
AcDb2dVertex
 10
273.50039654
 20
181.81500318
 30
0.0
  0
SEQEND
  5
3B3
100
AcDbEntity
  8
0
  0
LINE
  5
3B4
100
AcDbEntity
  8
0
100
AcDbLine
 62
    55
 10
275.09728366
 20
182.60586540
 30
0.0
 11
280.03272864
 21
144.77800680
 31
0.0
  0
POLYLINE
  5
3B5
100
AcDbEntity
  8
0
100
AcDb2dPolyline
 62
    55
 66
     1
  0
VERTEX
  5
3B6
100
AcDbEntity
  8
0
100
AcDbVertex
100
AcDb2dVertex
 10
274.69748820
 20
183.18289221
 30
0.0
  0
VERTEX
  5
3B7
100
AcDbEntity
  8
0
100
AcDbVertex
100
AcDb2dVertex
 10
274.81083467
 20
183.10529512
 30
0.0
  0
VERTEX
  5
3B8
100
AcDbEntity
  8
0
100
AcDbVertex
100
AcDb2dVertex
 10
274.98212998
 20
182.91719090
 30
0.0
  0
VERTEX
  5
3B9
100
AcDbEntity
  8
0
100
AcDbVertex
100
AcDb2dVertex
 10
275.07760983
 20
182.70426648
 30
0.0
  0
VERTEX
  5
3BA
100
AcDbEntity
  8
0
100
AcDbVertex
100
AcDb2dVertex
 10
275.09728366
 20
182.60586540
 30
0.0
  0
SEQEND
  5
3BB
100
AcDbEntity
  8
0
  0
POLYLINE
  5
3BC
100
AcDbEntity
  8
0
100
AcDb2dPolyline
 66
     1
  0
VERTEX
  5
3BD
100
AcDbEntity
  8
0
100
AcDbVertex
100
AcDb2dVertex
 10
274.69748820
 20
183.18289221
 30
0.0
  0
VERTEX
  5
3BE
100
AcDbEntity
  8
0
100
AcDbVertex
100
AcDb2dVertex
 10
274.67120987
 20
183.15877085
 30
0.0
  0
VERTEX
  5
3BF
100
AcDbEntity
  8
0
100
AcDbVertex
100
AcDb2dVertex
 10
274.61546734
 20
183.08716253
 30
0.0
  0
VERTEX
  5
3C0
100
AcDbEntity
  8
0
100
AcDbVertex
100
AcDb2dVertex
 10
274.34286903
 20
182.83495142
 30
0.0
  0
VERTEX
  5
3C1
100
AcDbEntity
  8
0
100
AcDbVertex
100
AcDb2dVertex
 10
273.92570108
 20
182.50599183
 30
0.0
  0
VERTEX
  5
3C2
100
AcDbEntity
  8
0
100
AcDbVertex
100
AcDb2dVertex
 10
273.79183228
 20
182.36875045
 30
0.0
  0
VERTEX
  5
3C3
100
AcDbEntity
  8
0
100
AcDbVertex
100
AcDb2dVertex
 10
273.68656752
 20
182.23395509
 30
0.0
  0
VERTEX
  5
3C4
100
AcDbEntity
  8
0
100
AcDbVertex
100
AcDb2dVertex
 10
273.54836908
 20
181.97846909
 30
0.0
  0
VERTEX
  5
3C5
100
AcDbEntity
  8
0
100
AcDbVertex
100
AcDb2dVertex
 10
273.50039654
 20
181.81500318
 30
0.0
  0
VERTEX
  5
3C6
100
AcDbEntity
  8
0
100
AcDbVertex
100
AcDb2dVertex
 10
272.94126215
 20
181.76516468
 30
0.0
  0
VERTEX
  5
3C7
100
AcDbEntity
  8
0
100
AcDbVertex
100
AcDb2dVertex
 10
272.59450168
 20
181.67112106
 30
0.0
  0
VERTEX
  5
3C8
100
AcDbEntity
  8
0
100
AcDbVertex
100
AcDb2dVertex
 10
272.50715431
 20
181.62507725
 30
0.0
  0
SEQEND
  5
3C9
100
AcDbEntity
  8
0
  0
POLYLINE
  5
3CA
100
AcDbEntity
  8
0
100
AcDb2dPolyline
 62
    55
 66
     1
  0
VERTEX
  5
3CB
100
AcDbEntity
  8
0
100
AcDbVertex
100
AcDb2dVertex
 10
274.36320138
 20
183.52730075
 30
0.0
  0
VERTEX
  5
3CC
100
AcDbEntity
  8
0
100
AcDbVertex
100
AcDb2dVertex
 10
274.40429957
 20
183.45209608
 30
0.0
  0
VERTEX
  5
3CD
100
AcDbEntity
  8
0
100
AcDbVertex
100
AcDb2dVertex
 10
274.48336125
 20
183.35247821
 30
0.0
  0
VERTEX
  5
3CE
100
AcDbEntity
  8
0
100
AcDbVertex
100
AcDb2dVertex
 10
274.69748820
 20
183.18289221
 30
0.0
  0
SEQEND
  5
3CF
100
AcDbEntity
  8
0
  0
LINE
  5
3D0
100
AcDbEntity
  8
0
100
AcDbLine
 10
274.47776915
 20
183.35852579
 30
0.0
 11
274.49367154
 21
183.37702078
 31
0.0
  0
POLYLINE
  5
3D1
100
AcDbEntity
  8
0
100
AcDb2dPolyline
 66
     1
  0
VERTEX
  5
3D2
100
AcDbEntity
  8
0
100
AcDbVertex
100
AcDb2dVertex
 10
273.48936151
 20
142.33120281
 30
0.0
  0
VERTEX
  5
3D3
100
AcDbEntity
  8
0
100
AcDbVertex
100
AcDb2dVertex
 10
273.52061243
 20
141.86989006
 30
0.0
  0
VERTEX
  5
3D4
100
AcDbEntity
  8
0
100
AcDbVertex
100
AcDb2dVertex
 10
273.62163465
 20
141.41207706
 30
0.0
  0
VERTEX
  5
3D5
100
AcDbEntity
  8
0
100
AcDbVertex
100
AcDb2dVertex
 10
273.63912415
 20
141.35553814
 30
0.0
  0
VERTEX
  5
3D6
100
AcDbEntity
  8
0
100
AcDbVertex
100
AcDb2dVertex
 10
273.81695792
 20
140.91305282
 30
0.0
  0
VERTEX
  5
3D7
100
AcDbEntity
  8
0
100
AcDbVertex
100
AcDb2dVertex
 10
274.06098055
 20
140.49270027
 30
0.0
  0
VERTEX
  5
3D8
100
AcDbEntity
  8
0
100
AcDbVertex
100
AcDb2dVertex
 10
274.21016124
 20
140.28945868
 30
0.0
  0
VERTEX
  5
3D9
100
AcDbEntity
  8
0
100
AcDbVertex
100
AcDb2dVertex
 10
274.53639339
 20
139.93074830
 30
0.0
  0
VERTEX
  5
3DA
100
AcDbEntity
  8
0
100
AcDbVertex
100
AcDb2dVertex
 10
274.49466360
 20
139.89394567
 30
0.0
  0
VERTEX
  5
3DB
100
AcDbEntity
  8
0
100
AcDbVertex
100
AcDb2dVertex
 10
273.30322896
 20
138.84325401
 30
0.0
  0
SEQEND
  5
3DC
100
AcDbEntity
  8
0
  0
POLYLINE
  5
3DD
100
AcDbEntity
  8
0
100
AcDb2dPolyline
 62
    55
 66
     1
  0
VERTEX
  5
3DE
100
AcDbEntity
  8
0
100
AcDbVertex
100
AcDb2dVertex
 10
317.56502885
 20
134.99167037
 30
0.0
  0
VERTEX
  5
3DF
100
AcDbEntity
  8
0
100
AcDbVertex
100
AcDb2dVertex
 10
317.63725273
 20
134.96884746
 30
0.0
  0
VERTEX
  5
3E0
100
AcDbEntity
  8
0
100
AcDbVertex
100
AcDb2dVertex
 10
317.83434633
 20
134.85889315
 30
0.0
  0
VERTEX
  5
3E1
100
AcDbEntity
  8
0
100
AcDbVertex
100
AcDb2dVertex
 10
317.99075235
 20
134.69611301
 30
0.0
  0
VERTEX
  5
3E2
100
AcDbEntity
  8
0
100
AcDbVertex
100
AcDb2dVertex
 10
318.07146999
 20
134.55866519
 30
0.0
  0
SEQEND
  5
3E3
100
AcDbEntity
  8
0
  0
POLYLINE
  5
3E4
100
AcDbEntity
  8
0
100
AcDb2dPolyline
 66
     1
  0
VERTEX
  5
3E5
100
AcDbEntity
  8
0
100
AcDbVertex
100
AcDb2dVertex
 10
316.60178376
 20
133.57323427
 30
0.0
  0
VERTEX
  5
3E6
100
AcDbEntity
  8
0
100
AcDbVertex
100
AcDb2dVertex
 10
316.48083078
 20
133.02954708
 30
0.0
  0
VERTEX
  5
3E7
100
AcDbEntity
  8
0
100
AcDbVertex
100
AcDb2dVertex
 10
316.34564820
 20
132.70932236
 30
0.0
  0
VERTEX
  5
3E8
100
AcDbEntity
  8
0
100
AcDbVertex
100
AcDb2dVertex
 10
316.29943268
 20
132.64418596
 30
0.0
  0
SEQEND
  5
3E9
100
AcDbEntity
  8
0
  0
POLYLINE
  5
3EA
100
AcDbEntity
  8
0
100
AcDb2dPolyline
 66
     1
  0
VERTEX
  5
3EB
100
AcDbEntity
  8
0
100
AcDbVertex
100
AcDb2dVertex
 10
276.78715105
 20
138.59186096
 30
0.0
  0
VERTEX
  5
3EC
100
AcDbEntity
  8
0
100
AcDbVertex
100
AcDb2dVertex
 10
276.85631150
 20
138.58371549
 30
0.0
  0
VERTEX
  5
3ED
100
AcDbEntity
  8
0
100
AcDbVertex
100
AcDb2dVertex
 10
277.73652143
 20
138.47994590
 30
0.0
  0
VERTEX
  5
3EE
100
AcDbEntity
  8
0
100
AcDbVertex
100
AcDb2dVertex
 10
278.61670969
 20
138.37599479
 30
0.0
  0
VERTEX
  5
3EF
100
AcDbEntity
  8
0
100
AcDbVertex
100
AcDb2dVertex
 10
279.49688245
 20
138.27186694
 30
0.0
  0
VERTEX
  5
3F0
100
AcDbEntity
  8
0
100
AcDbVertex
100
AcDb2dVertex
 10
280.37704576
 20
138.16756639
 30
0.0
  0
VERTEX
  5
3F1
100
AcDbEntity
  8
0
100
AcDbVertex
100
AcDb2dVertex
 10
281.25720556
 20
138.06309644
 30
0.0
  0
VERTEX
  5
3F2
100
AcDbEntity
  8
0
100
AcDbVertex
100
AcDb2dVertex
 10
282.13736769
 20
137.95845965
 30
0.0
  0
VERTEX
  5
3F3
100
AcDbEntity
  8
0
100
AcDbVertex
100
AcDb2dVertex
 10
283.01753796
 20
137.85365784
 30
0.0
  0
VERTEX
  5
3F4
100
AcDbEntity
  8
0
100
AcDbVertex
100
AcDb2dVertex
 10
283.89772209
 20
137.74869207
 30
0.0
  0
VERTEX
  5
3F5
100
AcDbEntity
  8
0
100
AcDbVertex
100
AcDb2dVertex
 10
284.77792580
 20
137.64356262
 30
0.0
  0
VERTEX
  5
3F6
100
AcDbEntity
  8
0
100
AcDbVertex
100
AcDb2dVertex
 10
285.65815476
 20
137.53826896
 30
0.0
  0
VERTEX
  5
3F7
100
AcDbEntity
  8
0
100
AcDbVertex
100
AcDb2dVertex
 10
286.53841466
 20
137.43280971
 30
0.0
  0
VERTEX
  5
3F8
100
AcDbEntity
  8
0
100
AcDbVertex
100
AcDb2dVertex
 10
287.41871117
 20
137.32718256
 30
0.0
  0
VERTEX
  5
3F9
100
AcDbEntity
  8
0
100
AcDbVertex
100
AcDb2dVertex
 10
288.29905001
 20
137.22138422
 30
0.0
  0
VERTEX
  5
3FA
100
AcDbEntity
  8
0
100
AcDbVertex
100
AcDb2dVertex
 10
289.17943690
 20
137.11541035
 30
0.0
  0
VERTEX
  5
3FB
100
AcDbEntity
  8
0
100
AcDbVertex
100
AcDb2dVertex
 10
290.05987759
 20
137.00925546
 30
0.0
  0
VERTEX
  5
3FC
100
AcDbEntity
  8
0
100
AcDbVertex
100
AcDb2dVertex
 10
290.94037787
 20
136.90291276
 30
0.0
  0
VERTEX
  5
3FD
100
AcDbEntity
  8
0
100
AcDbVertex
100
AcDb2dVertex
 10
291.82094358
 20
136.79637407
 30
0.0
  0
VERTEX
  5
3FE
100
AcDbEntity
  8
0
100
AcDbVertex
100
AcDb2dVertex
 10
292.70158059
 20
136.68962960
 30
0.0
  0
VERTEX
  5
3FF
100
AcDbEntity
  8
0
100
AcDbVertex
100
AcDb2dVertex
 10
293.58229481
 20
136.58266785
 30
0.0
  0
VERTEX
  5
400
100
AcDbEntity
  8
0
100
AcDbVertex
100
AcDb2dVertex
 10
294.46309215
 20
136.47547526
 30
0.0
  0
VERTEX
  5
401
100
AcDbEntity
  8
0
100
AcDbVertex
100
AcDb2dVertex
 10
295.34397856
 20
136.36803608
 30
0.0
  0
VERTEX
  5
402
100
AcDbEntity
  8
0
100
AcDbVertex
100
AcDb2dVertex
 10
296.22495995
 20
136.26033195
 30
0.0
  0
VERTEX
  5
403
100
AcDbEntity
  8
0
100
AcDbVertex
100
AcDb2dVertex
 10
297.10604220
 20
136.15234161
 30
0.0
  0
VERTEX
  5
404
100
AcDbEntity
  8
0
100
AcDbVertex
100
AcDb2dVertex
 10
297.98723108
 20
136.04404040
 30
0.0
  0
VERTEX
  5
405
100
AcDbEntity
  8
0
100
AcDbVertex
100
AcDb2dVertex
 10
298.86853221
 20
135.93539985
 30
0.0
  0
VERTEX
  5
406
100
AcDbEntity
  8
0
100
AcDbVertex
100
AcDb2dVertex
 10
299.74995097
 20
135.82638698
 30
0.0
  0
VERTEX
  5
407
100
AcDbEntity
  8
0
100
AcDbVertex
100
AcDb2dVertex
 10
300.63149240
 20
135.71696369
 30
0.0
  0
VERTEX
  5
408
100
AcDbEntity
  8
0
100
AcDbVertex
100
AcDb2dVertex
 10
301.51316104
 20
135.60708589
 30
0.0
  0
VERTEX
  5
409
100
AcDbEntity
  8
0
100
AcDbVertex
100
AcDb2dVertex
 10
302.39496077
 20
135.49670253
 30
0.0
  0
VERTEX
  5
40A
100
AcDbEntity
  8
0
100
AcDbVertex
100
AcDb2dVertex
 10
303.27689456
 20
135.38575452
 30
0.0
  0
VERTEX
  5
40B
100
AcDbEntity
  8
0
100
AcDbVertex
100
AcDb2dVertex
 10
304.15896418
 20
135.27417334
 30
0.0
  0
VERTEX
  5
40C
100
AcDbEntity
  8
0
100
AcDbVertex
100
AcDb2dVertex
 10
305.04116981
 20
135.16187961
 30
0.0
  0
VERTEX
  5
40D
100
AcDbEntity
  8
0
100
AcDbVertex
100
AcDb2dVertex
 10
305.92350956
 20
135.04878123
 30
0.0
  0
VERTEX
  5
40E
100
AcDbEntity
  8
0
100
AcDbVertex
100
AcDb2dVertex
 10
306.80597882
 20
134.93477153
 30
0.0
  0
VERTEX
  5
40F
100
AcDbEntity
  8
0
100
AcDbVertex
100
AcDb2dVertex
 10
307.68856954
 20
134.81972698
 30
0.0
  0
VERTEX
  5
410
100
AcDbEntity
  8
0
100
AcDbVertex
100
AcDb2dVertex
 10
308.57126918
 20
134.70350489
 30
0.0
  0
VERTEX
  5
411
100
AcDbEntity
  8
0
100
AcDbVertex
100
AcDb2dVertex
 10
309.45405958
 20
134.58594105
 30
0.0
  0
VERTEX
  5
412
100
AcDbEntity
  8
0
100
AcDbVertex
100
AcDb2dVertex
 10
310.33691545
 20
134.46684746
 30
0.0
  0
VERTEX
  5
413
100
AcDbEntity
  8
0
100
AcDbVertex
100
AcDb2dVertex
 10
311.21980268
 20
134.34601064
 30
0.0
  0
VERTEX
  5
414
100
AcDbEntity
  8
0
100
AcDbVertex
100
AcDb2dVertex
 10
312.10267625
 20
134.22319094
 30
0.0
  0
VERTEX
  5
415
100
AcDbEntity
  8
0
100
AcDbVertex
100
AcDb2dVertex
 10
312.98549097
 20
134.09817125
 30
0.0
  0
VERTEX
  5
416
100
AcDbEntity
  8
0
100
AcDbVertex
100
AcDb2dVertex
 10
313.86845718
 20
133.97169734
 30
0.0
  0
VERTEX
  5
417
100
AcDbEntity
  8
0
100
AcDbVertex
100
AcDb2dVertex
 10
314.75166263
 20
133.84409389
 30
0.0
  0
VERTEX
  5
418
100
AcDbEntity
  8
0
100
AcDbVertex
100
AcDb2dVertex
 10
315.63509613
 20
133.71534911
 30
0.0
  0
VERTEX
  5
419
100
AcDbEntity
  8
0
100
AcDbVertex
100
AcDb2dVertex
 10
316.60178376
 20
133.57323427
 30
0.0
  0
SEQEND
  5
41A
100
AcDbEntity
  8
0
  0
POLYLINE
  5
41B
100
AcDbEntity
  8
0
100
AcDb2dPolyline
 66
     1
  0
VERTEX
  5
41C
100
AcDbEntity
  8
0
100
AcDbVertex
100
AcDb2dVertex
 10
354.37121546
 20
133.34207183
 30
0.0
  0
VERTEX
  5
41D
100
AcDbEntity
  8
0
100
AcDbVertex
100
AcDb2dVertex
 10
354.37121546
 20
131.77072343
 30
0.0
  0
VERTEX
  5
41E
100
AcDbEntity
  8
0
100
AcDbVertex
100
AcDb2dVertex
 10
345.41452956
 20
123.87166895
 30
0.0
  0
VERTEX
  5
41F
100
AcDbEntity
  8
0
100
AcDbVertex
100
AcDb2dVertex
 10
345.41452956
 20
125.44301735
 30
0.0
  0
SEQEND
  5
420
100
AcDbEntity
  8
0
  0
LINE
  5
421
100
AcDbEntity
  8
0
100
AcDbLine
 10
345.41452956
 20
123.87166895
 30
0.0
 11
341.97728226
 21
123.35445921
 31
0.0
  0
LINE
  5
422
100
AcDbEntity
  8
0
100
AcDbLine
  6
STRICHPUNKT2
 62
     1
 10
277.18815189
 20
212.35180045
 30
0.0
 11
276.12358377
 21
212.48592343
 31
0.0
  0
LINE
  5
423
100
AcDbEntity
  8
0
100
AcDbLine
  6
STRICHPUNKT2
 62
     1
 10
276.56454232
 20
212.43036787
 30
0.0
 11
277.27164911
 21
213.05397744
 31
0.0
  0
LINE
  5
424
100
AcDbEntity
  8
0
100
AcDbLine
  6
STRICHPUNKT2
 62
     1
 10
276.56454232
 20
212.43036787
 30
0.0
 11
275.85743554
 21
211.80675831
 31
0.0
  0
LINE
  5
425
100
AcDbEntity
  8
0
100
AcDbLine
  6
STRICHPUNKT2
 62
     1
 10
276.56454232
 20
212.43036787
 30
0.0
 11
276.56454232
 21
214.31598595
 31
0.0
  0
LINE
  5
426
100
AcDbEntity
  8
0
100
AcDbLine
  6
STRICHPUNKT2
 62
     1
 10
276.56454232
 20
212.43036787
 30
0.0
 11
276.56454232
 21
210.54474979
 31
0.0
  0
LINE
  5
427
100
AcDbEntity
  8
0
100
AcDbLine
  6
STRICHPUNKT2
 62
     1
 10
271.37169790
 20
206.90790052
 30
0.0
 11
269.77484573
 21
207.10908498
 31
0.0
  0
LINE
  5
428
100
AcDbEntity
  8
0
100
AcDbLine
  6
STRICHPUNKT2
 62
     1
 10
270.43628355
 20
207.02575165
 30
0.0
 11
271.49694373
 21
207.96116599
 31
0.0
  0
LINE
  5
429
100
AcDbEntity
  8
0
100
AcDbLine
  6
STRICHPUNKT2
 62
     1
 10
270.43628355
 20
207.02575165
 30
0.0
 11
269.37562338
 21
206.09033730
 31
0.0
  0
LINE
  5
42A
100
AcDbEntity
  8
0
100
AcDbLine
  6
STRICHPUNKT2
 62
     1
 10
270.43628355
 20
207.02575165
 30
0.0
 11
270.43628355
 21
209.85417877
 31
0.0
  0
LINE
  5
42B
100
AcDbEntity
  8
0
100
AcDbLine
  6
STRICHPUNKT2
 62
     1
 10
270.43628355
 20
207.02575165
 30
0.0
 11
270.43628355
 21
204.19732452
 31
0.0
  0
LINE
  5
42C
100
AcDbEntity
  8
0
100
AcDbLine
  6
STRICHPUNKT2
 62
     1
 10
277.77740754
 20
162.58832620
 30
0.0
 11
277.70783208
 21
162.59709189
 31
0.0
  0
LINE
  5
42D
100
AcDbEntity
  8
0
100
AcDbLine
  6
STRICHPUNKT2
 62
     1
 10
277.64249379
 20
163.09788283
 30
0.0
 11
277.86090476
 21
163.29050319
 31
0.0
  0
LINE
  5
42E
100
AcDbEntity
  8
0
100
AcDbLine
  6
STRICHPUNKT2
 62
     1
 10
275.21533924
 20
203.22660574
 30
0.0
 11
272.28777692
 21
203.59544393
 31
0.0
  0
LINE
  5
42F
100
AcDbEntity
  8
0
100
AcDbLine
  6
STRICHPUNKT2
 62
     1
 10
273.50041294
 20
203.44266615
 30
0.0
 11
275.44495659
 21
205.15759245
 31
0.0
  0
LINE
  5
430
100
AcDbEntity
  8
0
100
AcDbLine
  6
STRICHPUNKT2
 62
     1
 10
273.50041294
 20
203.44266615
 30
0.0
 11
271.55586929
 21
201.72773985
 31
0.0
  0
LINE
  5
431
100
AcDbEntity
  8
0
100
AcDbLine
  6
STRICHPUNKT2
 62
     1
 10
273.50041294
 20
203.44266615
 30
0.0
 11
273.50041294
 21
208.62811588
 31
0.0
  0
LINE
  5
432
100
AcDbEntity
  8
0
100
AcDbLine
  6
STRICHPUNKT2
 62
     1
 10
273.50041294
 20
203.44266615
 30
0.0
 11
273.50041294
 21
198.25721642
 31
0.0
  0
LINE
  5
433
100
AcDbEntity
  8
0
100
AcDbLine
  6
STRICHPUNKT2
 62
     1
 10
272.34571240
 20
203.99566440
 30
0.0
 11
273.23775146
 21
204.78236890
 31
0.0
  0
LINE
  5
434
100
AcDbEntity
  8
0
100
AcDbLine
  6
STRICHPUNKT2
 62
     1
 10
276.00964059
 20
195.59896715
 30
0.0
 11
274.94507247
 21
195.73309013
 31
0.0
  0
LINE
  5
435
100
AcDbEntity
  8
0
100
AcDbLine
  6
STRICHPUNKT2
 62
     1
 10
275.38603102
 20
195.67753457
 30
0.0
 11
276.09313780
 21
196.30114414
 31
0.0
  0
LINE
  5
436
100
AcDbEntity
  8
0
100
AcDbLine
  6
STRICHPUNKT2
 62
     1
 10
275.38603102
 20
195.67753457
 30
0.0
 11
274.67892424
 21
195.05392501
 31
0.0
  0
LINE
  5
437
100
AcDbEntity
  8
0
100
AcDbLine
  6
STRICHPUNKT2
 62
     1
 10
275.38603102
 20
195.67753457
 30
0.0
 11
275.38603102
 21
197.56315265
 31
0.0
  0
LINE
  5
438
100
AcDbEntity
  8
0
100
AcDbLine
  6
STRICHPUNKT2
 62
     1
 10
275.38603102
 20
195.67753457
 30
0.0
 11
275.38603102
 21
193.79191649
 31
0.0
  0
LINE
  5
439
100
AcDbEntity
  8
0
100
AcDbLine
  6
STRICHPUNKT2
 62
     1
 10
272.23840442
 20
192.27304947
 30
0.0
 11
271.17383630
 21
192.40717245
 31
0.0
  0
LINE
  5
43A
100
AcDbEntity
  8
0
100
AcDbLine
  6
STRICHPUNKT2
 62
     1
 10
271.61479486
 20
192.35161689
 30
0.0
 11
272.32190164
 21
192.97522646
 31
0.0
  0
LINE
  5
43B
100
AcDbEntity
  8
0
100
AcDbLine
  6
STRICHPUNKT2
 62
     1
 10
271.61479486
 20
192.35161689
 30
0.0
 11
270.90768808
 21
191.72800733
 31
0.0
  0
LINE
  5
43C
100
AcDbEntity
  8
0
100
AcDbLine
  6
STRICHPUNKT2
 62
     1
 10
271.61479486
 20
192.35161689
 30
0.0
 11
271.61479486
 21
194.23723498
 31
0.0
  0
LINE
  5
43D
100
AcDbEntity
  8
0
100
AcDbLine
  6
STRICHPUNKT2
 62
     1
 10
271.61479486
 20
192.35161689
 30
0.0
 11
271.61479486
 21
190.46599881
 31
0.0
  0
LINE
  5
43E
100
AcDbEntity
  8
0
100
AcDbLine
  6
STRICHPUNKT2
 62
     1
 10
271.05989312
 20
175.52021617
 30
0.0
 11
269.99532500
 21
175.65433915
 31
0.0
  0
LINE
  5
43F
100
AcDbEntity
  8
0
100
AcDbLine
  6
STRICHPUNKT2
 62
     1
 10
270.43628355
 20
175.59878359
 30
0.0
 11
271.14339034
 21
176.22239316
 31
0.0
  0
LINE
  5
440
100
AcDbEntity
  8
0
100
AcDbLine
  6
STRICHPUNKT2
 62
     1
 10
270.43628355
 20
175.59878359
 30
0.0
 11
269.72917677
 21
174.97517403
 31
0.0
  0
LINE
  5
441
100
AcDbEntity
  8
0
100
AcDbLine
  6
STRICHPUNKT2
 62
     1
 10
270.43628355
 20
175.59878359
 30
0.0
 11
270.43628355
 21
177.48440168
 31
0.0
  0
LINE
  5
442
100
AcDbEntity
  8
0
100
AcDbLine
  6
STRICHPUNKT2
 62
     1
 10
270.43628355
 20
175.59878359
 30
0.0
 11
270.43628355
 21
173.71316551
 31
0.0
  0
LINE
  5
443
100
AcDbEntity
  8
0
100
AcDbLine
  6
STRICHPUNKT2
 62
     1
 10
277.49995667
 20
180.88554869
 30
0.0
 11
275.90310450
 21
181.08673315
 31
0.0
  0
LINE
  5
444
100
AcDbEntity
  8
0
100
AcDbLine
  6
STRICHPUNKT2
 62
     1
 10
276.56454232
 20
181.00339982
 30
0.0
 11
277.62520250
 21
181.93881417
 31
0.0
  0
LINE
  5
445
100
AcDbEntity
  8
0
100
AcDbLine
  6
STRICHPUNKT2
 62
     1
 10
276.56454232
 20
181.00339982
 30
0.0
 11
275.50388215
 21
180.06798547
 31
0.0
  0
LINE
  5
446
100
AcDbEntity
  8
0
100
AcDbLine
  6
STRICHPUNKT2
 62
     1
 10
276.56454232
 20
181.00339982
 30
0.0
 11
276.56454232
 21
183.83182694
 31
0.0
  0
LINE
  5
447
100
AcDbEntity
  8
0
100
AcDbLine
  6
STRICHPUNKT2
 62
     1
 10
276.56454232
 20
181.00339982
 30
0.0
 11
276.56454232
 21
178.17497269
 31
0.0
  0
LINE
  5
448
100
AcDbEntity
  8
0
100
AcDbLine
  6
STRICHPUNKT2
 62
     1
 10
267.46243173
 20
156.52335900
 30
0.0
 11
267.35258965
 21
156.53719781
 31
0.0
  0
LINE
  5
449
100
AcDbEntity
  8
0
100
AcDbLine
  6
STRICHPUNKT2
 62
     1
 10
270.78244225
 20
156.10507699
 30
0.0
 11
269.18559008
 21
156.30626146
 31
0.0
  0
LINE
  5
44A
100
AcDbEntity
  8
0
100
AcDbLine
  6
STRICHPUNKT2
 62
     1
 10
269.84702790
 20
156.22292812
 30
0.0
 11
270.90768808
 21
157.15834247
 31
0.0
  0
LINE
  5
44B
100
AcDbEntity
  8
0
100
AcDbLine
  6
STRICHPUNKT2
 62
     1
 10
269.84702790
 20
156.22292812
 30
0.0
 11
268.78636773
 21
155.28751378
 31
0.0
  0
LINE
  5
44C
100
AcDbEntity
  8
0
100
AcDbLine
  6
STRICHPUNKT2
 62
     1
 10
269.84702790
 20
156.22292812
 30
0.0
 11
269.84702790
 21
159.05135525
 31
0.0
  0
LINE
  5
44D
100
AcDbEntity
  8
0
100
AcDbLine
  6
STRICHPUNKT2
 62
     1
 10
269.84702790
 20
156.22292812
 30
0.0
 11
269.84702790
 21
153.39450100
 31
0.0
  0
LINE
  5
44E
100
AcDbEntity
  8
0
100
AcDbLine
  6
STRICHPUNKT2
 62
     1
 10
267.50588108
 20
155.72957910
 30
0.0
 11
267.22734382
 21
155.48393233
 31
0.0
  0
LINE
  5
44F
100
AcDbEntity
  8
0
100
AcDbLine
  6
STRICHPUNKT2
 62
     1
 10
340.59264748
 20
128.10445004
 30
0.0
 11
340.59264748
 21
127.03146624
 31
0.0
  0
LINE
  5
450
100
AcDbEntity
  8
0
100
AcDbLine
  6
STRICHPUNKT2
 62
     1
 10
340.59264748
 20
127.47591068
 30
0.0
 11
342.46347617
 21
127.24020842
 31
0.0
  0
LINE
  5
451
100
AcDbEntity
  8
0
100
AcDbLine
  6
STRICHPUNKT2
 62
     1
 10
340.59264748
 20
127.47591068
 30
0.0
 11
338.72181879
 21
127.71161294
 31
0.0
  0
LINE
  5
452
100
AcDbEntity
  8
0
100
AcDbLine
  6
STRICHPUNKT2
 62
     1
 10
340.59264748
 20
127.47591068
 30
0.0
 11
341.29975426
 21
128.09952024
 31
0.0
  0
LINE
  5
453
100
AcDbEntity
  8
0
100
AcDbLine
  6
STRICHPUNKT2
 62
     1
 10
340.59264748
 20
127.47591068
 30
0.0
 11
339.88554070
 21
126.85230112
 31
0.0
  0
LINE
  5
454
100
AcDbEntity
  8
0
100
AcDbLine
  6
STRICHPUNKT2
 62
     1
 10
346.72090625
 20
133.82333595
 30
0.0
 11
346.72090625
 21
132.21386024
 31
0.0
  0
LINE
  5
455
100
AcDbEntity
  8
0
100
AcDbLine
  6
STRICHPUNKT2
 62
     1
 10
346.72090625
 20
132.88052690
 30
0.0
 11
349.52714929
 21
132.52697351
 31
0.0
  0
LINE
  5
456
100
AcDbEntity
  8
0
100
AcDbLine
  6
STRICHPUNKT2
 62
     1
 10
346.72090625
 20
132.88052690
 30
0.0
 11
343.91466321
 21
133.23408030
 31
0.0
  0
LINE
  5
457
100
AcDbEntity
  8
0
100
AcDbLine
  6
STRICHPUNKT2
 62
     1
 10
346.72090625
 20
132.88052690
 30
0.0
 11
347.78156642
 21
133.81594125
 31
0.0
  0
LINE
  5
458
100
AcDbEntity
  8
0
100
AcDbLine
  6
STRICHPUNKT2
 62
     1
 10
346.72090625
 20
132.88052690
 30
0.0
 11
345.66024608
 21
131.94511256
 31
0.0
  0
LINE
  5
459
100
AcDbEntity
  8
0
100
AcDbLine
  6
STRICHPUNKT2
 62
     1
 10
341.16233861
 20
132.06383688
 30
0.0
 11
341.16233861
 21
129.38137736
 31
0.0
  0
LINE
  5
45A
100
AcDbEntity
  8
0
100
AcDbLine
  6
STRICHPUNKT2
 62
     1
 10
339.39457165
 20
128.93346456
 30
0.0
 11
342.93010556
 21
132.05151238
 31
0.0
  0
LINE
  5
45B
100
AcDbEntity
  8
0
100
AcDbLine
  6
STRICHPUNKT2
 62
     1
 10
330.24917123
 20
131.86741832
 30
0.0
 11
345.83941034
 21
129.90323282
 31
0.0
  0
LINE
  5
45C
100
AcDbEntity
  8
0
100
AcDbLine
  6
STRICHPUNKT2
 62
     1
 10
341.70074179
 20
129.39596705
 30
0.0
 11
342.34084991
 21
129.96048934
 31
0.0
  0
LINE
  5
45D
100
AcDbEntity
  8
0
100
AcDbLine
  6
STRICHPUNKT2
 62
     1
 10
334.92624296
 20
132.84951108
 30
0.0
 11
334.92624296
 21
130.09033493
 31
0.0
  0
LINE
  5
45E
100
AcDbEntity
  8
0
100
AcDbLine
  6
STRICHPUNKT2
 62
     1
 10
335.30675557
 20
130.04239485
 30
0.0
 11
336.10475426
 21
130.74616355
 31
0.0
  0
LINE
  5
45F
100
AcDbEntity
  8
0
100
AcDbLine
  6
STRICHPUNKT2
 62
     1
 10
333.15847601
 20
129.71913876
 30
0.0
 11
336.69400991
 21
132.83718659
 31
0.0
  0
LINE
  5
460
100
AcDbEntity
  8
0
100
AcDbLine
  6
STRICHPUNKT2
 62
     1
 10
329.95215584
 20
134.43390250
 30
0.0
 11
329.95215584
 21
133.36091869
 31
0.0
  0
LINE
  5
461
100
AcDbEntity
  8
0
100
AcDbLine
  6
STRICHPUNKT2
 62
     1
 10
329.95215584
 20
133.80536313
 30
0.0
 11
331.82298453
 21
133.56966087
 31
0.0
  0
LINE
  5
462
100
AcDbEntity
  8
0
100
AcDbLine
  6
STRICHPUNKT2
 62
     1
 10
329.95215584
 20
133.80536313
 30
0.0
 11
328.08132714
 21
134.04106539
 31
0.0
  0
LINE
  5
463
100
AcDbEntity
  8
0
100
AcDbLine
  6
STRICHPUNKT2
 62
     1
 10
329.95215584
 20
133.80536313
 30
0.0
 11
330.65926262
 21
134.42897270
 31
0.0
  0
LINE
  5
464
100
AcDbEntity
  8
0
100
AcDbLine
  6
STRICHPUNKT2
 62
     1
 10
329.95215584
 20
133.80536313
 30
0.0
 11
329.24504905
 21
133.18175357
 31
0.0
  0
LINE
  5
465
100
AcDbEntity
  8
0
100
AcDbLine
  6
STRICHPUNKT2
 62
     1
 10
326.18091967
 20
131.10798482
 30
0.0
 11
326.18091967
 21
130.03500101
 31
0.0
  0
LINE
  5
466
100
AcDbEntity
  8
0
100
AcDbLine
  6
STRICHPUNKT2
 62
     1
 10
326.18091967
 20
130.47944546
 30
0.0
 11
328.05174836
 21
130.24374320
 31
0.0
  0
LINE
  5
467
100
AcDbEntity
  8
0
100
AcDbLine
  6
STRICHPUNKT2
 62
     1
 10
326.18091967
 20
130.47944546
 30
0.0
 11
324.31009098
 21
130.71514772
 31
0.0
  0
LINE
  5
468
100
AcDbEntity
  8
0
100
AcDbLine
  6
STRICHPUNKT2
 62
     1
 10
326.18091967
 20
130.47944546
 30
0.0
 11
326.88802645
 21
131.10305502
 31
0.0
  0
LINE
  5
469
100
AcDbEntity
  8
0
100
AcDbLine
  6
STRICHPUNKT2
 62
     1
 10
326.18091967
 20
130.47944546
 30
0.0
 11
325.47381289
 21
129.85583589
 31
0.0
  0
LINE
  5
46A
100
AcDbEntity
  8
0
100
AcDbLine
  6
STRICHPUNKT2
 62
     1
 10
315.54042803
 20
137.43743727
 30
0.0
 11
315.54042803
 21
136.36445347
 31
0.0
  0
LINE
  5
46B
100
AcDbEntity
  8
0
100
AcDbLine
  6
STRICHPUNKT2
 62
     1
 10
315.54042803
 20
136.80889791
 30
0.0
 11
317.41125672
 21
136.57319565
 31
0.0
  0
LINE
  5
46C
100
AcDbEntity
  8
0
100
AcDbLine
  6
STRICHPUNKT2
 62
     1
 10
315.54042803
 20
136.80889791
 30
0.0
 11
313.66959933
 21
137.04460017
 31
0.0
  0
LINE
  5
46D
100
AcDbEntity
  8
0
100
AcDbLine
  6
STRICHPUNKT2
 62
     1
 10
315.54042803
 20
136.80889791
 30
0.0
 11
316.24753481
 21
137.43250748
 31
0.0
  0
LINE
  5
46E
100
AcDbEntity
  8
0
100
AcDbLine
  6
STRICHPUNKT2
 62
     1
 10
315.54042803
 20
136.80889791
 30
0.0
 11
314.83332124
 21
136.18528835
 31
0.0
  0
LINE
  5
46F
100
AcDbEntity
  8
0
100
AcDbLine
  6
STRICHPUNKT2
 62
     1
 10
309.41216926
 20
132.34709073
 30
0.0
 11
309.41216926
 21
130.73761502
 31
0.0
  0
LINE
  5
470
100
AcDbEntity
  8
0
100
AcDbLine
  6
STRICHPUNKT2
 62
     1
 10
309.41216926
 20
131.40428169
 30
0.0
 11
312.21841230
 21
131.05072830
 31
0.0
  0
LINE
  5
471
100
AcDbEntity
  8
0
100
AcDbLine
  6
STRICHPUNKT2
 62
     1
 10
309.41216926
 20
131.40428169
 30
0.0
 11
306.60592622
 21
131.75783508
 31
0.0
  0
LINE
  5
472
100
AcDbEntity
  8
0
100
AcDbLine
  6
STRICHPUNKT2
 62
     1
 10
309.41216926
 20
131.40428169
 30
0.0
 11
310.47282943
 21
132.33969603
 31
0.0
  0
LINE
  5
473
100
AcDbEntity
  8
0
100
AcDbLine
  6
STRICHPUNKT2
 62
     1
 10
309.41216926
 20
131.40428169
 30
0.0
 11
308.35150908
 21
130.46886734
 31
0.0
  0
LINE
  5
474
100
AcDbEntity
  8
0
100
AcDbLine
  6
STRICHPUNKT2
 62
     1
 10
290.11462667
 20
133.87016901
 30
0.0
 11
290.11462667
 21
132.79718521
 31
0.0
  0
LINE
  5
475
100
AcDbEntity
  8
0
100
AcDbLine
  6
STRICHPUNKT2
 62
     1
 10
290.11462667
 20
133.24162965
 30
0.0
 11
291.98545536
 21
133.00592739
 31
0.0
  0
LINE
  5
476
100
AcDbEntity
  8
0
100
AcDbLine
  6
STRICHPUNKT2
 62
     1
 10
290.11462667
 20
133.24162965
 30
0.0
 11
288.24379798
 21
133.47733191
 31
0.0
  0
LINE
  5
477
100
AcDbEntity
  8
0
100
AcDbLine
  6
STRICHPUNKT2
 62
     1
 10
290.11462667
 20
133.24162965
 30
0.0
 11
290.82173345
 21
133.86523922
 31
0.0
  0
LINE
  5
478
100
AcDbEntity
  8
0
100
AcDbLine
  6
STRICHPUNKT2
 62
     1
 10
290.11462667
 20
133.24162965
 30
0.0
 11
289.40751989
 21
132.61802009
 31
0.0
  0
LINE
  5
479
100
AcDbEntity
  8
0
100
AcDbLine
  6
STRICHPUNKT2
 62
     1
 10
297.42139674
 20
140.62840419
 30
0.0
 11
297.42139674
 21
140.24400928
 31
0.0
  0
LINE
  5
47A
100
AcDbEntity
  8
0
100
AcDbLine
  6
STRICHPUNKT2
 62
     1
 10
297.91009277
 20
140.11658453
 30
0.0
 11
298.48205691
 21
140.62100950
 31
0.0
  0
POLYLINE
  5
47B
100
AcDbEntity
  8
0
100
AcDb2dPolyline
 66
     1
  0
VERTEX
  5
47C
100
AcDbEntity
  8
0
100
AcDbVertex
100
AcDb2dVertex
 10
8.37581475
 20
7.30091913
 30
0.0
  0
VERTEX
  5
47D
100
AcDbEntity
  8
0
100
AcDbVertex
100
AcDb2dVertex
 10
8.41394513
 20
6.68530158
 30
0.0
  0
VERTEX
  5
47E
100
AcDbEntity
  8
0
100
AcDbVertex
100
AcDb2dVertex
 10
8.52120673
 20
6.10416987
 30
0.0
  0
VERTEX
  5
47F
100
AcDbEntity
  8
0
100
AcDbVertex
100
AcDb2dVertex
 10
8.61379021
 20
5.77648643
 30
0.0
  0
VERTEX
  5
480
100
AcDbEntity
  8
0
100
AcDbVertex
100
AcDb2dVertex
 10
8.82654536
 20
5.22514367
 30
0.0
  0
VERTEX
  5
481
100
AcDbEntity
  8
0
100
AcDbVertex
100
AcDb2dVertex
 10
8.97648817
 20
4.92292361
 30
0.0
  0
VERTEX
  5
482
100
AcDbEntity
  8
0
100
AcDbVertex
100
AcDb2dVertex
 10
9.28756499
 20
4.41876046
 30
0.0
  0
VERTEX
  5
483
100
AcDbEntity
  8
0
100
AcDbVertex
100
AcDb2dVertex
 10
9.48741806
 20
4.15275781
 30
0.0
  0
VERTEX
  5
484
100
AcDbEntity
  8
0
100
AcDbVertex
100
AcDb2dVertex
 10
9.88568643
 20
3.71299448
 30
0.0
  0
VERTEX
  5
485
100
AcDbEntity
  8
0
100
AcDbVertex
100
AcDb2dVertex
 10
9.98302194
 20
3.61991355
 30
0.0
  0
VERTEX
  5
486
100
AcDbEntity
  8
0
100
AcDbVertex
100
AcDb2dVertex
 10
9.92141310
 20
3.55830405
 30
0.0
  0
VERTEX
  5
487
100
AcDbEntity
  8
0
100
AcDbVertex
100
AcDb2dVertex
 10
9.79985525
 20
3.43674387
 30
0.0
  0
VERTEX
  5
488
100
AcDbEntity
  8
0
100
AcDbVertex
100
AcDb2dVertex
 10
9.74014094
 20
3.37702777
 30
0.0
  0
VERTEX
  5
489
100
AcDbEntity
  8
0
100
AcDbVertex
100
AcDb2dVertex
 10
9.62341646
 20
3.26029808
 30
0.0
  0
VERTEX
  5
48A
100
AcDbEntity
  8
0
100
AcDbVertex
100
AcDb2dVertex
 10
9.56663052
 20
3.20350856
 30
0.0
  0
VERTEX
  5
48B
100
AcDbEntity
  8
0
100
AcDbVertex
100
AcDb2dVertex
 10
9.45675482
 20
3.09362330
 30
0.0
  0
VERTEX
  5
48C
100
AcDbEntity
  8
0
100
AcDbVertex
100
AcDb2dVertex
 10
9.40387480
 20
3.04073707
 30
0.0
  0
VERTEX
  5
48D
100
AcDbEntity
  8
0
100
AcDbVertex
100
AcDb2dVertex
 10
9.30273315
 20
2.93957951
 30
0.0
  0
VERTEX
  5
48E
100
AcDbEntity
  8
0
100
AcDbVertex
100
AcDb2dVertex
 10
9.25466312
 20
2.89149946
 30
0.0
  0
VERTEX
  5
48F
100
AcDbEntity
  8
0
100
AcDbVertex
100
AcDb2dVertex
 10
9.12153296
 20
2.75832852
 30
0.0
  0
VERTEX
  5
490
100
AcDbEntity
  8
0
100
AcDbVertex
100
AcDb2dVertex
 10
9.08112686
 20
2.71790434
 30
0.0
  0
VERTEX
  5
491
100
AcDbEntity
  8
0
100
AcDbVertex
100
AcDb2dVertex
 10
8.94133180
 20
2.57800203
 30
0.0
  0
VERTEX
  5
492
100
AcDbEntity
  8
0
100
AcDbVertex
100
AcDb2dVertex
 10
8.76240456
 20
2.39359023
 30
0.0
  0
SEQEND
  5
493
100
AcDbEntity
  8
0
  0
POLYLINE
  5
494
100
AcDbEntity
  8
0
100
AcDb2dPolyline
 66
     1
  0
VERTEX
  5
495
100
AcDbEntity
  8
0
100
AcDbVertex
100
AcDb2dVertex
 10
8.37581475
 20
7.30091913
 30
0.0
  0
VERTEX
  5
496
100
AcDbEntity
  8
0
100
AcDbVertex
100
AcDb2dVertex
 10
7.73757790
 20
7.30596330
 30
0.0
  0
VERTEX
  5
497
100
AcDbEntity
  8
0
100
AcDbVertex
100
AcDb2dVertex
 10
6.97219922
 20
7.32301434
 30
0.0
  0
VERTEX
  5
498
100
AcDbEntity
  8
0
100
AcDbVertex
100
AcDb2dVertex
 10
6.70852596
 20
7.34540238
 30
0.0
  0
SEQEND
  5
499
100
AcDbEntity
  8
0
  0
POLYLINE
  5
49A
100
AcDbEntity
  8
0
100
AcDb2dPolyline
 66
     1
  0
VERTEX
  5
49B
100
AcDbEntity
  8
0
100
AcDbVertex
100
AcDb2dVertex
 10
7.61636082
 20
70.39083419
 30
0.0
  0
VERTEX
  5
49C
100
AcDbEntity
  8
0
100
AcDbVertex
100
AcDb2dVertex
 10
7.86510641
 20
63.98099307
 30
0.0
  0
VERTEX
  5
49D
100
AcDbEntity
  8
0
100
AcDbVertex
100
AcDb2dVertex
 10
8.02362087
 20
58.20282218
 30
0.0
  0
VERTEX
  5
49E
100
AcDbEntity
  8
0
100
AcDbVertex
100
AcDb2dVertex
 10
8.14686198
 20
51.36543935
 30
0.0
  0
VERTEX
  5
49F
100
AcDbEntity
  8
0
100
AcDbVertex
100
AcDb2dVertex
 10
8.17377571
 20
49.38984948
 30
0.0
  0
VERTEX
  5
4A0
100
AcDbEntity
  8
0
100
AcDbVertex
100
AcDb2dVertex
 10
8.26946908
 20
39.71859463
 30
0.0
  0
VERTEX
  5
4A1
100
AcDbEntity
  8
0
100
AcDbVertex
100
AcDb2dVertex
 10
8.34019683
 20
26.53506240
 30
0.0
  0
VERTEX
  5
4A2
100
AcDbEntity
  8
0
100
AcDbVertex
100
AcDb2dVertex
 10
8.37581475
 20
7.30091913
 30
0.0
  0
SEQEND
  5
4A3
100
AcDbEntity
  8
0
  0
LINE
  5
4A4
100
AcDbEntity
  8
0
100
AcDbLine
 10
8.88040532
 20
70.55983614
 30
0.0
 11
7.61636082
 21
70.39083419
 31
0.0
  0
POLYLINE
  5
4A5
100
AcDbEntity
  8
0
100
AcDb2dPolyline
 62
    55
 66
     1
  0
VERTEX
  5
4A6
100
AcDbEntity
  8
0
100
AcDbVertex
100
AcDb2dVertex
 10
8.88040532
 20
70.55983614
 30
0.0
  0
VERTEX
  5
4A7
100
AcDbEntity
  8
0
100
AcDbVertex
100
AcDb2dVertex
 10
16.90479211
 20
10.54166850
 30
0.0
  0
SEQEND
  5
4A8
100
AcDbEntity
  8
0
  0
POLYLINE
  5
4A9
100
AcDbEntity
  8
0
100
AcDb2dPolyline
 66
     1
  0
VERTEX
  5
4AA
100
AcDbEntity
  8
0
100
AcDbVertex
100
AcDb2dVertex
 10
16.90479211
 20
10.54166850
 30
0.0
  0
VERTEX
  5
4AB
100
AcDbEntity
  8
0
100
AcDbVertex
100
AcDb2dVertex
 10
9.98302194
 20
3.61991355
 30
0.0
  0
VERTEX
  5
4AC
100
AcDbEntity
  8
0
100
AcDbVertex
100
AcDb2dVertex
 10
10.41415115
 20
3.20831538
 30
0.0
  0
VERTEX
  5
4AD
100
AcDbEntity
  8
0
100
AcDbVertex
100
AcDb2dVertex
 10
10.88965097
 20
2.85096440
 30
0.0
  0
VERTEX
  5
4AE
100
AcDbEntity
  8
0
100
AcDbVertex
100
AcDb2dVertex
 10
11.13206274
 20
2.69981873
 30
0.0
  0
VERTEX
  5
4AF
100
AcDbEntity
  8
0
100
AcDbVertex
100
AcDb2dVertex
 10
11.66118673
 20
2.43092101
 30
0.0
  0
VERTEX
  5
4B0
100
AcDbEntity
  8
0
100
AcDbVertex
100
AcDb2dVertex
 10
12.21747291
 20
2.22651144
 30
0.0
  0
VERTEX
  5
4B1
100
AcDbEntity
  8
0
100
AcDbVertex
100
AcDb2dVertex
 10
12.79404251
 20
2.08903229
 30
0.0
  0
VERTEX
  5
4B2
100
AcDbEntity
  8
0
100
AcDbVertex
100
AcDb2dVertex
 10
12.91220401
 20
2.06962692
 30
0.0
  0
VERTEX
  5
4B3
100
AcDbEntity
  8
0
100
AcDbVertex
100
AcDb2dVertex
 10
13.50122857
 20
2.01539266
 30
0.0
  0
VERTEX
  5
4B4
100
AcDbEntity
  8
0
100
AcDbVertex
100
AcDb2dVertex
 10
13.66404270
 20
2.01269117
 30
0.0
  0
VERTEX
  5
4B5
100
AcDbEntity
  8
0
100
AcDbVertex
100
AcDb2dVertex
 10
13.77401041
 20
2.01265899
 30
0.0
  0
VERTEX
  5
4B6
100
AcDbEntity
  8
0
100
AcDbVertex
100
AcDb2dVertex
 10
14.47379899
 20
2.01241089
 30
0.0
  0
VERTEX
  5
4B7
100
AcDbEntity
  8
0
100
AcDbVertex
100
AcDb2dVertex
 10
15.17357724
 20
2.01208792
 30
0.0
  0
VERTEX
  5
4B8
100
AcDbEntity
  8
0
100
AcDbVertex
100
AcDb2dVertex
 10
15.87334506
 20
2.01168994
 30
0.0
  0
VERTEX
  5
4B9
100
AcDbEntity
  8
0
100
AcDbVertex
100
AcDb2dVertex
 10
16.57310234
 20
2.01121673
 30
0.0
  0
VERTEX
  5
4BA
100
AcDbEntity
  8
0
100
AcDbVertex
100
AcDb2dVertex
 10
17.27284896
 20
2.01066802
 30
0.0
  0
VERTEX
  5
4BB
100
AcDbEntity
  8
0
100
AcDbVertex
100
AcDb2dVertex
 10
17.97258479
 20
2.01004344
 30
0.0
  0
VERTEX
  5
4BC
100
AcDbEntity
  8
0
100
AcDbVertex
100
AcDb2dVertex
 10
18.67230968
 20
2.00934257
 30
0.0
  0
VERTEX
  5
4BD
100
AcDbEntity
  8
0
100
AcDbVertex
100
AcDb2dVertex
 10
19.37202347
 20
2.00856489
 30
0.0
  0
VERTEX
  5
4BE
100
AcDbEntity
  8
0
100
AcDbVertex
100
AcDb2dVertex
 10
20.07172601
 20
2.00770982
 30
0.0
  0
VERTEX
  5
4BF
100
AcDbEntity
  8
0
100
AcDbVertex
100
AcDb2dVertex
 10
20.77141711
 20
2.00677670
 30
0.0
  0
VERTEX
  5
4C0
100
AcDbEntity
  8
0
100
AcDbVertex
100
AcDb2dVertex
 10
21.47109659
 20
2.00576479
 30
0.0
  0
VERTEX
  5
4C1
100
AcDbEntity
  8
0
100
AcDbVertex
100
AcDb2dVertex
 10
22.17076423
 20
2.00467326
 30
0.0
  0
VERTEX
  5
4C2
100
AcDbEntity
  8
0
100
AcDbVertex
100
AcDb2dVertex
 10
22.87041983
 20
2.00350123
 30
0.0
  0
VERTEX
  5
4C3
100
AcDbEntity
  8
0
100
AcDbVertex
100
AcDb2dVertex
 10
23.57006315
 20
2.00224768
 30
0.0
  0
VERTEX
  5
4C4
100
AcDbEntity
  8
0
100
AcDbVertex
100
AcDb2dVertex
 10
24.26969396
 20
2.00091157
 30
0.0
  0
VERTEX
  5
4C5
100
AcDbEntity
  8
0
100
AcDbVertex
100
AcDb2dVertex
 10
24.96931199
 20
1.99949171
 30
0.0
  0
VERTEX
  5
4C6
100
AcDbEntity
  8
0
100
AcDbVertex
100
AcDb2dVertex
 10
25.66891698
 20
1.99798686
 30
0.0
  0
VERTEX
  5
4C7
100
AcDbEntity
  8
0
100
AcDbVertex
100
AcDb2dVertex
 10
26.36850863
 20
1.99639566
 30
0.0
  0
VERTEX
  5
4C8
100
AcDbEntity
  8
0
100
AcDbVertex
100
AcDb2dVertex
 10
27.06808664
 20
1.99471668
 30
0.0
  0
VERTEX
  5
4C9
100
AcDbEntity
  8
0
100
AcDbVertex
100
AcDb2dVertex
 10
27.76765070
 20
1.99294835
 30
0.0
  0
VERTEX
  5
4CA
100
AcDbEntity
  8
0
100
AcDbVertex
100
AcDb2dVertex
 10
28.46720046
 20
1.99108903
 30
0.0
  0
VERTEX
  5
4CB
100
AcDbEntity
  8
0
100
AcDbVertex
100
AcDb2dVertex
 10
29.16673556
 20
1.98913696
 30
0.0
  0
VERTEX
  5
4CC
100
AcDbEntity
  8
0
100
AcDbVertex
100
AcDb2dVertex
 10
29.86625563
 20
1.98709025
 30
0.0
  0
VERTEX
  5
4CD
100
AcDbEntity
  8
0
100
AcDbVertex
100
AcDb2dVertex
 10
30.56576028
 20
1.98494692
 30
0.0
  0
VERTEX
  5
4CE
100
AcDbEntity
  8
0
100
AcDbVertex
100
AcDb2dVertex
 10
31.26524908
 20
1.98270483
 30
0.0
  0
VERTEX
  5
4CF
100
AcDbEntity
  8
0
100
AcDbVertex
100
AcDb2dVertex
 10
31.96472159
 20
1.98036173
 30
0.0
  0
VERTEX
  5
4D0
100
AcDbEntity
  8
0
100
AcDbVertex
100
AcDb2dVertex
 10
32.66417735
 20
1.97791525
 30
0.0
  0
VERTEX
  5
4D1
100
AcDbEntity
  8
0
100
AcDbVertex
100
AcDb2dVertex
 10
33.36361587
 20
1.97536284
 30
0.0
  0
VERTEX
  5
4D2
100
AcDbEntity
  8
0
100
AcDbVertex
100
AcDb2dVertex
 10
34.06303663
 20
1.97270183
 30
0.0
  0
VERTEX
  5
4D3
100
AcDbEntity
  8
0
100
AcDbVertex
100
AcDb2dVertex
 10
34.76243909
 20
1.96992938
 30
0.0
  0
VERTEX
  5
4D4
100
AcDbEntity
  8
0
100
AcDbVertex
100
AcDb2dVertex
 10
35.46182267
 20
1.96704249
 30
0.0
  0
VERTEX
  5
4D5
100
AcDbEntity
  8
0
100
AcDbVertex
100
AcDb2dVertex
 10
36.16118678
 20
1.96403798
 30
0.0
  0
VERTEX
  5
4D6
100
AcDbEntity
  8
0
100
AcDbVertex
100
AcDb2dVertex
 10
36.86053077
 20
1.96091248
 30
0.0
  0
VERTEX
  5
4D7
100
AcDbEntity
  8
0
100
AcDbVertex
100
AcDb2dVertex
 10
37.55985397
 20
1.95766245
 30
0.0
  0
VERTEX
  5
4D8
100
AcDbEntity
  8
0
100
AcDbVertex
100
AcDb2dVertex
 10
38.25915568
 20
1.95428410
 30
0.0
  0
VERTEX
  5
4D9
100
AcDbEntity
  8
0
100
AcDbVertex
100
AcDb2dVertex
 10
38.95843513
 20
1.95077347
 30
0.0
  0
VERTEX
  5
4DA
100
AcDbEntity
  8
0
100
AcDbVertex
100
AcDb2dVertex
 10
39.65769156
 20
1.94712634
 30
0.0
  0
VERTEX
  5
4DB
100
AcDbEntity
  8
0
100
AcDbVertex
100
AcDb2dVertex
 10
40.35692411
 20
1.94333826
 30
0.0
  0
VERTEX
  5
4DC
100
AcDbEntity
  8
0
100
AcDbVertex
100
AcDb2dVertex
 10
41.05613190
 20
1.93940451
 30
0.0
  0
VERTEX
  5
4DD
100
AcDbEntity
  8
0
100
AcDbVertex
100
AcDb2dVertex
 10
41.75531402
 20
1.93532011
 30
0.0
  0
VERTEX
  5
4DE
100
AcDbEntity
  8
0
100
AcDbVertex
100
AcDb2dVertex
 10
42.45446946
 20
1.93107977
 30
0.0
  0
VERTEX
  5
4DF
100
AcDbEntity
  8
0
100
AcDbVertex
100
AcDb2dVertex
 10
43.15359718
 20
1.92667791
 30
0.0
  0
VERTEX
  5
4E0
100
AcDbEntity
  8
0
100
AcDbVertex
100
AcDb2dVertex
 10
43.85269609
 20
1.92210860
 30
0.0
  0
VERTEX
  5
4E1
100
AcDbEntity
  8
0
100
AcDbVertex
100
AcDb2dVertex
 10
44.55176500
 20
1.91736556
 30
0.0
  0
VERTEX
  5
4E2
100
AcDbEntity
  8
0
100
AcDbVertex
100
AcDb2dVertex
 10
45.25080269
 20
1.91244216
 30
0.0
  0
VERTEX
  5
4E3
100
AcDbEntity
  8
0
100
AcDbVertex
100
AcDb2dVertex
 10
45.94980783
 20
1.90733133
 30
0.0
  0
VERTEX
  5
4E4
100
AcDbEntity
  8
0
100
AcDbVertex
100
AcDb2dVertex
 10
46.64877903
 20
1.90202562
 30
0.0
  0
VERTEX
  5
4E5
100
AcDbEntity
  8
0
100
AcDbVertex
100
AcDb2dVertex
 10
47.34771482
 20
1.89651708
 30
0.0
  0
VERTEX
  5
4E6
100
AcDbEntity
  8
0
100
AcDbVertex
100
AcDb2dVertex
 10
48.04661361
 20
1.89079730
 30
0.0
  0
VERTEX
  5
4E7
100
AcDbEntity
  8
0
100
AcDbVertex
100
AcDb2dVertex
 10
48.74547373
 20
1.88485734
 30
0.0
  0
VERTEX
  5
4E8
100
AcDbEntity
  8
0
100
AcDbVertex
100
AcDb2dVertex
 10
49.44429341
 20
1.87868771
 30
0.0
  0
VERTEX
  5
4E9
100
AcDbEntity
  8
0
100
AcDbVertex
100
AcDb2dVertex
 10
50.14307076
 20
1.87227833
 30
0.0
  0
VERTEX
  5
4EA
100
AcDbEntity
  8
0
100
AcDbVertex
100
AcDb2dVertex
 10
50.84180375
 20
1.86561845
 30
0.0
  0
VERTEX
  5
4EB
100
AcDbEntity
  8
0
100
AcDbVertex
100
AcDb2dVertex
 10
51.54049023
 20
1.85869667
 30
0.0
  0
VERTEX
  5
4EC
100
AcDbEntity
  8
0
100
AcDbVertex
100
AcDb2dVertex
 10
52.23912792
 20
1.85150085
 30
0.0
  0
VERTEX
  5
4ED
100
AcDbEntity
  8
0
100
AcDbVertex
100
AcDb2dVertex
 10
52.93771437
 20
1.84401805
 30
0.0
  0
VERTEX
  5
4EE
100
AcDbEntity
  8
0
100
AcDbVertex
100
AcDb2dVertex
 10
53.63624696
 20
1.83623452
 30
0.0
  0
VERTEX
  5
4EF
100
AcDbEntity
  8
0
100
AcDbVertex
100
AcDb2dVertex
 10
54.33472290
 20
1.82813557
 30
0.0
  0
VERTEX
  5
4F0
100
AcDbEntity
  8
0
100
AcDbVertex
100
AcDb2dVertex
 10
55.03313920
 20
1.81970556
 30
0.0
  0
VERTEX
  5
4F1
100
AcDbEntity
  8
0
100
AcDbVertex
100
AcDb2dVertex
 10
55.73149266
 20
1.81092784
 30
0.0
  0
VERTEX
  5
4F2
100
AcDbEntity
  8
0
100
AcDbVertex
100
AcDb2dVertex
 10
56.42977986
 20
1.80178459
 30
0.0
  0
VERTEX
  5
4F3
100
AcDbEntity
  8
0
100
AcDbVertex
100
AcDb2dVertex
 10
57.12799711
 20
1.79225685
 30
0.0
  0
VERTEX
  5
4F4
100
AcDbEntity
  8
0
100
AcDbVertex
100
AcDb2dVertex
 10
57.82614047
 20
1.78232437
 30
0.0
  0
VERTEX
  5
4F5
100
AcDbEntity
  8
0
100
AcDbVertex
100
AcDb2dVertex
 10
58.52420572
 20
1.77196551
 30
0.0
  0
VERTEX
  5
4F6
100
AcDbEntity
  8
0
100
AcDbVertex
100
AcDb2dVertex
 10
59.22218830
 20
1.76115721
 30
0.0
  0
VERTEX
  5
4F7
100
AcDbEntity
  8
0
100
AcDbVertex
100
AcDb2dVertex
 10
59.92008333
 20
1.74987483
 30
0.0
  0
VERTEX
  5
4F8
100
AcDbEntity
  8
0
100
AcDbVertex
100
AcDb2dVertex
 10
60.61788555
 20
1.73809206
 30
0.0
  0
VERTEX
  5
4F9
100
AcDbEntity
  8
0
100
AcDbVertex
100
AcDb2dVertex
 10
61.31558928
 20
1.72578083
 30
0.0
  0
VERTEX
  5
4FA
100
AcDbEntity
  8
0
100
AcDbVertex
100
AcDb2dVertex
 10
62.01318844
 20
1.71291120
 30
0.0
  0
VERTEX
  5
4FB
100
AcDbEntity
  8
0
100
AcDbVertex
100
AcDb2dVertex
 10
62.71067645
 20
1.69945121
 30
0.0
  0
VERTEX
  5
4FC
100
AcDbEntity
  8
0
100
AcDbVertex
100
AcDb2dVertex
 10
63.40804621
 20
1.68536682
 30
0.0
  0
VERTEX
  5
4FD
100
AcDbEntity
  8
0
100
AcDbVertex
100
AcDb2dVertex
 10
64.10529008
 20
1.67062178
 30
0.0
  0
VERTEX
  5
4FE
100
AcDbEntity
  8
0
100
AcDbVertex
100
AcDb2dVertex
 10
64.80239980
 20
1.65517749
 30
0.0
  0
VERTEX
  5
4FF
100
AcDbEntity
  8
0
100
AcDbVertex
100
AcDb2dVertex
 10
65.49936643
 20
1.63899299
 30
0.0
  0
VERTEX
  5
500
100
AcDbEntity
  8
0
100
AcDbVertex
100
AcDb2dVertex
 10
66.19618034
 20
1.62202478
 30
0.0
  0
VERTEX
  5
501
100
AcDbEntity
  8
0
100
AcDbVertex
100
AcDb2dVertex
 10
66.89283110
 20
1.60422684
 30
0.0
  0
VERTEX
  5
502
100
AcDbEntity
  8
0
100
AcDbVertex
100
AcDb2dVertex
 10
67.58930744
 20
1.58555053
 30
0.0
  0
VERTEX
  5
503
100
AcDbEntity
  8
0
100
AcDbVertex
100
AcDb2dVertex
 10
68.28559716
 20
1.56594462
 30
0.0
  0
VERTEX
  5
504
100
AcDbEntity
  8
0
100
AcDbVertex
100
AcDb2dVertex
 10
68.98168705
 20
1.54535533
 30
0.0
  0
VERTEX
  5
505
100
AcDbEntity
  8
0
100
AcDbVertex
100
AcDb2dVertex
 10
69.67756279
 20
1.52372641
 30
0.0
  0
VERTEX
  5
506
100
AcDbEntity
  8
0
100
AcDbVertex
100
AcDb2dVertex
 10
70.37320888
 20
1.50099930
 30
0.0
  0
VERTEX
  5
507
100
AcDbEntity
  8
0
100
AcDbVertex
100
AcDb2dVertex
 10
71.06861739
 20
1.47717955
 30
0.0
  0
VERTEX
  5
508
100
AcDbEntity
  8
0
100
AcDbVertex
100
AcDb2dVertex
 10
71.76382201
 20
1.45258533
 30
0.0
  0
VERTEX
  5
509
100
AcDbEntity
  8
0
100
AcDbVertex
100
AcDb2dVertex
 10
72.45881880
 20
1.42725332
 30
0.0
  0
VERTEX
  5
50A
100
AcDbEntity
  8
0
100
AcDbVertex
100
AcDb2dVertex
 10
73.15359579
 20
1.40116781
 30
0.0
  0
VERTEX
  5
50B
100
AcDbEntity
  8
0
100
AcDbVertex
100
AcDb2dVertex
 10
73.84814001
 20
1.37431412
 30
0.0
  0
VERTEX
  5
50C
100
AcDbEntity
  8
0
100
AcDbVertex
100
AcDb2dVertex
 10
74.54243733
 20
1.34667887
 30
0.0
  0
VERTEX
  5
50D
100
AcDbEntity
  8
0
100
AcDbVertex
100
AcDb2dVertex
 10
75.23647232
 20
1.31825018
 30
0.0
  0
VERTEX
  5
50E
100
AcDbEntity
  8
0
100
AcDbVertex
100
AcDb2dVertex
 10
75.75086604
 20
1.29664784
 30
0.0
  0
VERTEX
  5
50F
100
AcDbEntity
  8
0
100
AcDbVertex
100
AcDb2dVertex
 10
75.75629340
 20
1.33725943
 30
0.0
  0
VERTEX
  5
510
100
AcDbEntity
  8
0
100
AcDbVertex
100
AcDb2dVertex
 10
75.93177939
 20
2.64980182
 30
0.0
  0
SEQEND
  5
511
100
AcDbEntity
  8
0
  0
POLYLINE
  5
512
100
AcDbEntity
  8
0
100
AcDb2dPolyline
 62
    55
 66
     1
  0
VERTEX
  5
513
100
AcDbEntity
  8
0
100
AcDbVertex
100
AcDb2dVertex
 10
16.90479211
 20
10.54166850
 30
0.0
  0
VERTEX
  5
514
100
AcDbEntity
  8
0
100
AcDbVertex
100
AcDb2dVertex
 10
75.93177939
 20
2.64980182
 30
0.0
  0
VERTEX
  5
515
100
AcDbEntity
  8
0
100
AcDbVertex
100
AcDb2dVertex
 10
76.19880175
 20
2.57533619
 30
0.0
  0
VERTEX
  5
516
100
AcDbEntity
  8
0
100
AcDbVertex
100
AcDb2dVertex
 10
76.43060974
 20
2.43411915
 30
0.0
  0
VERTEX
  5
517
100
AcDbEntity
  8
0
100
AcDbVertex
100
AcDb2dVertex
 10
76.59383547
 20
2.26578596
 30
0.0
  0
VERTEX
  5
518
100
AcDbEntity
  8
0
100
AcDbVertex
100
AcDb2dVertex
 10
76.72438137
 20
2.03829126
 30
0.0
  0
VERTEX
  5
519
100
AcDbEntity
  8
0
100
AcDbVertex
100
AcDb2dVertex
 10
76.77271497
 20
1.88757274
 30
0.0
  0
SEQEND
  5
51A
100
AcDbEntity
  8
0
  0
POLYLINE
  5
51B
100
AcDbEntity
  8
0
100
AcDb2dPolyline
 66
     1
  0
VERTEX
  5
51C
100
AcDbEntity
  8
0
100
AcDbVertex
100
AcDb2dVertex
 10
75.75086604
 20
1.29664784
 30
0.0
  0
VERTEX
  5
51D
100
AcDbEntity
  8
0
100
AcDbVertex
100
AcDb2dVertex
 10
76.10824739
 20
1.37664207
 30
0.0
  0
VERTEX
  5
51E
100
AcDbEntity
  8
0
100
AcDbVertex
100
AcDb2dVertex
 10
76.40778977
 20
1.50557082
 30
0.0
  0
VERTEX
  5
51F
100
AcDbEntity
  8
0
100
AcDbVertex
100
AcDb2dVertex
 10
76.61608866
 20
1.65826428
 30
0.0
  0
VERTEX
  5
520
100
AcDbEntity
  8
0
100
AcDbVertex
100
AcDb2dVertex
 10
76.68989063
 20
1.74051345
 30
0.0
  0
VERTEX
  5
521
100
AcDbEntity
  8
0
100
AcDbVertex
100
AcDb2dVertex
 10
76.76449207
 20
1.86701682
 30
0.0
  0
VERTEX
  5
522
100
AcDbEntity
  8
0
100
AcDbVertex
100
AcDb2dVertex
 10
76.77271497
 20
1.88757274
 30
0.0
  0
SEQEND
  5
523
100
AcDbEntity
  8
0
  0
POLYLINE
  5
524
100
AcDbEntity
  8
0
100
AcDb2dPolyline
 66
     1
  0
VERTEX
  5
525
100
AcDbEntity
  8
0
100
AcDbVertex
100
AcDb2dVertex
 10
75.75086604
 20
1.29664784
 30
0.0
  0
VERTEX
  5
526
100
AcDbEntity
  8
0
100
AcDbVertex
100
AcDb2dVertex
 10
75.78398473
 20
0.82615114
 30
0.0
  0
VERTEX
  5
527
100
AcDbEntity
  8
0
100
AcDbVertex
100
AcDb2dVertex
 10
75.82055060
 20
0.53813755
 30
0.0
  0
VERTEX
  5
528
100
AcDbEntity
  8
0
100
AcDbVertex
100
AcDb2dVertex
 10
75.83778183
 20
0.45306205
 30
0.0
  0
VERTEX
  5
529
100
AcDbEntity
  8
0
100
AcDbVertex
100
AcDb2dVertex
 10
75.86445129
 20
0.37172748
 30
0.0
  0
VERTEX
  5
52A
100
AcDbEntity
  8
0
100
AcDbVertex
100
AcDb2dVertex
 10
75.89108140
 20
0.34540238
 30
0.0
  0
SEQEND
  5
52B
100
AcDbEntity
  8
0
  0
POLYLINE
  5
52C
100
AcDbEntity
  8
0
100
AcDb2dPolyline
 66
     1
  0
VERTEX
  5
52D
100
AcDbEntity
  8
0
100
AcDbVertex
100
AcDb2dVertex
 10
13.66404270
 20
2.01269117
 30
0.0
  0
VERTEX
  5
52E
100
AcDbEntity
  8
0
100
AcDbVertex
100
AcDb2dVertex
 10
13.66908687
 20
1.37445432
 30
0.0
  0
VERTEX
  5
52F
100
AcDbEntity
  8
0
100
AcDbVertex
100
AcDb2dVertex
 10
13.68613791
 20
0.60907565
 30
0.0
  0
VERTEX
  5
530
100
AcDbEntity
  8
0
100
AcDbVertex
100
AcDb2dVertex
 10
13.70852596
 20
0.34540238
 30
0.0
  0
SEQEND
  5
531
100
AcDbEntity
  8
0
  0
POLYLINE
  5
532
100
AcDbEntity
  8
0
100
AcDb2dPolyline
 62
    55
 66
     1
  0
VERTEX
  5
533
100
AcDbEntity
  8
0
100
AcDbVertex
100
AcDb2dVertex
 10
76.77271497
 20
1.88757274
 30
0.0
  0
VERTEX
  5
534
100
AcDbEntity
  8
0
100
AcDbVertex
100
AcDb2dVertex
 10
76.89179707
 20
1.53354918
 30
0.0
  0
VERTEX
  5
535
100
AcDbEntity
  8
0
100
AcDbVertex
100
AcDb2dVertex
 10
77.07470782
 20
1.20772966
 30
0.0
  0
VERTEX
  5
536
100
AcDbEntity
  8
0
100
AcDbVertex
100
AcDb2dVertex
 10
77.27275947
 20
0.96459715
 30
0.0
  0
VERTEX
  5
537
100
AcDbEntity
  8
0
100
AcDbVertex
100
AcDb2dVertex
 10
77.55475522
 20
0.71963795
 30
0.0
  0
VERTEX
  5
538
100
AcDbEntity
  8
0
100
AcDbVertex
100
AcDb2dVertex
 10
77.87746256
 20
0.53135088
 30
0.0
  0
VERTEX
  5
539
100
AcDbEntity
  8
0
100
AcDbVertex
100
AcDb2dVertex
 10
78.22959957
 20
0.40635999
 30
0.0
  0
VERTEX
  5
53A
100
AcDbEntity
  8
0
100
AcDbVertex
100
AcDb2dVertex
 10
78.34016967
 20
0.38172693
 30
0.0
  0
VERTEX
  5
53B
100
AcDbEntity
  8
0
100
AcDbVertex
100
AcDb2dVertex
 10
78.71961667
 20
0.34540238
 30
0.0
  0
SEQEND
  5
53C
100
AcDbEntity
  8
0
  0
POLYLINE
  5
53D
100
AcDbEntity
  8
0
100
AcDb2dPolyline
 62
    55
 66
     1
  0
VERTEX
  5
53E
100
AcDbEntity
  8
0
100
AcDbVertex
100
AcDb2dVertex
 10
8.16232721
 20
71.38930105
 30
0.0
  0
VERTEX
  5
53F
100
AcDbEntity
  8
0
100
AcDbVertex
100
AcDb2dVertex
 10
8.40881565
 20
71.28173136
 30
0.0
  0
VERTEX
  5
540
100
AcDbEntity
  8
0
100
AcDbVertex
100
AcDb2dVertex
 10
8.49638945
 20
71.22189222
 30
0.0
  0
VERTEX
  5
541
100
AcDbEntity
  8
0
100
AcDbVertex
100
AcDb2dVertex
 10
8.68211362
 20
71.03668261
 30
0.0
  0
VERTEX
  5
542
100
AcDbEntity
  8
0
100
AcDbVertex
100
AcDb2dVertex
 10
8.81157101
 20
70.81368092
 30
0.0
  0
VERTEX
  5
543
100
AcDbEntity
  8
0
100
AcDbVertex
100
AcDb2dVertex
 10
8.88040532
 20
70.55983614
 30
0.0
  0
SEQEND
  5
544
100
AcDbEntity
  8
0
  0
POLYLINE
  5
545
100
AcDbEntity
  8
0
100
AcDb2dPolyline
 66
     1
  0
VERTEX
  5
546
100
AcDbEntity
  8
0
100
AcDbVertex
100
AcDb2dVertex
 10
8.16232721
 20
71.38930105
 30
0.0
  0
VERTEX
  5
547
100
AcDbEntity
  8
0
100
AcDbVertex
100
AcDb2dVertex
 10
8.10846741
 20
71.36263110
 30
0.0
  0
VERTEX
  5
548
100
AcDbEntity
  8
0
100
AcDbVertex
100
AcDb2dVertex
 10
8.06059125
 20
71.33155612
 30
0.0
  0
VERTEX
  5
549
100
AcDbEntity
  8
0
100
AcDbVertex
100
AcDb2dVertex
 10
7.96940609
 20
71.25113017
 30
0.0
  0
VERTEX
  5
54A
100
AcDbEntity
  8
0
100
AcDbVertex
100
AcDb2dVertex
 10
7.88588806
 20
71.14906840
 30
0.0
  0
VERTEX
  5
54B
100
AcDbEntity
  8
0
100
AcDbVertex
100
AcDb2dVertex
 10
7.73624271
 20
70.86582570
 30
0.0
  0
VERTEX
  5
54C
100
AcDbEntity
  8
0
100
AcDbVertex
100
AcDb2dVertex
 10
7.66038818
 20
70.62619399
 30
0.0
  0
VERTEX
  5
54D
100
AcDbEntity
  8
0
100
AcDbVertex
100
AcDb2dVertex
 10
7.61636082
 20
70.39083419
 30
0.0
  0
VERTEX
  5
54E
100
AcDbEntity
  8
0
100
AcDbVertex
100
AcDb2dVertex
 10
7.17118930
 20
70.42536401
 30
0.0
  0
VERTEX
  5
54F
100
AcDbEntity
  8
0
100
AcDbVertex
100
AcDb2dVertex
 10
6.89740450
 20
70.46291410
 30
0.0
  0
VERTEX
  5
550
100
AcDbEntity
  8
0
100
AcDbVertex
100
AcDb2dVertex
 10
6.81409270
 20
70.48097571
 30
0.0
  0
VERTEX
  5
551
100
AcDbEntity
  8
0
100
AcDbVertex
100
AcDb2dVertex
 10
6.73436804
 20
70.50892674
 30
0.0
  0
VERTEX
  5
552
100
AcDbEntity
  8
0
100
AcDbVertex
100
AcDb2dVertex
 10
6.70852596
 20
70.53685599
 30
0.0
  0
SEQEND
  5
553
100
AcDbEntity
  8
0
  0
POLYLINE
  5
554
100
AcDbEntity
  8
0
100
AcDb2dPolyline
 62
    55
 66
     1
  0
VERTEX
  5
555
100
AcDbEntity
  8
0
100
AcDbVertex
100
AcDb2dVertex
 10
6.70852596
 20
73.31327613
 30
0.0
  0
VERTEX
  5
556
100
AcDbEntity
  8
0
100
AcDbVertex
100
AcDb2dVertex
 10
6.74340003
 20
72.94141559
 30
0.0
  0
VERTEX
  5
557
100
AcDbEntity
  8
0
100
AcDbVertex
100
AcDb2dVertex
 10
6.84690955
 20
72.58225967
 30
0.0
  0
VERTEX
  5
558
100
AcDbEntity
  8
0
100
AcDbVertex
100
AcDb2dVertex
 10
7.01338867
 20
72.25190389
 30
0.0
  0
VERTEX
  5
559
100
AcDbEntity
  8
0
100
AcDbVertex
100
AcDb2dVertex
 10
7.24031558
 20
71.95520371
 30
0.0
  0
VERTEX
  5
55A
100
AcDbEntity
  8
0
100
AcDbVertex
100
AcDb2dVertex
 10
7.51852466
 20
71.70582465
 30
0.0
  0
VERTEX
  5
55B
100
AcDbEntity
  8
0
100
AcDbVertex
100
AcDb2dVertex
 10
7.83829941
 20
71.51252352
 30
0.0
  0
VERTEX
  5
55C
100
AcDbEntity
  8
0
100
AcDbVertex
100
AcDb2dVertex
 10
7.93859013
 20
71.46741502
 30
0.0
  0
VERTEX
  5
55D
100
AcDbEntity
  8
0
100
AcDbVertex
100
AcDb2dVertex
 10
8.16232721
 20
71.38930105
 30
0.0
  0
SEQEND
  5
55E
100
AcDbEntity
  8
0
  0
LINE
  5
55F
100
AcDbEntity
  8
0
100
AcDbLine
 10
13.70852596
 20
0.34540238
 30
0.0
 11
13.70852596
 21
-2.15459762
 31
0.0
  0
ARC
  5
560
100
AcDbEntity
  8
0
100
AcDbCircle
 10
13.70852596
 20
7.34540238
 30
0.0
 40
9.50000000
100
AcDbArc
 50
179.999999963
 51
-89.999999988
  0
POLYLINE
  5
561
100
AcDbEntity
  8
0
100
AcDb2dPolyline
 66
     1
  0
VERTEX
  5
562
100
AcDbEntity
  8
0
100
AcDbVertex
100
AcDb2dVertex
 10
4.20852596
 20
7.34540239
 30
0.0
  0
VERTEX
  5
563
100
AcDbEntity
  8
0
100
AcDbVertex
100
AcDb2dVertex
 10
6.70852596
 20
7.34540239
 30
0.0
 42
0.414213563
  0
VERTEX
  5
564
100
AcDbEntity
  8
0
100
AcDbVertex
100
AcDb2dVertex
 10
13.70852596
 20
0.34540238
 30
0.0
  0
SEQEND
  5
565
100
AcDbEntity
  8
0
  0
LINE
  5
566
100
AcDbEntity
  8
0
100
AcDbLine
 10
70.79756656
 20
0.34540238
 30
0.0
 11
13.70852596
 21
0.34540238
 31
0.0
  0
LINE
  5
567
100
AcDbEntity
  8
0
100
AcDbLine
 10
70.79756656
 20
0.34540238
 30
0.0
 11
70.79756656
 21
-2.15459762
 31
0.0
  0
LINE
  5
568
100
AcDbEntity
  8
0
100
AcDbLine
 10
13.70852596
 20
-2.15459762
 30
0.0
 11
70.79756656
 21
-2.15459762
 31
0.0
  0
LINE
  5
569
100
AcDbEntity
  8
0
100
AcDbLine
 10
125.20899022
 20
-2.15459762
 30
0.0
 11
70.79756656
 21
-2.15459762
 31
0.0
  0
POLYLINE
  5
56A
100
AcDbEntity
  8
0
100
AcDb2dPolyline
 66
     1
  0
VERTEX
  5
56B
100
AcDbEntity
  8
0
100
AcDbVertex
100
AcDb2dVertex
 10
125.20899022
 20
-2.15459762
 30
0.0
  0
VERTEX
  5
56C
100
AcDbEntity
  8
0
100
AcDbVertex
100
AcDb2dVertex
 10
125.20899022
 20
0.34540238
 30
0.0
  0
VERTEX
  5
56D
100
AcDbEntity
  8
0
100
AcDbVertex
100
AcDb2dVertex
 10
70.79756656
 20
0.34540238
 30
0.0
  0
SEQEND
  5
56E
100
AcDbEntity
  8
0
  0
LINE
  5
56F
100
AcDbEntity
  8
0
100
AcDbLine
 10
125.20899022
 20
0.34540238
 30
0.0
 11
129.20899022
 21
0.34540238
 31
0.0
  0
LINE
  5
570
100
AcDbEntity
  8
0
100
AcDbLine
 10
129.20899022
 20
-2.15459762
 30
0.0
 11
129.20899022
 21
0.34540238
 31
0.0
  0
LINE
  5
571
100
AcDbEntity
  8
0
100
AcDbLine
 10
129.20899022
 20
-2.15459762
 30
0.0
 11
125.20899022
 21
-2.15459762
 31
0.0
  0
LINE
  5
572
100
AcDbEntity
  8
0
100
AcDbLine
 10
6.70852596
 20
64.43444298
 30
0.0
 11
6.70852596
 21
7.34540239
 31
0.0
  0
LINE
  5
573
100
AcDbEntity
  8
0
100
AcDbLine
 10
4.20852596
 20
64.43444298
 30
0.0
 11
6.70852596
 21
64.43444298
 31
0.0
  0
LINE
  5
574
100
AcDbEntity
  8
0
100
AcDbLine
 10
4.20852596
 20
64.43444298
 30
0.0
 11
4.20852596
 21
7.34540239
 31
0.0
  0
LINE
  5
575
100
AcDbEntity
  8
0
100
AcDbLine
 10
4.20852596
 20
64.43444298
 30
0.0
 11
4.20852596
 21
118.84586408
 31
0.0
  0
LINE
  5
576
100
AcDbEntity
  8
0
100
AcDbLine
 10
6.70852596
 20
118.84586408
 30
0.0
 11
4.20852596
 21
118.84586408
 31
0.0
  0
LINE
  5
577
100
AcDbEntity
  8
0
100
AcDbLine
 10
6.70852596
 20
64.43444298
 30
0.0
 11
6.70852596
 21
118.84586408
 31
0.0
  0
LINE
  5
578
100
AcDbEntity
  8
0
100
AcDbLine
 10
6.70852596
 20
122.84586408
 30
0.0
 11
6.70852596
 21
118.84586408
 31
0.0
  0
LINE
  5
579
100
AcDbEntity
  8
0
100
AcDbLine
 10
6.70852596
 20
122.84586408
 30
0.0
 11
4.20852596
 21
122.84586408
 31
0.0
  0
LINE
  5
57A
100
AcDbEntity
  8
0
100
AcDbLine
 10
4.20852596
 20
118.84586408
 30
0.0
 11
4.20852596
 21
122.84586408
 31
0.0
  0
LINE
  5
57B
100
AcDbEntity
  8
0
100
AcDbLine
  6
STRICHPUNKT2
 62
     1
 10
119.20899022
 20
-2.15459762
 30
0.0
 11
119.20899022
 21
-3.15459762
 31
0.0
  0
LINE
  5
57C
100
AcDbEntity
  8
0
100
AcDbLine
  6
STRICHPUNKT2
 62
     1
 10
119.20899022
 20
1.34540238
 30
0.0
 11
119.20899022
 21
0.34540238
 31
0.0
  0
LINE
  5
57D
100
AcDbEntity
  8
0
100
AcDbLine
  6
STRICHPUNKT2
 62
     1
 10
4.20852596
 20
32.84586408
 30
0.0
 11
2.70852596
 21
32.84586408
 31
0.0
  0
LINE
  5
57E
100
AcDbEntity
  8
0
100
AcDbLine
  6
STRICHPUNKT2
 62
     1
 10
8.20852596
 20
32.84586408
 30
0.0
 11
6.70852596
 21
32.84586408
 31
0.0
  0
LINE
  5
57F
100
AcDbEntity
  8
0
100
AcDbLine
  6
STRICHPUNKT2
 62
     1
 10
69.20899022
 20
-2.15459762
 30
0.0
 11
69.20899022
 21
-3.65459762
 31
0.0
  0
LINE
  5
580
100
AcDbEntity
  8
0
100
AcDbLine
  6
STRICHPUNKT2
 62
     1
 10
69.20899022
 20
1.84540238
 30
0.0
 11
69.20899022
 21
0.34540238
 31
0.0
  0
LINE
  5
581
100
AcDbEntity
  8
0
100
AcDbLine
  6
STRICHPUNKT2
 62
     1
 10
94.20899022
 20
-2.15459762
 30
0.0
 11
94.20899022
 21
-3.15459762
 31
0.0
  0
LINE
  5
582
100
AcDbEntity
  8
0
100
AcDbLine
  6
STRICHPUNKT2
 62
     1
 10
94.20899022
 20
1.34540238
 30
0.0
 11
94.20899022
 21
0.34540238
 31
0.0
  0
LINE
  5
583
100
AcDbEntity
  8
0
100
AcDbLine
  6
STRICHPUNKT2
 62
     1
 10
4.20852596
 20
112.84586408
 30
0.0
 11
2.70852596
 21
112.84586408
 31
0.0
  0
LINE
  5
584
100
AcDbEntity
  8
0
100
AcDbLine
  6
STRICHPUNKT2
 62
     1
 10
8.20852596
 20
112.84586408
 30
0.0
 11
6.70852596
 21
112.84586408
 31
0.0
  0
LINE
  5
585
100
AcDbEntity
  8
0
100
AcDbLine
  6
STRICHPUNKT2
 62
     1
 10
4.20852596
 20
108.84586408
 30
0.0
 11
1.70852596
 21
108.84586408
 31
0.0
  0
LINE
  5
586
100
AcDbEntity
  8
0
100
AcDbLine
  6
STRICHPUNKT2
 62
     1
 10
9.20852596
 20
108.84586408
 30
0.0
 11
6.70852596
 21
108.84586408
 31
0.0
  0
LINE
  5
587
100
AcDbEntity
  8
0
100
AcDbLine
  6
STRICHPUNKT2
 62
     1
 10
3.20852596
 20
62.84586408
 30
0.0
 11
2.70852596
 21
62.84586408
 31
0.0
  0
LINE
  5
588
100
AcDbEntity
  8
0
100
AcDbLine
  6
STRICHPUNKT2
 62
     1
 10
109.20899022
 20
-2.15459762
 30
0.0
 11
109.20899022
 21
-4.90459762
 31
0.0
  0
LINE
  5
589
100
AcDbEntity
  8
0
100
AcDbLine
  6
STRICHPUNKT2
 62
     1
 10
109.20899022
 20
3.09540238
 30
0.0
 11
109.20899022
 21
0.34540238
 31
0.0
  0
LINE
  5
58A
100
AcDbEntity
  8
0
100
AcDbLine
  6
STRICHPUNKT2
 62
     1
 10
119.20899022
 20
-3.15459762
 30
0.0
 11
119.20899022
 21
-3.65459762
 31
0.0
  0
LINE
  5
58B
100
AcDbEntity
  8
0
100
AcDbLine
  6
STRICHPUNKT2
 62
     1
 10
119.20899022
 20
1.84540238
 30
0.0
 11
119.20899022
 21
1.34540238
 31
0.0
  0
LINE
  5
58C
100
AcDbEntity
  8
0
100
AcDbLine
  6
STRICHPUNKT2
 62
     1
 10
4.20852596
 20
98.84586408
 30
0.0
 11
1.70852596
 21
98.84586408
 31
0.0
  0
LINE
  5
58D
100
AcDbEntity
  8
0
100
AcDbLine
  6
STRICHPUNKT2
 62
     1
 10
9.20852596
 20
98.84586408
 30
0.0
 11
6.70852596
 21
98.84586408
 31
0.0
  0
LINE
  5
58E
100
AcDbEntity
  8
0
100
AcDbLine
  6
STRICHPUNKT2
 62
     1
 10
4.20852596
 20
62.84586408
 30
0.0
 11
3.20852596
 21
62.84586408
 31
0.0
  0
LINE
  5
58F
100
AcDbEntity
  8
0
100
AcDbLine
  6
STRICHPUNKT2
 62
     1
 10
7.70852596
 20
62.84586408
 30
0.0
 11
6.70852596
 21
62.84586408
 31
0.0
  0
LINE
  5
590
100
AcDbEntity
  8
0
100
AcDbLine
  6
STRICHPUNKT2
 62
     1
 10
4.20852596
 20
87.84586408
 30
0.0
 11
3.20852596
 21
87.84586408
 31
0.0
  0
LINE
  5
591
100
AcDbEntity
  8
0
100
AcDbLine
  6
STRICHPUNKT2
 62
     1
 10
7.70852596
 20
87.84586408
 30
0.0
 11
6.70852596
 21
87.84586408
 31
0.0
  0
LINE
  5
592
100
AcDbEntity
  8
0
100
AcDbLine
  6
STRICHPUNKT2
 62
     1
 10
39.20899022
 20
-3.15459762
 30
0.0
 11
39.20899022
 21
-3.65459762
 31
0.0
  0
LINE
  5
593
100
AcDbEntity
  8
0
100
AcDbLine
  6
STRICHPUNKT2
 62
     1
 10
39.20899022
 20
-2.15459762
 30
0.0
 11
39.20899022
 21
-3.15459762
 31
0.0
  0
LINE
  5
594
100
AcDbEntity
  8
0
100
AcDbLine
  6
STRICHPUNKT2
 62
     1
 10
39.20899022
 20
1.34540238
 30
0.0
 11
39.20899022
 21
0.34540238
 31
0.0
  0
LINE
  5
595
100
AcDbEntity
  8
0
100
AcDbLine
 10
6.70852596
 20
169.34596052
 30
0.0
 11
4.20852596
 21
169.34596052
 31
0.0
  0
LINE
  5
596
100
AcDbEntity
  8
0
100
AcDbLine
 10
4.20852596
 20
165.34596052
 30
0.0
 11
4.20852596
 21
169.34596052
 31
0.0
  0
LINE
  5
597
100
AcDbEntity
  8
0
100
AcDbLine
 10
6.70852596
 20
165.34596052
 30
0.0
 11
4.20852596
 21
165.34596052
 31
0.0
  0
LINE
  5
598
100
AcDbEntity
  8
0
100
AcDbLine
 10
6.70852596
 20
169.34596052
 30
0.0
 11
6.70852596
 21
165.34596052
 31
0.0
  0
LINE
  5
599
100
AcDbEntity
  8
0
100
AcDbLine
 10
6.70852596
 20
169.34596052
 30
0.0
 11
6.70852596
 21
207.34596052
 31
0.0
  0
LINE
  5
59A
100
AcDbEntity
  8
0
100
AcDbLine
 10
4.20852596
 20
207.34596052
 30
0.0
 11
6.70852596
 21
207.34596052
 31
0.0
  0
POLYLINE
  5
59B
100
AcDbEntity
  8
0
100
AcDb2dPolyline
 66
     1
  0
VERTEX
  5
59C
100
AcDbEntity
  8
0
100
AcDbVertex
100
AcDb2dVertex
 10
4.20852596
 20
169.34596052
 30
0.0
  0
VERTEX
  5
59D
100
AcDbEntity
  8
0
100
AcDbVertex
100
AcDb2dVertex
 10
4.20852596
 20
207.34596052
 30
0.0
  0
VERTEX
  5
59E
100
AcDbEntity
  8
0
100
AcDbVertex
100
AcDb2dVertex
 10
4.20852596
 20
211.34596052
 30
0.0
  0
VERTEX
  5
59F
100
AcDbEntity
  8
0
100
AcDbVertex
100
AcDb2dVertex
 10
6.70852596
 20
211.34596052
 30
0.0
  0
VERTEX
  5
5A0
100
AcDbEntity
  8
0
100
AcDbVertex
100
AcDb2dVertex
 10
6.70852596
 20
207.34596052
 30
0.0
  0
SEQEND
  5
5A1
100
AcDbEntity
  8
0
  0
CIRCLE
  5
5A2
100
AcDbEntity
  8
0
100
AcDbCircle
 10
39.20899022
 20
203.84596052
 30
0.0
 40
3.00000000
  0
CIRCLE
  5
5A3
100
AcDbEntity
  8
0
100
AcDbCircle
 10
39.20899022
 20
172.84596052
 30
0.0
 40
2.00000000
  0
CIRCLE
  5
5A4
100
AcDbEntity
  8
0
100
AcDbCircle
 10
69.20899022
 20
175.34596052
 30
0.0
 40
3.00000000
  0
CIRCLE
  5
5A5
100
AcDbEntity
  8
0
100
AcDbCircle
 10
69.20899022
 20
201.34596052
 30
0.0
 40
2.00000000
  0
CIRCLE
  5
5A6
100
AcDbEntity
  8
0
100
AcDbCircle
 10
94.20899022
 20
180.34596052
 30
0.0
 40
2.00000000
  0
CIRCLE
  5
5A7
100
AcDbEntity
  8
0
100
AcDbCircle
 10
94.20899022
 20
196.34596052
 30
0.0
 40
2.00000000
  0
CIRCLE
  5
5A8
100
AcDbEntity
  8
0
100
AcDbCircle
 10
109.20899022
 20
188.34596052
 30
0.0
 40
5.50000000
  0
CIRCLE
  5
5A9
100
AcDbEntity
  8
0
100
AcDbCircle
 10
119.20899022
 20
201.34596052
 30
0.0
 40
3.00000000
  0
CIRCLE
  5
5AA
100
AcDbEntity
  8
0
100
AcDbCircle
 10
119.20899022
 20
175.34596052
 30
0.0
 40
2.00000000
  0
LINE
  5
5AB
100
AcDbEntity
  8
0
100
AcDbLine
 10
13.70852596
 20
205.12474969
 30
0.0
 11
6.70852596
 21
205.12474969
 31
0.0
  0
LINE
  5
5AC
100
AcDbEntity
  8
0
100
AcDbLine
 10
13.70852596
 20
194.77570916
 30
0.0
 11
13.70852596
 21
205.12474969
 31
0.0
  0
POLYLINE
  5
5AD
100
AcDbEntity
  8
0
100
AcDb2dPolyline
 66
     1
  0
VERTEX
  5
5AE
100
AcDbEntity
  8
0
100
AcDbVertex
100
AcDb2dVertex
 10
13.70852596
 20
194.77570916
 30
0.0
  0
VERTEX
  5
5AF
100
AcDbEntity
  8
0
100
AcDbVertex
100
AcDb2dVertex
 10
11.71896484
 20
194.77297289
 30
0.0
  0
VERTEX
  5
5B0
100
AcDbEntity
  8
0
100
AcDbVertex
100
AcDb2dVertex
 10
9.93219989
 20
194.70309381
 30
0.0
  0
VERTEX
  5
5B1
100
AcDbEntity
  8
0
100
AcDbVertex
100
AcDb2dVertex
 10
8.75883709
 20
194.60688483
 30
0.0
  0
VERTEX
  5
5B2
100
AcDbEntity
  8
0
100
AcDbVertex
100
AcDb2dVertex
 10
6.87009984
 20
194.78033210
 30
0.0
  0
VERTEX
  5
5B3
100
AcDbEntity
  8
0
100
AcDbVertex
100
AcDb2dVertex
 10
6.70852596
 20
194.77570916
 30
0.0
  0
SEQEND
  5
5B4
100
AcDbEntity
  8
0
  0
POLYLINE
  5
5B5
100
AcDbEntity
  8
0
100
AcDb2dPolyline
 66
     1
  0
VERTEX
  5
5B6
100
AcDbEntity
  8
0
100
AcDbVertex
100
AcDb2dVertex
 10
8.37581475
 20
192.80407925
 30
0.0
  0
VERTEX
  5
5B7
100
AcDbEntity
  8
0
100
AcDbVertex
100
AcDb2dVertex
 10
8.00347029
 20
192.90458267
 30
0.0
  0
VERTEX
  5
5B8
100
AcDbEntity
  8
0
100
AcDbVertex
100
AcDb2dVertex
 10
7.66067298
 20
193.07261560
 30
0.0
  0
VERTEX
  5
5B9
100
AcDbEntity
  8
0
100
AcDbVertex
100
AcDb2dVertex
 10
7.35872278
 20
193.30026913
 30
0.0
  0
VERTEX
  5
5BA
100
AcDbEntity
  8
0
100
AcDbVertex
100
AcDb2dVertex
 10
7.18120438
 20
193.48480230
 30
0.0
  0
VERTEX
  5
5BB
100
AcDbEntity
  8
0
100
AcDbVertex
100
AcDb2dVertex
 10
6.96821833
 20
193.79039947
 30
0.0
  0
VERTEX
  5
5BC
100
AcDbEntity
  8
0
100
AcDbVertex
100
AcDb2dVertex
 10
6.81666509
 20
194.12713509
 30
0.0
  0
VERTEX
  5
5BD
100
AcDbEntity
  8
0
100
AcDbVertex
100
AcDb2dVertex
 10
6.73009806
 20
194.48282799
 30
0.0
  0
VERTEX
  5
5BE
100
AcDbEntity
  8
0
100
AcDbVertex
100
AcDb2dVertex
 10
6.70852596
 20
194.77570916
 30
0.0
  0
SEQEND
  5
5BF
100
AcDbEntity
  8
0
  0
POLYLINE
  5
5C0
100
AcDbEntity
  8
0
100
AcDb2dPolyline
 66
     1
  0
VERTEX
  5
5C1
100
AcDbEntity
  8
0
100
AcDbVertex
100
AcDb2dVertex
 10
9.98303717
 20
192.61416966
 30
0.0
  0
VERTEX
  5
5C2
100
AcDbEntity
  8
0
100
AcDbVertex
100
AcDb2dVertex
 10
8.54343236
 20
192.80475644
 30
0.0
  0
VERTEX
  5
5C3
100
AcDbEntity
  8
0
100
AcDbVertex
100
AcDb2dVertex
 10
8.37581475
 20
192.80407925
 30
0.0
  0
SEQEND
  5
5C4
100
AcDbEntity
  8
0
  0
POLYLINE
  5
5C5
100
AcDbEntity
  8
0
100
AcDb2dPolyline
 66
     1
  0
VERTEX
  5
5C6
100
AcDbEntity
  8
0
100
AcDbVertex
100
AcDb2dVertex
 10
9.98303717
 20
192.61416966
 30
0.0
  0
VERTEX
  5
5C7
100
AcDbEntity
  8
0
100
AcDbVertex
100
AcDb2dVertex
 10
11.48630140
 20
192.30587942
 30
0.0
  0
VERTEX
  5
5C8
100
AcDbEntity
  8
0
100
AcDbVertex
100
AcDb2dVertex
 10
11.96329478
 20
192.19951686
 30
0.0
  0
VERTEX
  5
5C9
100
AcDbEntity
  8
0
100
AcDbVertex
100
AcDb2dVertex
 10
12.77652993
 20
192.00257437
 30
0.0
  0
VERTEX
  5
5CA
100
AcDbEntity
  8
0
100
AcDbVertex
100
AcDb2dVertex
 10
13.42134166
 20
191.82664239
 30
0.0
  0
VERTEX
  5
5CB
100
AcDbEntity
  8
0
100
AcDbVertex
100
AcDb2dVertex
 10
13.95812863
 20
191.66103871
 30
0.0
  0
VERTEX
  5
5CC
100
AcDbEntity
  8
0
100
AcDbVertex
100
AcDb2dVertex
 10
14.42109234
 20
191.49848239
 30
0.0
  0
VERTEX
  5
5CD
100
AcDbEntity
  8
0
100
AcDbVertex
100
AcDb2dVertex
 10
14.85035219
 20
191.32418495
 30
0.0
  0
VERTEX
  5
5CE
100
AcDbEntity
  8
0
100
AcDbVertex
100
AcDb2dVertex
 10
15.18229972
 20
191.16644051
 30
0.0
  0
VERTEX
  5
5CF
100
AcDbEntity
  8
0
100
AcDbVertex
100
AcDb2dVertex
 10
15.45310743
 20
191.01608196
 30
0.0
  0
VERTEX
  5
5D0
100
AcDbEntity
  8
0
100
AcDbVertex
100
AcDb2dVertex
 10
15.68709315
 20
190.86467976
 30
0.0
  0
VERTEX
  5
5D1
100
AcDbEntity
  8
0
100
AcDbVertex
100
AcDb2dVertex
 10
15.89232971
 20
190.70990141
 30
0.0
  0
VERTEX
  5
5D2
100
AcDbEntity
  8
0
100
AcDbVertex
100
AcDb2dVertex
 10
16.24240491
 20
190.37480034
 30
0.0
  0
VERTEX
  5
5D3
100
AcDbEntity
  8
0
100
AcDbVertex
100
AcDb2dVertex
 10
16.50485371
 20
190.01999422
 30
0.0
  0
VERTEX
  5
5D4
100
AcDbEntity
  8
0
100
AcDbVertex
100
AcDb2dVertex
 10
16.53825483
 20
189.96365931
 30
0.0
  0
VERTEX
  5
5D5
100
AcDbEntity
  8
0
100
AcDbVertex
100
AcDb2dVertex
 10
16.71232636
 20
189.59264343
 30
0.0
  0
VERTEX
  5
5D6
100
AcDbEntity
  8
0
100
AcDbVertex
100
AcDb2dVertex
 10
16.82901831
 20
189.18300583
 30
0.0
  0
VERTEX
  5
5D7
100
AcDbEntity
  8
0
100
AcDbVertex
100
AcDb2dVertex
 10
16.89246686
 20
188.71072582
 30
0.0
  0
VERTEX
  5
5D8
100
AcDbEntity
  8
0
100
AcDbVertex
100
AcDb2dVertex
 10
16.90479211
 20
188.34596052
 30
0.0
  0
VERTEX
  5
5D9
100
AcDbEntity
  8
0
100
AcDbVertex
100
AcDb2dVertex
 10
16.89553416
 20
188.02743331
 30
0.0
  0
VERTEX
  5
5DA
100
AcDbEntity
  8
0
100
AcDbVertex
100
AcDb2dVertex
 10
16.82449947
 20
187.48737114
 30
0.0
  0
VERTEX
  5
5DB
100
AcDbEntity
  8
0
100
AcDbVertex
100
AcDb2dVertex
 10
16.69358605
 20
187.05051083
 30
0.0
  0
VERTEX
  5
5DC
100
AcDbEntity
  8
0
100
AcDbVertex
100
AcDb2dVertex
 10
16.53825482
 20
186.72826172
 30
0.0
  0
VERTEX
  5
5DD
100
AcDbEntity
  8
0
100
AcDbVertex
100
AcDb2dVertex
 10
16.30936687
 20
186.39616587
 30
0.0
  0
VERTEX
  5
5DE
100
AcDbEntity
  8
0
100
AcDbVertex
100
AcDb2dVertex
 10
16.01896319
 20
186.09088028
 30
0.0
  0
VERTEX
  5
5DF
100
AcDbEntity
  8
0
100
AcDbVertex
100
AcDb2dVertex
 10
15.66176451
 20
185.80969383
 30
0.0
  0
VERTEX
  5
5E0
100
AcDbEntity
  8
0
100
AcDbVertex
100
AcDb2dVertex
 10
15.23062960
 20
185.55068043
 30
0.0
  0
VERTEX
  5
5E1
100
AcDbEntity
  8
0
100
AcDbVertex
100
AcDb2dVertex
 10
14.85035218
 20
185.36773608
 30
0.0
  0
VERTEX
  5
5E2
100
AcDbEntity
  8
0
100
AcDbVertex
100
AcDb2dVertex
 10
14.16079176
 20
185.09938498
 30
0.0
  0
VERTEX
  5
5E3
100
AcDbEntity
  8
0
100
AcDbVertex
100
AcDb2dVertex
 10
13.25552499
 20
184.81795660
 30
0.0
  0
VERTEX
  5
5E4
100
AcDbEntity
  8
0
100
AcDbVertex
100
AcDb2dVertex
 10
12.09748689
 20
184.52339303
 30
0.0
  0
VERTEX
  5
5E5
100
AcDbEntity
  8
0
100
AcDbVertex
100
AcDb2dVertex
 10
11.48630138
 20
184.38604162
 30
0.0
  0
VERTEX
  5
5E6
100
AcDbEntity
  8
0
100
AcDbVertex
100
AcDb2dVertex
 10
9.98302194
 20
184.07775138
 30
0.0
  0
SEQEND
  5
5E7
100
AcDbEntity
  8
0
  0
POLYLINE
  5
5E8
100
AcDbEntity
  8
0
100
AcDb2dPolyline
 66
     1
  0
VERTEX
  5
5E9
100
AcDbEntity
  8
0
100
AcDbVertex
100
AcDb2dVertex
 10
8.37581475
 20
183.88784178
 30
0.0
  0
VERTEX
  5
5EA
100
AcDbEntity
  8
0
100
AcDbVertex
100
AcDb2dVertex
 10
8.41394513
 20
183.88038792
 30
0.0
  0
VERTEX
  5
5EB
100
AcDbEntity
  8
0
100
AcDbVertex
100
AcDb2dVertex
 10
8.61379021
 20
183.89360692
 30
0.0
  0
VERTEX
  5
5EC
100
AcDbEntity
  8
0
100
AcDbVertex
100
AcDb2dVertex
 10
8.97648817
 20
183.93561488
 30
0.0
  0
VERTEX
  5
5ED
100
AcDbEntity
  8
0
100
AcDbVertex
100
AcDb2dVertex
 10
9.48741806
 20
184.00491010
 30
0.0
  0
VERTEX
  5
5EE
100
AcDbEntity
  8
0
100
AcDbVertex
100
AcDb2dVertex
 10
9.98302194
 20
184.07775138
 30
0.0
  0
SEQEND
  5
5EF
100
AcDbEntity
  8
0
  0
POLYLINE
  5
5F0
100
AcDbEntity
  8
0
100
AcDb2dPolyline
 66
     1
  0
VERTEX
  5
5F1
100
AcDbEntity
  8
0
100
AcDbVertex
100
AcDb2dVertex
 10
8.37581475
 20
183.88784178
 30
0.0
  0
VERTEX
  5
5F2
100
AcDbEntity
  8
0
100
AcDbVertex
100
AcDb2dVertex
 10
8.00347029
 20
183.78733837
 30
0.0
  0
VERTEX
  5
5F3
100
AcDbEntity
  8
0
100
AcDbVertex
100
AcDb2dVertex
 10
7.66067298
 20
183.61930544
 30
0.0
  0
VERTEX
  5
5F4
100
AcDbEntity
  8
0
100
AcDbVertex
100
AcDb2dVertex
 10
7.35872278
 20
183.39165191
 30
0.0
  0
VERTEX
  5
5F5
100
AcDbEntity
  8
0
100
AcDbVertex
100
AcDb2dVertex
 10
7.18120438
 20
183.20711874
 30
0.0
  0
VERTEX
  5
5F6
100
AcDbEntity
  8
0
100
AcDbVertex
100
AcDb2dVertex
 10
6.96821833
 20
182.90152157
 30
0.0
  0
VERTEX
  5
5F7
100
AcDbEntity
  8
0
100
AcDbVertex
100
AcDb2dVertex
 10
6.81666509
 20
182.56478595
 30
0.0
  0
VERTEX
  5
5F8
100
AcDbEntity
  8
0
100
AcDbVertex
100
AcDb2dVertex
 10
6.73009806
 20
182.20909305
 30
0.0
  0
VERTEX
  5
5F9
100
AcDbEntity
  8
0
100
AcDbVertex
100
AcDb2dVertex
 10
6.70852596
 20
181.91621188
 30
0.0
  0
SEQEND
  5
5FA
100
AcDbEntity
  8
0
  0
POLYLINE
  5
5FB
100
AcDbEntity
  8
0
100
AcDb2dPolyline
 66
     1
  0
VERTEX
  5
5FC
100
AcDbEntity
  8
0
100
AcDbVertex
100
AcDb2dVertex
 10
6.70852596
 20
171.56717135
 30
0.0
  0
VERTEX
  5
5FD
100
AcDbEntity
  8
0
100
AcDbVertex
100
AcDb2dVertex
 10
13.70852596
 20
171.56717135
 30
0.0
  0
VERTEX
  5
5FE
100
AcDbEntity
  8
0
100
AcDbVertex
100
AcDb2dVertex
 10
13.70852596
 20
181.91621188
 30
0.0
  0
VERTEX
  5
5FF
100
AcDbEntity
  8
0
100
AcDbVertex
100
AcDb2dVertex
 10
13.71852341
 20
181.91643744
 30
0.0
  0
VERTEX
  5
600
100
AcDbEntity
  8
0
100
AcDbVertex
100
AcDb2dVertex
 10
13.81849797
 20
181.91869316
 30
0.0
  0
VERTEX
  5
601
100
AcDbEntity
  8
0
100
AcDbVertex
100
AcDb2dVertex
 10
14.51831971
 20
181.93448962
 30
0.0
  0
VERTEX
  5
602
100
AcDbEntity
  8
0
100
AcDbVertex
100
AcDb2dVertex
 10
15.21814114
 20
181.95030003
 30
0.0
  0
VERTEX
  5
603
100
AcDbEntity
  8
0
100
AcDbVertex
100
AcDb2dVertex
 10
15.91796218
 20
181.96612803
 30
0.0
  0
VERTEX
  5
604
100
AcDbEntity
  8
0
100
AcDbVertex
100
AcDb2dVertex
 10
16.61778272
 20
181.98197730
 30
0.0
  0
VERTEX
  5
605
100
AcDbEntity
  8
0
100
AcDbVertex
100
AcDb2dVertex
 10
17.31760271
 20
181.99785151
 30
0.0
  0
VERTEX
  5
606
100
AcDbEntity
  8
0
100
AcDbVertex
100
AcDb2dVertex
 10
18.01742204
 20
182.01375437
 30
0.0
  0
VERTEX
  5
607
100
AcDbEntity
  8
0
100
AcDbVertex
100
AcDb2dVertex
 10
18.71724064
 20
182.02968959
 30
0.0
  0
VERTEX
  5
608
100
AcDbEntity
  8
0
100
AcDbVertex
100
AcDb2dVertex
 10
19.41705841
 20
182.04566092
 30
0.0
  0
VERTEX
  5
609
100
AcDbEntity
  8
0
100
AcDbVertex
100
AcDb2dVertex
 10
20.11687527
 20
182.06167214
 30
0.0
  0
VERTEX
  5
60A
100
AcDbEntity
  8
0
100
AcDbVertex
100
AcDb2dVertex
 10
20.81669113
 20
182.07772705
 30
0.0
  0
VERTEX
  5
60B
100
AcDbEntity
  8
0
100
AcDbVertex
100
AcDb2dVertex
 10
21.51650589
 20
182.09382950
 30
0.0
  0
VERTEX
  5
60C
100
AcDbEntity
  8
0
100
AcDbVertex
100
AcDb2dVertex
 10
22.21631947
 20
182.10998336
 30
0.0
  0
VERTEX
  5
60D
100
AcDbEntity
  8
0
100
AcDbVertex
100
AcDb2dVertex
 10
22.91613177
 20
182.12619258
 30
0.0
  0
VERTEX
  5
60E
100
AcDbEntity
  8
0
100
AcDbVertex
100
AcDb2dVertex
 10
23.61594269
 20
182.14246113
 30
0.0
  0
VERTEX
  5
60F
100
AcDbEntity
  8
0
100
AcDbVertex
100
AcDb2dVertex
 10
24.31575214
 20
182.15879304
 30
0.0
  0
VERTEX
  5
610
100
AcDbEntity
  8
0
100
AcDbVertex
100
AcDb2dVertex
 10
25.01556000
 20
182.17519241
 30
0.0
  0
VERTEX
  5
611
100
AcDbEntity
  8
0
100
AcDbVertex
100
AcDb2dVertex
 10
25.71536619
 20
182.19166339
 30
0.0
  0
VERTEX
  5
612
100
AcDbEntity
  8
0
100
AcDbVertex
100
AcDb2dVertex
 10
26.41517058
 20
182.20821021
 30
0.0
  0
VERTEX
  5
613
100
AcDbEntity
  8
0
100
AcDbVertex
100
AcDb2dVertex
 10
27.11497307
 20
182.22483718
 30
0.0
  0
VERTEX
  5
614
100
AcDbEntity
  8
0
100
AcDbVertex
100
AcDb2dVertex
 10
27.81477355
 20
182.24154866
 30
0.0
  0
VERTEX
  5
615
100
AcDbEntity
  8
0
100
AcDbVertex
100
AcDb2dVertex
 10
28.51457190
 20
182.25834913
 30
0.0
  0
VERTEX
  5
616
100
AcDbEntity
  8
0
100
AcDbVertex
100
AcDb2dVertex
 10
29.21436799
 20
182.27524314
 30
0.0
  0
VERTEX
  5
617
100
AcDbEntity
  8
0
100
AcDbVertex
100
AcDb2dVertex
 10
29.91416171
 20
182.29223534
 30
0.0
  0
VERTEX
  5
618
100
AcDbEntity
  8
0
100
AcDbVertex
100
AcDb2dVertex
 10
30.61395292
 20
182.30933048
 30
0.0
  0
VERTEX
  5
619
100
AcDbEntity
  8
0
100
AcDbVertex
100
AcDb2dVertex
 10
31.31374148
 20
182.32653344
 30
0.0
  0
VERTEX
  5
61A
100
AcDbEntity
  8
0
100
AcDbVertex
100
AcDb2dVertex
 10
32.01352726
 20
182.34384918
 30
0.0
  0
VERTEX
  5
61B
100
AcDbEntity
  8
0
100
AcDbVertex
100
AcDb2dVertex
 10
32.71331012
 20
182.36128282
 30
0.0
  0
VERTEX
  5
61C
100
AcDbEntity
  8
0
100
AcDbVertex
100
AcDb2dVertex
 10
33.41308989
 20
182.37883960
 30
0.0
  0
VERTEX
  5
61D
100
AcDbEntity
  8
0
100
AcDbVertex
100
AcDb2dVertex
 10
34.11286643
 20
182.39652489
 30
0.0
  0
VERTEX
  5
61E
100
AcDbEntity
  8
0
100
AcDbVertex
100
AcDb2dVertex
 10
34.81263956
 20
182.41434421
 30
0.0
  0
VERTEX
  5
61F
100
AcDbEntity
  8
0
100
AcDbVertex
100
AcDb2dVertex
 10
35.51240912
 20
182.43230327
 30
0.0
  0
VERTEX
  5
620
100
AcDbEntity
  8
0
100
AcDbVertex
100
AcDb2dVertex
 10
36.21217493
 20
182.45040789
 30
0.0
  0
VERTEX
  5
621
100
AcDbEntity
  8
0
100
AcDbVertex
100
AcDb2dVertex
 10
36.91193680
 20
182.46866413
 30
0.0
  0
VERTEX
  5
622
100
AcDbEntity
  8
0
100
AcDbVertex
100
AcDb2dVertex
 10
37.61169453
 20
182.48707819
 30
0.0
  0
VERTEX
  5
623
100
AcDbEntity
  8
0
100
AcDbVertex
100
AcDb2dVertex
 10
38.31144791
 20
182.50565650
 30
0.0
  0
VERTEX
  5
624
100
AcDbEntity
  8
0
100
AcDbVertex
100
AcDb2dVertex
 10
39.01119674
 20
182.52440568
 30
0.0
  0
VERTEX
  5
625
100
AcDbEntity
  8
0
100
AcDbVertex
100
AcDb2dVertex
 10
39.71094078
 20
182.54333260
 30
0.0
  0
VERTEX
  5
626
100
AcDbEntity
  8
0
100
AcDbVertex
100
AcDb2dVertex
 10
40.41067980
 20
182.56244436
 30
0.0
  0
VERTEX
  5
627
100
AcDbEntity
  8
0
100
AcDbVertex
100
AcDb2dVertex
 10
41.11041353
 20
182.58174830
 30
0.0
  0
VERTEX
  5
628
100
AcDbEntity
  8
0
100
AcDbVertex
100
AcDb2dVertex
 10
41.81014173
 20
182.60125205
 30
0.0
  0
VERTEX
  5
629
100
AcDbEntity
  8
0
100
AcDbVertex
100
AcDb2dVertex
 10
42.50986410
 20
182.62096352
 30
0.0
  0
VERTEX
  5
62A
100
AcDbEntity
  8
0
100
AcDbVertex
100
AcDb2dVertex
 10
43.20958035
 20
182.64089092
 30
0.0
  0
VERTEX
  5
62B
100
AcDbEntity
  8
0
100
AcDbVertex
100
AcDb2dVertex
 10
43.90929017
 20
182.66104280
 30
0.0
  0
VERTEX
  5
62C
100
AcDbEntity
  8
0
100
AcDbVertex
100
AcDb2dVertex
 10
44.60899322
 20
182.68142805
 30
0.0
  0
VERTEX
  5
62D
100
AcDbEntity
  8
0
100
AcDbVertex
100
AcDb2dVertex
 10
45.30868917
 20
182.70205592
 30
0.0
  0
VERTEX
  5
62E
100
AcDbEntity
  8
0
100
AcDbVertex
100
AcDb2dVertex
 10
46.00837762
 20
182.72293606
 30
0.0
  0
VERTEX
  5
62F
100
AcDbEntity
  8
0
100
AcDbVertex
100
AcDb2dVertex
 10
46.70805819
 20
182.74407856
 30
0.0
  0
VERTEX
  5
630
100
AcDbEntity
  8
0
100
AcDbVertex
100
AcDb2dVertex
 10
47.40773047
 20
182.76549391
 30
0.0
  0
VERTEX
  5
631
100
AcDbEntity
  8
0
100
AcDbVertex
100
AcDb2dVertex
 10
48.10739399
 20
182.78719313
 30
0.0
  0
VERTEX
  5
632
100
AcDbEntity
  8
0
100
AcDbVertex
100
AcDb2dVertex
 10
48.80704828
 20
182.80918772
 30
0.0
  0
VERTEX
  5
633
100
AcDbEntity
  8
0
100
AcDbVertex
100
AcDb2dVertex
 10
49.50669284
 20
182.83148973
 30
0.0
  0
VERTEX
  5
634
100
AcDbEntity
  8
0
100
AcDbVertex
100
AcDb2dVertex
 10
50.20632711
 20
182.85411181
 30
0.0
  0
VERTEX
  5
635
100
AcDbEntity
  8
0
100
AcDbVertex
100
AcDb2dVertex
 10
50.90595052
 20
182.87706723
 30
0.0
  0
VERTEX
  5
636
100
AcDbEntity
  8
0
100
AcDbVertex
100
AcDb2dVertex
 10
51.60556244
 20
182.90036993
 30
0.0
  0
VERTEX
  5
637
100
AcDbEntity
  8
0
100
AcDbVertex
100
AcDb2dVertex
 10
52.30516221
 20
182.92403457
 30
0.0
  0
VERTEX
  5
638
100
AcDbEntity
  8
0
100
AcDbVertex
100
AcDb2dVertex
 10
53.00474910
 20
182.94807661
 30
0.0
  0
VERTEX
  5
639
100
AcDbEntity
  8
0
100
AcDbVertex
100
AcDb2dVertex
 10
53.70432235
 20
182.97251232
 30
0.0
  0
VERTEX
  5
63A
100
AcDbEntity
  8
0
100
AcDbVertex
100
AcDb2dVertex
 10
54.40388111
 20
182.99735888
 30
0.0
  0
VERTEX
  5
63B
100
AcDbEntity
  8
0
100
AcDbVertex
100
AcDb2dVertex
 10
55.10342450
 20
183.02263444
 30
0.0
  0
VERTEX
  5
63C
100
AcDbEntity
  8
0
100
AcDbVertex
100
AcDb2dVertex
 10
55.80295153
 20
183.04835821
 30
0.0
  0
VERTEX
  5
63D
100
AcDbEntity
  8
0
100
AcDbVertex
100
AcDb2dVertex
 10
56.50246117
 20
183.07455051
 30
0.0
  0
VERTEX
  5
63E
100
AcDbEntity
  8
0
100
AcDbVertex
100
AcDb2dVertex
 10
57.20195228
 20
183.10123291
 30
0.0
  0
VERTEX
  5
63F
100
AcDbEntity
  8
0
100
AcDbVertex
100
AcDb2dVertex
 10
57.90142361
 20
183.12842828
 30
0.0
  0
VERTEX
  5
640
100
AcDbEntity
  8
0
100
AcDbVertex
100
AcDb2dVertex
 10
58.60087383
 20
183.15616096
 30
0.0
  0
VERTEX
  5
641
100
AcDbEntity
  8
0
100
AcDbVertex
100
AcDb2dVertex
 10
59.30030147
 20
183.18445684
 30
0.0
  0
VERTEX
  5
642
100
AcDbEntity
  8
0
100
AcDbVertex
100
AcDb2dVertex
 10
59.99970495
 20
183.21334350
 30
0.0
  0
VERTEX
  5
643
100
AcDbEntity
  8
0
100
AcDbVertex
100
AcDb2dVertex
 10
60.69908251
 20
183.24285038
 30
0.0
  0
VERTEX
  5
644
100
AcDbEntity
  8
0
100
AcDbVertex
100
AcDb2dVertex
 10
61.39843225
 20
183.27300896
 30
0.0
  0
VERTEX
  5
645
100
AcDbEntity
  8
0
100
AcDbVertex
100
AcDb2dVertex
 10
62.09775207
 20
183.30385291
 30
0.0
  0
VERTEX
  5
646
100
AcDbEntity
  8
0
100
AcDbVertex
100
AcDb2dVertex
 10
62.79703967
 20
183.33541830
 30
0.0
  0
VERTEX
  5
647
100
AcDbEntity
  8
0
100
AcDbVertex
100
AcDb2dVertex
 10
63.49629250
 20
183.36774388
 30
0.0
  0
VERTEX
  5
648
100
AcDbEntity
  8
0
100
AcDbVertex
100
AcDb2dVertex
 10
64.19550778
 20
183.40087128
 30
0.0
  0
VERTEX
  5
649
100
AcDbEntity
  8
0
100
AcDbVertex
100
AcDb2dVertex
 10
64.89468238
 20
183.43484533
 30
0.0
  0
VERTEX
  5
64A
100
AcDbEntity
  8
0
100
AcDbVertex
100
AcDb2dVertex
 10
65.59381287
 20
183.46971439
 30
0.0
  0
VERTEX
  5
64B
100
AcDbEntity
  8
0
100
AcDbVertex
100
AcDb2dVertex
 10
66.29289541
 20
183.50553067
 30
0.0
  0
VERTEX
  5
64C
100
AcDbEntity
  8
0
100
AcDbVertex
100
AcDb2dVertex
 10
66.99192575
 20
183.54235072
 30
0.0
  0
VERTEX
  5
64D
100
AcDbEntity
  8
0
100
AcDbVertex
100
AcDb2dVertex
 10
67.69089910
 20
183.58023582
 30
0.0
  0
VERTEX
  5
64E
100
AcDbEntity
  8
0
100
AcDbVertex
100
AcDb2dVertex
 10
68.38981012
 20
183.61925255
 30
0.0
  0
VERTEX
  5
64F
100
AcDbEntity
  8
0
100
AcDbVertex
100
AcDb2dVertex
 10
69.08865277
 20
183.65947337
 30
0.0
  0
VERTEX
  5
650
100
AcDbEntity
  8
0
100
AcDbVertex
100
AcDb2dVertex
 10
69.78742029
 20
183.70097731
 30
0.0
  0
VERTEX
  5
651
100
AcDbEntity
  8
0
100
AcDbVertex
100
AcDb2dVertex
 10
70.48610498
 20
183.74385079
 30
0.0
  0
VERTEX
  5
652
100
AcDbEntity
  8
0
100
AcDbVertex
100
AcDb2dVertex
 10
71.18469817
 20
183.78818774
 30
0.0
  0
VERTEX
  5
653
100
AcDbEntity
  8
0
100
AcDbVertex
100
AcDb2dVertex
 10
71.88319102
 20
183.83407556
 30
0.0
  0
VERTEX
  5
654
100
AcDbEntity
  8
0
100
AcDbVertex
100
AcDb2dVertex
 10
72.58157468
 20
183.88159403
 30
0.0
  0
VERTEX
  5
655
100
AcDbEntity
  8
0
100
AcDbVertex
100
AcDb2dVertex
 10
73.27983929
 20
183.93082865
 30
0.0
  0
VERTEX
  5
656
100
AcDbEntity
  8
0
100
AcDbVertex
100
AcDb2dVertex
 10
73.97797383
 20
183.98187185
 30
0.0
  0
VERTEX
  5
657
100
AcDbEntity
  8
0
100
AcDbVertex
100
AcDb2dVertex
 10
74.67596596
 20
184.03482381
 30
0.0
  0
VERTEX
  5
658
100
AcDbEntity
  8
0
100
AcDbVertex
100
AcDb2dVertex
 10
75.37380185
 20
184.08979343
 30
0.0
  0
VERTEX
  5
659
100
AcDbEntity
  8
0
100
AcDbVertex
100
AcDb2dVertex
 10
75.89108140
 20
184.13192116
 30
0.0
  0
VERTEX
  5
65A
100
AcDbEntity
  8
0
100
AcDbVertex
100
AcDb2dVertex
 10
75.90104622
 20
184.13276371
 30
0.0
  0
VERTEX
  5
65B
100
AcDbEntity
  8
0
100
AcDbVertex
100
AcDb2dVertex
 10
76.00048127
 20
184.14330132
 30
0.0
  0
VERTEX
  5
65C
100
AcDbEntity
  8
0
100
AcDbVertex
100
AcDb2dVertex
 10
76.14131731
 20
184.16489570
 30
0.0
  0
VERTEX
  5
65D
100
AcDbEntity
  8
0
100
AcDbVertex
100
AcDb2dVertex
 10
76.28108482
 20
184.19417750
 30
0.0
  0
VERTEX
  5
65E
100
AcDbEntity
  8
0
100
AcDbVertex
100
AcDb2dVertex
 10
76.41959029
 20
184.23110306
 30
0.0
  0
VERTEX
  5
65F
100
AcDbEntity
  8
0
100
AcDbVertex
100
AcDb2dVertex
 10
76.81872108
 20
184.38428863
 30
0.0
  0
VERTEX
  5
660
100
AcDbEntity
  8
0
100
AcDbVertex
100
AcDb2dVertex
 10
77.19568007
 20
184.60103995
 30
0.0
  0
VERTEX
  5
661
100
AcDbEntity
  8
0
100
AcDbVertex
100
AcDb2dVertex
 10
77.54312585
 20
184.87819358
 30
0.0
  0
VERTEX
  5
662
100
AcDbEntity
  8
0
100
AcDbVertex
100
AcDb2dVertex
 10
77.66821908
 20
185.00091521
 30
0.0
  0
VERTEX
  5
663
100
AcDbEntity
  8
0
100
AcDbVertex
100
AcDb2dVertex
 10
77.96319834
 20
185.35505460
 30
0.0
  0
VERTEX
  5
664
100
AcDbEntity
  8
0
100
AcDbVertex
100
AcDb2dVertex
 10
78.21338903
 20
185.75929452
 30
0.0
  0
VERTEX
  5
665
100
AcDbEntity
  8
0
100
AcDbVertex
100
AcDb2dVertex
 10
78.41435586
 20
186.20940114
 30
0.0
  0
VERTEX
  5
666
100
AcDbEntity
  8
0
100
AcDbVertex
100
AcDb2dVertex
 10
78.48040980
 20
186.40201566
 30
0.0
  0
VERTEX
  5
667
100
AcDbEntity
  8
0
100
AcDbVertex
100
AcDb2dVertex
 10
78.60828547
 20
186.91226574
 30
0.0
  0
VERTEX
  5
668
100
AcDbEntity
  8
0
100
AcDbVertex
100
AcDb2dVertex
 10
78.68560368
 20
187.47405987
 30
0.0
  0
VERTEX
  5
669
100
AcDbEntity
  8
0
100
AcDbVertex
100
AcDb2dVertex
 10
78.71800102
 20
188.13348861
 30
0.0
  0
VERTEX
  5
66A
100
AcDbEntity
  8
0
100
AcDbVertex
100
AcDb2dVertex
 10
78.71487923
 20
188.70278243
 30
0.0
  0
VERTEX
  5
66B
100
AcDbEntity
  8
0
100
AcDbVertex
100
AcDb2dVertex
 10
78.69169160
 20
189.14615684
 30
0.0
  0
VERTEX
  5
66C
100
AcDbEntity
  8
0
100
AcDbVertex
100
AcDb2dVertex
 10
78.65267881
 20
189.50872764
 30
0.0
  0
VERTEX
  5
66D
100
AcDbEntity
  8
0
100
AcDbVertex
100
AcDb2dVertex
 10
78.59908503
 20
189.82653769
 30
0.0
  0
VERTEX
  5
66E
100
AcDbEntity
  8
0
100
AcDbVertex
100
AcDb2dVertex
 10
78.53133439
 20
190.11551133
 30
0.0
  0
VERTEX
  5
66F
100
AcDbEntity
  8
0
100
AcDbVertex
100
AcDb2dVertex
 10
78.34598702
 20
190.65409914
 30
0.0
  0
VERTEX
  5
670
100
AcDbEntity
  8
0
100
AcDbVertex
100
AcDb2dVertex
 10
78.10565338
 20
191.12210049
 30
0.0
  0
VERTEX
  5
671
100
AcDbEntity
  8
0
100
AcDbVertex
100
AcDb2dVertex
 10
77.81399107
 20
191.52884071
 30
0.0
  0
VERTEX
  5
672
100
AcDbEntity
  8
0
100
AcDbVertex
100
AcDb2dVertex
 10
77.49142380
 20
191.86055340
 30
0.0
  0
VERTEX
  5
673
100
AcDbEntity
  8
0
100
AcDbVertex
100
AcDb2dVertex
 10
77.11883340
 20
192.14145704
 30
0.0
  0
VERTEX
  5
674
100
AcDbEntity
  8
0
100
AcDbVertex
100
AcDb2dVertex
 10
76.71736799
 20
192.35343484
 30
0.0
  0
VERTEX
  5
675
100
AcDbEntity
  8
0
100
AcDbVertex
100
AcDb2dVertex
 10
76.30990792
 20
192.49071558
 30
0.0
  0
VERTEX
  5
676
100
AcDbEntity
  8
0
100
AcDbVertex
100
AcDb2dVertex
 10
75.89108140
 20
192.55999999
 30
0.0
  0
VERTEX
  5
677
100
AcDbEntity
  8
0
100
AcDbVertex
100
AcDb2dVertex
 10
71.99021250
 20
192.85067303
 30
0.0
  0
VERTEX
  5
678
100
AcDbEntity
  8
0
100
AcDbVertex
100
AcDb2dVertex
 10
67.44062275
 20
193.12537730
 30
0.0
  0
VERTEX
  5
679
100
AcDbEntity
  8
0
100
AcDbVertex
100
AcDb2dVertex
 10
61.88294120
 20
193.39761770
 30
0.0
  0
VERTEX
  5
67A
100
AcDbEntity
  8
0
100
AcDbVertex
100
AcDb2dVertex
 10
57.61063621
 20
193.57486246
 30
0.0
  0
VERTEX
  5
67B
100
AcDbEntity
  8
0
100
AcDbVertex
100
AcDb2dVertex
 10
49.54800198
 20
193.85910466
 30
0.0
  0
VERTEX
  5
67C
100
AcDbEntity
  8
0
100
AcDbVertex
100
AcDb2dVertex
 10
39.21646211
 20
194.16198201
 30
0.0
  0
VERTEX
  5
67D
100
AcDbEntity
  8
0
100
AcDbVertex
100
AcDb2dVertex
 10
25.41104010
 20
194.50742949
 30
0.0
  0
VERTEX
  5
67E
100
AcDbEntity
  8
0
100
AcDbVertex
100
AcDb2dVertex
 10
13.70852596
 20
194.77570916
 30
0.0
  0
SEQEND
  5
67F
100
AcDbEntity
  8
0
  0
LINE
  5
680
100
AcDbEntity
  8
0
100
AcDbLine
 10
13.66404270
 20
192.80407925
 30
0.0
 11
13.70852596
 21
194.77570916
 31
0.0
  0
POLYLINE
  5
681
100
AcDbEntity
  8
0
100
AcDb2dPolyline
 66
     1
  0
VERTEX
  5
682
100
AcDbEntity
  8
0
100
AcDbVertex
100
AcDb2dVertex
 10
13.66404270
 20
192.80407925
 30
0.0
  0
VERTEX
  5
683
100
AcDbEntity
  8
0
100
AcDbVertex
100
AcDb2dVertex
 10
12.24090110
 20
192.80129356
 30
0.0
  0
VERTEX
  5
684
100
AcDbEntity
  8
0
100
AcDbVertex
100
AcDb2dVertex
 10
10.96271804
 20
192.73143832
 30
0.0
  0
VERTEX
  5
685
100
AcDbEntity
  8
0
100
AcDbVertex
100
AcDb2dVertex
 10
9.98303717
 20
192.61416966
 30
0.0
  0
VERTEX
  5
686
100
AcDbEntity
  8
0
100
AcDbVertex
100
AcDb2dVertex
 10
9.92142767
 20
192.62821250
 30
0.0
  0
VERTEX
  5
687
100
AcDbEntity
  8
0
100
AcDbVertex
100
AcDb2dVertex
 10
9.86033178
 20
192.64608698
 30
0.0
  0
VERTEX
  5
688
100
AcDbEntity
  8
0
100
AcDbVertex
100
AcDb2dVertex
 10
9.79986748
 20
192.66775328
 30
0.0
  0
VERTEX
  5
689
100
AcDbEntity
  8
0
100
AcDbVertex
100
AcDb2dVertex
 10
9.74015138
 20
192.69316439
 30
0.0
  0
VERTEX
  5
68A
100
AcDbEntity
  8
0
100
AcDbVertex
100
AcDb2dVertex
 10
9.68129842
 20
192.72226616
 30
0.0
  0
VERTEX
  5
68B
100
AcDbEntity
  8
0
100
AcDbVertex
100
AcDb2dVertex
 10
9.62342170
 20
192.75499745
 30
0.0
  0
VERTEX
  5
68C
100
AcDbEntity
  8
0
100
AcDbVertex
100
AcDb2dVertex
 10
9.56663218
 20
192.79129025
 30
0.0
  0
VERTEX
  5
68D
100
AcDbEntity
  8
0
100
AcDbVertex
100
AcDb2dVertex
 10
9.51103854
 20
192.83106980
 30
0.0
  0
VERTEX
  5
68E
100
AcDbEntity
  8
0
100
AcDbVertex
100
AcDb2dVertex
 10
9.45674691
 20
192.87425477
 30
0.0
  0
VERTEX
  5
68F
100
AcDbEntity
  8
0
100
AcDbVertex
100
AcDb2dVertex
 10
9.40386069
 20
192.92075743
 30
0.0
  0
VERTEX
  5
690
100
AcDbEntity
  8
0
100
AcDbVertex
100
AcDb2dVertex
 10
9.35248033
 20
192.97048381
 30
0.0
  0
VERTEX
  5
691
100
AcDbEntity
  8
0
100
AcDbVertex
100
AcDb2dVertex
 10
9.30270313
 20
193.02333394
 30
0.0
  0
VERTEX
  5
692
100
AcDbEntity
  8
0
100
AcDbVertex
100
AcDb2dVertex
 10
9.25462308
 20
193.07920202
 30
0.0
  0
VERTEX
  5
693
100
AcDbEntity
  8
0
100
AcDbVertex
100
AcDb2dVertex
 10
9.20833067
 20
193.13797664
 30
0.0
  0
VERTEX
  5
694
100
AcDbEntity
  8
0
100
AcDbVertex
100
AcDb2dVertex
 10
9.16391270
 20
193.19954105
 30
0.0
  0
VERTEX
  5
695
100
AcDbEntity
  8
0
100
AcDbVertex
100
AcDb2dVertex
 10
9.12145215
 20
193.26377337
 30
0.0
  0
VERTEX
  5
696
100
AcDbEntity
  8
0
100
AcDbVertex
100
AcDb2dVertex
 10
9.08102796
 20
193.33054684
 30
0.0
  0
VERTEX
  5
697
100
AcDbEntity
  8
0
100
AcDbVertex
100
AcDb2dVertex
 10
9.00658365
 20
193.47118737
 30
0.0
  0
VERTEX
  5
698
100
AcDbEntity
  8
0
100
AcDbVertex
100
AcDb2dVertex
 10
8.97270006
 20
193.54477891
 30
0.0
  0
VERTEX
  5
699
100
AcDbEntity
  8
0
100
AcDbVertex
100
AcDb2dVertex
 10
8.91191710
 20
193.69778683
 30
0.0
  0
VERTEX
  5
69A
100
AcDbEntity
  8
0
100
AcDbVertex
100
AcDb2dVertex
 10
8.88512614
 20
193.77690577
 30
0.0
  0
VERTEX
  5
69B
100
AcDbEntity
  8
0
100
AcDbVertex
100
AcDb2dVertex
 10
8.83897768
 20
193.93960767
 30
0.0
  0
VERTEX
  5
69C
100
AcDbEntity
  8
0
100
AcDbVertex
100
AcDb2dVertex
 10
8.81969618
 20
194.02287650
 30
0.0
  0
VERTEX
  5
69D
100
AcDbEntity
  8
0
100
AcDbVertex
100
AcDb2dVertex
 10
8.77731901
 20
194.27842215
 30
0.0
  0
VERTEX
  5
69E
100
AcDbEntity
  8
0
100
AcDbVertex
100
AcDb2dVertex
 10
8.76834316
 20
194.36495578
 30
0.0
  0
VERTEX
  5
69F
100
AcDbEntity
  8
0
100
AcDbVertex
100
AcDb2dVertex
 10
8.75883709
 20
194.60688483
 30
0.0
  0
SEQEND
  5
6A0
100
AcDbEntity
  8
0
  0
POLYLINE
  5
6A1
100
AcDbEntity
  8
0
100
AcDb2dPolyline
 66
     1
  0
VERTEX
  5
6A2
100
AcDbEntity
  8
0
100
AcDbVertex
100
AcDb2dVertex
 10
75.75086408
 20
190.86280613
 30
0.0
  0
VERTEX
  5
6A3
100
AcDbEntity
  8
0
100
AcDbVertex
100
AcDb2dVertex
 10
69.98715726
 20
191.15655107
 30
0.0
  0
VERTEX
  5
6A4
100
AcDbEntity
  8
0
100
AcDbVertex
100
AcDb2dVertex
 10
62.00627948
 20
191.49286354
 30
0.0
  0
VERTEX
  5
6A5
100
AcDbEntity
  8
0
100
AcDbVertex
100
AcDb2dVertex
 10
53.00794295
 20
191.80663590
 30
0.0
  0
VERTEX
  5
6A6
100
AcDbEntity
  8
0
100
AcDbVertex
100
AcDb2dVertex
 10
46.35820019
 20
192.00681568
 30
0.0
  0
VERTEX
  5
6A7
100
AcDbEntity
  8
0
100
AcDbVertex
100
AcDb2dVertex
 10
33.52528777
 20
192.34427444
 30
0.0
  0
VERTEX
  5
6A8
100
AcDbEntity
  8
0
100
AcDbVertex
100
AcDb2dVertex
 10
15.50414396
 20
192.76265094
 30
0.0
  0
VERTEX
  5
6A9
100
AcDbEntity
  8
0
100
AcDbVertex
100
AcDb2dVertex
 10
13.66404270
 20
192.80407925
 30
0.0
  0
SEQEND
  5
6AA
100
AcDbEntity
  8
0
  0
POLYLINE
  5
6AB
100
AcDbEntity
  8
0
100
AcDb2dPolyline
 66
     1
  0
VERTEX
  5
6AC
100
AcDbEntity
  8
0
100
AcDbVertex
100
AcDb2dVertex
 10
75.75086604
 20
185.82911095
 30
0.0
  0
VERTEX
  5
6AD
100
AcDbEntity
  8
0
100
AcDbVertex
100
AcDb2dVertex
 10
75.75629340
 20
185.85498471
 30
0.0
  0
VERTEX
  5
6AE
100
AcDbEntity
  8
0
100
AcDbVertex
100
AcDb2dVertex
 10
75.80249645
 20
186.10691582
 30
0.0
  0
VERTEX
  5
6AF
100
AcDbEntity
  8
0
100
AcDbVertex
100
AcDb2dVertex
 10
75.89445883
 20
186.95676915
 30
0.0
  0
VERTEX
  5
6B0
100
AcDbEntity
  8
0
100
AcDbVertex
100
AcDb2dVertex
 10
75.92941556
 20
187.93294237
 30
0.0
  0
VERTEX
  5
6B1
100
AcDbEntity
  8
0
100
AcDbVertex
100
AcDb2dVertex
 10
75.91593811
 20
189.31627142
 30
0.0
  0
VERTEX
  5
6B2
100
AcDbEntity
  8
0
100
AcDbVertex
100
AcDb2dVertex
 10
75.86401672
 20
190.10613835
 30
0.0
  0
VERTEX
  5
6B3
100
AcDbEntity
  8
0
100
AcDbVertex
100
AcDb2dVertex
 10
75.85465753
 20
190.19571178
 30
0.0
  0
VERTEX
  5
6B4
100
AcDbEntity
  8
0
100
AcDbVertex
100
AcDb2dVertex
 10
75.84488520
 20
190.28118150
 30
0.0
  0
VERTEX
  5
6B5
100
AcDbEntity
  8
0
100
AcDbVertex
100
AcDb2dVertex
 10
75.83473355
 20
190.36276040
 30
0.0
  0
VERTEX
  5
6B6
100
AcDbEntity
  8
0
100
AcDbVertex
100
AcDb2dVertex
 10
75.82422644
 20
190.44071011
 30
0.0
  0
VERTEX
  5
6B7
100
AcDbEntity
  8
0
100
AcDbVertex
100
AcDb2dVertex
 10
75.75086408
 20
190.86280613
 30
0.0
  0
SEQEND
  5
6B8
100
AcDbEntity
  8
0
  0
POLYLINE
  5
6B9
100
AcDbEntity
  8
0
100
AcDb2dPolyline
 66
     1
  0
VERTEX
  5
6BA
100
AcDbEntity
  8
0
100
AcDbVertex
100
AcDb2dVertex
 10
13.66404270
 20
183.88784179
 30
0.0
  0
VERTEX
  5
6BB
100
AcDbEntity
  8
0
100
AcDbVertex
100
AcDb2dVertex
 10
13.77401041
 20
183.89031753
 30
0.0
  0
VERTEX
  5
6BC
100
AcDbEntity
  8
0
100
AcDbVertex
100
AcDb2dVertex
 10
14.47379899
 20
183.90607137
 30
0.0
  0
VERTEX
  5
6BD
100
AcDbEntity
  8
0
100
AcDbVertex
100
AcDb2dVertex
 10
15.17357724
 20
183.92182622
 30
0.0
  0
VERTEX
  5
6BE
100
AcDbEntity
  8
0
100
AcDbVertex
100
AcDb2dVertex
 10
15.87334506
 20
183.93758569
 30
0.0
  0
VERTEX
  5
6BF
100
AcDbEntity
  8
0
100
AcDbVertex
100
AcDb2dVertex
 10
16.57310234
 20
183.95335337
 30
0.0
  0
VERTEX
  5
6C0
100
AcDbEntity
  8
0
100
AcDbVertex
100
AcDb2dVertex
 10
17.27284896
 20
183.96913282
 30
0.0
  0
VERTEX
  5
6C1
100
AcDbEntity
  8
0
100
AcDbVertex
100
AcDb2dVertex
 10
17.97258479
 20
183.98492762
 30
0.0
  0
VERTEX
  5
6C2
100
AcDbEntity
  8
0
100
AcDbVertex
100
AcDb2dVertex
 10
18.67230968
 20
184.00074134
 30
0.0
  0
VERTEX
  5
6C3
100
AcDbEntity
  8
0
100
AcDbVertex
100
AcDb2dVertex
 10
19.37202347
 20
184.01657755
 30
0.0
  0
VERTEX
  5
6C4
100
AcDbEntity
  8
0
100
AcDbVertex
100
AcDb2dVertex
 10
20.07172601
 20
184.03243983
 30
0.0
  0
VERTEX
  5
6C5
100
AcDbEntity
  8
0
100
AcDbVertex
100
AcDb2dVertex
 10
20.77141711
 20
184.04833176
 30
0.0
  0
VERTEX
  5
6C6
100
AcDbEntity
  8
0
100
AcDbVertex
100
AcDb2dVertex
 10
21.47109659
 20
184.06425694
 30
0.0
  0
VERTEX
  5
6C7
100
AcDbEntity
  8
0
100
AcDbVertex
100
AcDb2dVertex
 10
22.17076423
 20
184.08021898
 30
0.0
  0
VERTEX
  5
6C8
100
AcDbEntity
  8
0
100
AcDbVertex
100
AcDb2dVertex
 10
22.87041983
 20
184.09622152
 30
0.0
  0
VERTEX
  5
6C9
100
AcDbEntity
  8
0
100
AcDbVertex
100
AcDb2dVertex
 10
23.57006315
 20
184.11226820
 30
0.0
  0
VERTEX
  5
6CA
100
AcDbEntity
  8
0
100
AcDbVertex
100
AcDb2dVertex
 10
24.26969396
 20
184.12836272
 30
0.0
  0
VERTEX
  5
6CB
100
AcDbEntity
  8
0
100
AcDbVertex
100
AcDb2dVertex
 10
24.96931199
 20
184.14450877
 30
0.0
  0
VERTEX
  5
6CC
100
AcDbEntity
  8
0
100
AcDbVertex
100
AcDb2dVertex
 10
25.66891698
 20
184.16071009
 30
0.0
  0
VERTEX
  5
6CD
100
AcDbEntity
  8
0
100
AcDbVertex
100
AcDb2dVertex
 10
26.36850863
 20
184.17697048
 30
0.0
  0
VERTEX
  5
6CE
100
AcDbEntity
  8
0
100
AcDbVertex
100
AcDb2dVertex
 10
27.06808664
 20
184.19329373
 30
0.0
  0
VERTEX
  5
6CF
100
AcDbEntity
  8
0
100
AcDbVertex
100
AcDb2dVertex
 10
27.76765070
 20
184.20968372
 30
0.0
  0
VERTEX
  5
6D0
100
AcDbEntity
  8
0
100
AcDbVertex
100
AcDb2dVertex
 10
28.46720046
 20
184.22614435
 30
0.0
  0
VERTEX
  5
6D1
100
AcDbEntity
  8
0
100
AcDbVertex
100
AcDb2dVertex
 10
29.16673556
 20
184.24267957
 30
0.0
  0
VERTEX
  5
6D2
100
AcDbEntity
  8
0
100
AcDbVertex
100
AcDb2dVertex
 10
29.86625563
 20
184.25929340
 30
0.0
  0
VERTEX
  5
6D3
100
AcDbEntity
  8
0
100
AcDbVertex
100
AcDb2dVertex
 10
30.56576028
 20
184.27598992
 30
0.0
  0
VERTEX
  5
6D4
100
AcDbEntity
  8
0
100
AcDbVertex
100
AcDb2dVertex
 10
31.26524908
 20
184.29277324
 30
0.0
  0
VERTEX
  5
6D5
100
AcDbEntity
  8
0
100
AcDbVertex
100
AcDb2dVertex
 10
31.96472159
 20
184.30964758
 30
0.0
  0
VERTEX
  5
6D6
100
AcDbEntity
  8
0
100
AcDbVertex
100
AcDb2dVertex
 10
32.66417735
 20
184.32661719
 30
0.0
  0
VERTEX
  5
6D7
100
AcDbEntity
  8
0
100
AcDbVertex
100
AcDb2dVertex
 10
33.36361587
 20
184.34368643
 30
0.0
  0
VERTEX
  5
6D8
100
AcDbEntity
  8
0
100
AcDbVertex
100
AcDb2dVertex
 10
34.06303663
 20
184.36085971
 30
0.0
  0
VERTEX
  5
6D9
100
AcDbEntity
  8
0
100
AcDbVertex
100
AcDb2dVertex
 10
34.76243909
 20
184.37814154
 30
0.0
  0
VERTEX
  5
6DA
100
AcDbEntity
  8
0
100
AcDbVertex
100
AcDb2dVertex
 10
35.46182267
 20
184.39553652
 30
0.0
  0
VERTEX
  5
6DB
100
AcDbEntity
  8
0
100
AcDbVertex
100
AcDb2dVertex
 10
36.16118678
 20
184.41304933
 30
0.0
  0
VERTEX
  5
6DC
100
AcDbEntity
  8
0
100
AcDbVertex
100
AcDb2dVertex
 10
36.86053077
 20
184.43068476
 30
0.0
  0
VERTEX
  5
6DD
100
AcDbEntity
  8
0
100
AcDbVertex
100
AcDb2dVertex
 10
37.55985397
 20
184.44844769
 30
0.0
  0
VERTEX
  5
6DE
100
AcDbEntity
  8
0
100
AcDbVertex
100
AcDb2dVertex
 10
38.25915568
 20
184.46634312
 30
0.0
  0
VERTEX
  5
6DF
100
AcDbEntity
  8
0
100
AcDbVertex
100
AcDb2dVertex
 10
38.95843513
 20
184.48437615
 30
0.0
  0
VERTEX
  5
6E0
100
AcDbEntity
  8
0
100
AcDbVertex
100
AcDb2dVertex
 10
39.65769156
 20
184.50255202
 30
0.0
  0
VERTEX
  5
6E1
100
AcDbEntity
  8
0
100
AcDbVertex
100
AcDb2dVertex
 10
40.35692411
 20
184.52087607
 30
0.0
  0
VERTEX
  5
6E2
100
AcDbEntity
  8
0
100
AcDbVertex
100
AcDb2dVertex
 10
41.05613190
 20
184.53935378
 30
0.0
  0
VERTEX
  5
6E3
100
AcDbEntity
  8
0
100
AcDbVertex
100
AcDb2dVertex
 10
41.75531402
 20
184.55799078
 30
0.0
  0
VERTEX
  5
6E4
100
AcDbEntity
  8
0
100
AcDbVertex
100
AcDb2dVertex
 10
42.45446946
 20
184.57679281
 30
0.0
  0
VERTEX
  5
6E5
100
AcDbEntity
  8
0
100
AcDbVertex
100
AcDb2dVertex
 10
43.15359718
 20
184.59576577
 30
0.0
  0
VERTEX
  5
6E6
100
AcDbEntity
  8
0
100
AcDbVertex
100
AcDb2dVertex
 10
43.85269609
 20
184.61491574
 30
0.0
  0
VERTEX
  5
6E7
100
AcDbEntity
  8
0
100
AcDbVertex
100
AcDb2dVertex
 10
44.55176500
 20
184.63424893
 30
0.0
  0
VERTEX
  5
6E8
100
AcDbEntity
  8
0
100
AcDbVertex
100
AcDb2dVertex
 10
45.25080269
 20
184.65377173
 30
0.0
  0
VERTEX
  5
6E9
100
AcDbEntity
  8
0
100
AcDbVertex
100
AcDb2dVertex
 10
45.94980783
 20
184.67349069
 30
0.0
  0
VERTEX
  5
6EA
100
AcDbEntity
  8
0
100
AcDbVertex
100
AcDb2dVertex
 10
46.64877903
 20
184.69341255
 30
0.0
  0
VERTEX
  5
6EB
100
AcDbEntity
  8
0
100
AcDbVertex
100
AcDb2dVertex
 10
47.34771482
 20
184.71354425
 30
0.0
  0
VERTEX
  5
6EC
100
AcDbEntity
  8
0
100
AcDbVertex
100
AcDb2dVertex
 10
48.04661361
 20
184.73389289
 30
0.0
  0
VERTEX
  5
6ED
100
AcDbEntity
  8
0
100
AcDbVertex
100
AcDb2dVertex
 10
48.74547373
 20
184.75446580
 30
0.0
  0
VERTEX
  5
6EE
100
AcDbEntity
  8
0
100
AcDbVertex
100
AcDb2dVertex
 10
49.44429341
 20
184.77527051
 30
0.0
  0
VERTEX
  5
6EF
100
AcDbEntity
  8
0
100
AcDbVertex
100
AcDb2dVertex
 10
50.14307076
 20
184.79631475
 30
0.0
  0
VERTEX
  5
6F0
100
AcDbEntity
  8
0
100
AcDbVertex
100
AcDb2dVertex
 10
50.84180375
 20
184.81760648
 30
0.0
  0
VERTEX
  5
6F1
100
AcDbEntity
  8
0
100
AcDbVertex
100
AcDb2dVertex
 10
51.54049023
 20
184.83915387
 30
0.0
  0
VERTEX
  5
6F2
100
AcDbEntity
  8
0
100
AcDbVertex
100
AcDb2dVertex
 10
52.23912792
 20
184.86096533
 30
0.0
  0
VERTEX
  5
6F3
100
AcDbEntity
  8
0
100
AcDbVertex
100
AcDb2dVertex
 10
52.93771437
 20
184.88304951
 30
0.0
  0
VERTEX
  5
6F4
100
AcDbEntity
  8
0
100
AcDbVertex
100
AcDb2dVertex
 10
53.63624696
 20
184.90541527
 30
0.0
  0
VERTEX
  5
6F5
100
AcDbEntity
  8
0
100
AcDbVertex
100
AcDb2dVertex
 10
54.33472290
 20
184.92807175
 30
0.0
  0
VERTEX
  5
6F6
100
AcDbEntity
  8
0
100
AcDbVertex
100
AcDb2dVertex
 10
55.03313920
 20
184.95102829
 30
0.0
  0
VERTEX
  5
6F7
100
AcDbEntity
  8
0
100
AcDbVertex
100
AcDb2dVertex
 10
55.73149266
 20
184.97429450
 30
0.0
  0
VERTEX
  5
6F8
100
AcDbEntity
  8
0
100
AcDbVertex
100
AcDb2dVertex
 10
56.42977986
 20
184.99788021
 30
0.0
  0
VERTEX
  5
6F9
100
AcDbEntity
  8
0
100
AcDbVertex
100
AcDb2dVertex
 10
57.12799711
 20
185.02179550
 30
0.0
  0
VERTEX
  5
6FA
100
AcDbEntity
  8
0
100
AcDbVertex
100
AcDb2dVertex
 10
57.82614047
 20
185.04605067
 30
0.0
  0
VERTEX
  5
6FB
100
AcDbEntity
  8
0
100
AcDbVertex
100
AcDb2dVertex
 10
58.52420572
 20
185.07065624
 30
0.0
  0
VERTEX
  5
6FC
100
AcDbEntity
  8
0
100
AcDbVertex
100
AcDb2dVertex
 10
59.22218830
 20
185.09562295
 30
0.0
  0
VERTEX
  5
6FD
100
AcDbEntity
  8
0
100
AcDbVertex
100
AcDb2dVertex
 10
59.92008333
 20
185.12096173
 30
0.0
  0
VERTEX
  5
6FE
100
AcDbEntity
  8
0
100
AcDbVertex
100
AcDb2dVertex
 10
60.61788555
 20
185.14668368
 30
0.0
  0
VERTEX
  5
6FF
100
AcDbEntity
  8
0
100
AcDbVertex
100
AcDb2dVertex
 10
61.31558928
 20
185.17280005
 30
0.0
  0
VERTEX
  5
700
100
AcDbEntity
  8
0
100
AcDbVertex
100
AcDb2dVertex
 10
62.01318844
 20
185.19932222
 30
0.0
  0
VERTEX
  5
701
100
AcDbEntity
  8
0
100
AcDbVertex
100
AcDb2dVertex
 10
62.71067645
 20
185.22626163
 30
0.0
  0
VERTEX
  5
702
100
AcDbEntity
  8
0
100
AcDbVertex
100
AcDb2dVertex
 10
63.40804621
 20
185.25362979
 30
0.0
  0
VERTEX
  5
703
100
AcDbEntity
  8
0
100
AcDbVertex
100
AcDb2dVertex
 10
64.10529008
 20
185.28143819
 30
0.0
  0
VERTEX
  5
704
100
AcDbEntity
  8
0
100
AcDbVertex
100
AcDb2dVertex
 10
64.80239980
 20
185.30969827
 30
0.0
  0
VERTEX
  5
705
100
AcDbEntity
  8
0
100
AcDbVertex
100
AcDb2dVertex
 10
65.49936643
 20
185.33842133
 30
0.0
  0
VERTEX
  5
706
100
AcDbEntity
  8
0
100
AcDbVertex
100
AcDb2dVertex
 10
66.19618034
 20
185.36761849
 30
0.0
  0
VERTEX
  5
707
100
AcDbEntity
  8
0
100
AcDbVertex
100
AcDb2dVertex
 10
66.89283110
 20
185.39730061
 30
0.0
  0
VERTEX
  5
708
100
AcDbEntity
  8
0
100
AcDbVertex
100
AcDb2dVertex
 10
67.58930744
 20
185.42747817
 30
0.0
  0
VERTEX
  5
709
100
AcDbEntity
  8
0
100
AcDbVertex
100
AcDb2dVertex
 10
68.28559716
 20
185.45816127
 30
0.0
  0
VERTEX
  5
70A
100
AcDbEntity
  8
0
100
AcDbVertex
100
AcDb2dVertex
 10
68.98168705
 20
185.48935944
 30
0.0
  0
VERTEX
  5
70B
100
AcDbEntity
  8
0
100
AcDbVertex
100
AcDb2dVertex
 10
69.67756279
 20
185.52108169
 30
0.0
  0
VERTEX
  5
70C
100
AcDbEntity
  8
0
100
AcDbVertex
100
AcDb2dVertex
 10
70.37320888
 20
185.55333632
 30
0.0
  0
VERTEX
  5
70D
100
AcDbEntity
  8
0
100
AcDbVertex
100
AcDb2dVertex
 10
71.06861739
 20
185.58616282
 30
0.0
  0
VERTEX
  5
70E
100
AcDbEntity
  8
0
100
AcDbVertex
100
AcDb2dVertex
 10
71.76382201
 20
185.61974875
 30
0.0
  0
VERTEX
  5
70F
100
AcDbEntity
  8
0
100
AcDbVertex
100
AcDb2dVertex
 10
72.45881880
 20
185.65414397
 30
0.0
  0
VERTEX
  5
710
100
AcDbEntity
  8
0
100
AcDbVertex
100
AcDb2dVertex
 10
73.15359579
 20
185.68937454
 30
0.0
  0
VERTEX
  5
711
100
AcDbEntity
  8
0
100
AcDbVertex
100
AcDb2dVertex
 10
73.84814001
 20
185.72546893
 30
0.0
  0
VERTEX
  5
712
100
AcDbEntity
  8
0
100
AcDbVertex
100
AcDb2dVertex
 10
74.54243733
 20
185.76245845
 30
0.0
  0
VERTEX
  5
713
100
AcDbEntity
  8
0
100
AcDbVertex
100
AcDb2dVertex
 10
75.23647232
 20
185.80037782
 30
0.0
  0
VERTEX
  5
714
100
AcDbEntity
  8
0
100
AcDbVertex
100
AcDb2dVertex
 10
75.75086604
 20
185.82911095
 30
0.0
  0
SEQEND
  5
715
100
AcDbEntity
  8
0
  0
POLYLINE
  5
716
100
AcDbEntity
  8
0
100
AcDb2dPolyline
 66
     1
  0
VERTEX
  5
717
100
AcDbEntity
  8
0
100
AcDbVertex
100
AcDb2dVertex
 10
9.98302194
 20
184.07775138
 30
0.0
  0
VERTEX
  5
718
100
AcDbEntity
  8
0
100
AcDbVertex
100
AcDb2dVertex
 10
10.86563281
 20
183.96907735
 30
0.0
  0
VERTEX
  5
719
100
AcDbEntity
  8
0
100
AcDbVertex
100
AcDb2dVertex
 10
12.03468648
 20
183.89712397
 30
0.0
  0
VERTEX
  5
71A
100
AcDbEntity
  8
0
100
AcDbVertex
100
AcDb2dVertex
 10
13.40903716
 20
183.88319949
 30
0.0
  0
VERTEX
  5
71B
100
AcDbEntity
  8
0
100
AcDbVertex
100
AcDb2dVertex
 10
13.66404270
 20
183.88784179
 30
0.0
  0
SEQEND
  5
71C
100
AcDbEntity
  8
0
  0
POLYLINE
  5
71D
100
AcDbEntity
  8
0
100
AcDb2dPolyline
 66
     1
  0
VERTEX
  5
71E
100
AcDbEntity
  8
0
100
AcDbVertex
100
AcDb2dVertex
 10
9.98302194
 20
184.07775138
 30
0.0
  0
VERTEX
  5
71F
100
AcDbEntity
  8
0
100
AcDbVertex
100
AcDb2dVertex
 10
9.92141310
 20
184.06370854
 30
0.0
  0
VERTEX
  5
720
100
AcDbEntity
  8
0
100
AcDbVertex
100
AcDb2dVertex
 10
9.86031819
 20
184.04583406
 30
0.0
  0
VERTEX
  5
721
100
AcDbEntity
  8
0
100
AcDbVertex
100
AcDb2dVertex
 10
9.79985525
 20
184.02416775
 30
0.0
  0
VERTEX
  5
722
100
AcDbEntity
  8
0
100
AcDbVertex
100
AcDb2dVertex
 10
9.74014094
 20
183.99875665
 30
0.0
  0
VERTEX
  5
723
100
AcDbEntity
  8
0
100
AcDbVertex
100
AcDb2dVertex
 10
9.68129029
 20
183.96965488
 30
0.0
  0
VERTEX
  5
724
100
AcDbEntity
  8
0
100
AcDbVertex
100
AcDb2dVertex
 10
9.56663052
 20
183.90063079
 30
0.0
  0
VERTEX
  5
725
100
AcDbEntity
  8
0
100
AcDbVertex
100
AcDb2dVertex
 10
9.51104122
 20
183.86085124
 30
0.0
  0
VERTEX
  5
726
100
AcDbEntity
  8
0
100
AcDbVertex
100
AcDb2dVertex
 10
9.40387480
 20
183.77116361
 30
0.0
  0
VERTEX
  5
727
100
AcDbEntity
  8
0
100
AcDbVertex
100
AcDb2dVertex
 10
9.35250176
 20
183.72143722
 30
0.0
  0
VERTEX
  5
728
100
AcDbEntity
  8
0
100
AcDbVertex
100
AcDb2dVertex
 10
9.25466312
 20
183.61271902
 30
0.0
  0
VERTEX
  5
729
100
AcDbEntity
  8
0
100
AcDbVertex
100
AcDb2dVertex
 10
9.20838236
 20
183.55394440
 30
0.0
  0
VERTEX
  5
72A
100
AcDbEntity
  8
0
100
AcDbVertex
100
AcDb2dVertex
 10
9.08112686
 20
183.36137419
 30
0.0
  0
VERTEX
  5
72B
100
AcDbEntity
  8
0
100
AcDbVertex
100
AcDb2dVertex
 10
9.04283482
 20
183.29219095
 30
0.0
  0
VERTEX
  5
72C
100
AcDbEntity
  8
0
100
AcDbVertex
100
AcDb2dVertex
 10
8.88958494
 20
182.92793985
 30
0.0
  0
VERTEX
  5
72D
100
AcDbEntity
  8
0
100
AcDbVertex
100
AcDb2dVertex
 10
8.83940198
 20
182.75231336
 30
0.0
  0
VERTEX
  5
72E
100
AcDbEntity
  8
0
100
AcDbVertex
100
AcDb2dVertex
 10
8.82021350
 20
182.66904454
 30
0.0
  0
VERTEX
  5
72F
100
AcDbEntity
  8
0
100
AcDbVertex
100
AcDb2dVertex
 10
8.76411356
 20
182.23641729
 30
0.0
  0
VERTEX
  5
730
100
AcDbEntity
  8
0
100
AcDbVertex
100
AcDb2dVertex
 10
8.75873515
 20
182.08503621
 30
0.0
  0
SEQEND
  5
731
100
AcDbEntity
  8
0
  0
POLYLINE
  5
732
100
AcDbEntity
  8
0
100
AcDb2dPolyline
 66
     1
  0
VERTEX
  5
733
100
AcDbEntity
  8
0
100
AcDbVertex
100
AcDb2dVertex
 10
6.70852596
 20
181.91621188
 30
0.0
  0
VERTEX
  5
734
100
AcDbEntity
  8
0
100
AcDbVertex
100
AcDb2dVertex
 10
6.74350523
 20
181.90916520
 30
0.0
  0
VERTEX
  5
735
100
AcDbEntity
  8
0
100
AcDbVertex
100
AcDb2dVertex
 10
6.76178846
 20
181.90874329
 30
0.0
  0
VERTEX
  5
736
100
AcDbEntity
  8
0
100
AcDbVertex
100
AcDb2dVertex
 10
7.04180053
 20
181.92199038
 30
0.0
  0
VERTEX
  5
737
100
AcDbEntity
  8
0
100
AcDbVertex
100
AcDb2dVertex
 10
7.55079506
 20
181.96414793
 30
0.0
  0
VERTEX
  5
738
100
AcDbEntity
  8
0
100
AcDbVertex
100
AcDb2dVertex
 10
8.26973494
 20
182.03389261
 30
0.0
  0
VERTEX
  5
739
100
AcDbEntity
  8
0
100
AcDbVertex
100
AcDb2dVertex
 10
8.75873515
 20
182.08503621
 30
0.0
  0
SEQEND
  5
73A
100
AcDbEntity
  8
0
  0
POLYLINE
  5
73B
100
AcDbEntity
  8
0
100
AcDb2dPolyline
 66
     1
  0
VERTEX
  5
73C
100
AcDbEntity
  8
0
100
AcDbVertex
100
AcDb2dVertex
 10
7.61637810
 20
190.80513050
 30
0.0
  0
VERTEX
  5
73D
100
AcDbEntity
  8
0
100
AcDbVertex
100
AcDb2dVertex
 10
7.31771305
 20
191.04246392
 30
0.0
  0
VERTEX
  5
73E
100
AcDbEntity
  8
0
100
AcDbVertex
100
AcDb2dVertex
 10
7.07195616
 20
191.32897710
 30
0.0
  0
VERTEX
  5
73F
100
AcDbEntity
  8
0
100
AcDbVertex
100
AcDb2dVertex
 10
6.95007063
 20
191.52505021
 30
0.0
  0
VERTEX
  5
740
100
AcDbEntity
  8
0
100
AcDbVertex
100
AcDb2dVertex
 10
6.80382051
 20
191.86655184
 30
0.0
  0
VERTEX
  5
741
100
AcDbEntity
  8
0
100
AcDbVertex
100
AcDb2dVertex
 10
6.72412419
 20
192.22587870
 30
0.0
  0
VERTEX
  5
742
100
AcDbEntity
  8
0
100
AcDbVertex
100
AcDb2dVertex
 10
6.70852596
 20
192.47422841
 30
0.0
  0
SEQEND
  5
743
100
AcDbEntity
  8
0
  0
POLYLINE
  5
744
100
AcDbEntity
  8
0
100
AcDb2dPolyline
 66
     1
  0
VERTEX
  5
745
100
AcDbEntity
  8
0
100
AcDbVertex
100
AcDb2dVertex
 10
7.61637810
 20
190.80513050
 30
0.0
  0
VERTEX
  5
746
100
AcDbEntity
  8
0
100
AcDbVertex
100
AcDb2dVertex
 10
7.83229317
 20
190.65002552
 30
0.0
  0
VERTEX
  5
747
100
AcDbEntity
  8
0
100
AcDbVertex
100
AcDb2dVertex
 10
8.02196983
 20
190.49096820
 30
0.0
  0
VERTEX
  5
748
100
AcDbEntity
  8
0
100
AcDbVertex
100
AcDb2dVertex
 10
8.34247162
 20
190.14697197
 30
0.0
  0
VERTEX
  5
749
100
AcDbEntity
  8
0
100
AcDbVertex
100
AcDb2dVertex
 10
8.56143365
 20
189.81219178
 30
0.0
  0
VERTEX
  5
74A
100
AcDbEntity
  8
0
100
AcDbVertex
100
AcDb2dVertex
 10
8.72288197
 20
189.44154888
 30
0.0
  0
VERTEX
  5
74B
100
AcDbEntity
  8
0
100
AcDbVertex
100
AcDb2dVertex
 10
8.82459984
 20
189.04358130
 30
0.0
  0
VERTEX
  5
74C
100
AcDbEntity
  8
0
100
AcDbVertex
100
AcDb2dVertex
 10
8.87417701
 20
188.59850724
 30
0.0
  0
VERTEX
  5
74D
100
AcDbEntity
  8
0
100
AcDbVertex
100
AcDb2dVertex
 10
8.88039210
 20
188.33376787
 30
0.0
  0
VERTEX
  5
74E
100
AcDbEntity
  8
0
100
AcDbVertex
100
AcDb2dVertex
 10
8.86938428
 20
188.01491890
 30
0.0
  0
VERTEX
  5
74F
100
AcDbEntity
  8
0
100
AcDbVertex
100
AcDb2dVertex
 10
8.84062157
 20
187.74672189
 30
0.0
  0
VERTEX
  5
750
100
AcDbEntity
  8
0
100
AcDbVertex
100
AcDb2dVertex
 10
8.79607607
 20
187.50872172
 30
0.0
  0
VERTEX
  5
751
100
AcDbEntity
  8
0
100
AcDbVertex
100
AcDb2dVertex
 10
8.65689739
 20
187.07777486
 30
0.0
  0
VERTEX
  5
752
100
AcDbEntity
  8
0
100
AcDbVertex
100
AcDb2dVertex
 10
8.56143365
 20
186.87972926
 30
0.0
  0
VERTEX
  5
753
100
AcDbEntity
  8
0
100
AcDbVertex
100
AcDb2dVertex
 10
8.34054527
 20
186.54247647
 30
0.0
  0
VERTEX
  5
754
100
AcDbEntity
  8
0
100
AcDbVertex
100
AcDb2dVertex
 10
8.06293042
 20
186.23884633
 30
0.0
  0
VERTEX
  5
755
100
AcDbEntity
  8
0
100
AcDbVertex
100
AcDb2dVertex
 10
7.71977335
 20
185.95811509
 30
0.0
  0
VERTEX
  5
756
100
AcDbEntity
  8
0
100
AcDbVertex
100
AcDb2dVertex
 10
7.61636082
 20
185.88678009
 30
0.0
  0
VERTEX
  5
757
100
AcDbEntity
  8
0
100
AcDbVertex
100
AcDb2dVertex
 10
7.66342513
 20
185.82427245
 30
0.0
  0
VERTEX
  5
758
100
AcDbEntity
  8
0
100
AcDbVertex
100
AcDb2dVertex
 10
7.72172161
 20
185.74645855
 30
0.0
  0
VERTEX
  5
759
100
AcDbEntity
  8
0
100
AcDbVertex
100
AcDb2dVertex
 10
7.77392939
 20
185.67631650
 30
0.0
  0
VERTEX
  5
75A
100
AcDbEntity
  8
0
100
AcDbVertex
100
AcDb2dVertex
 10
7.83514348
 20
185.59344829
 30
0.0
  0
VERTEX
  5
75B
100
AcDbEntity
  8
0
100
AcDbVertex
100
AcDb2dVertex
 10
7.92265699
 20
185.46799966
 30
0.0
  0
VERTEX
  5
75C
100
AcDbEntity
  8
0
100
AcDbVertex
100
AcDb2dVertex
 10
8.09974323
 20
185.14984786
 30
0.0
  0
VERTEX
  5
75D
100
AcDbEntity
  8
0
100
AcDbVertex
100
AcDb2dVertex
 10
8.23401879
 20
184.80078360
 30
0.0
  0
VERTEX
  5
75E
100
AcDbEntity
  8
0
100
AcDbVertex
100
AcDb2dVertex
 10
8.29831562
 20
184.55856660
 30
0.0
  0
VERTEX
  5
75F
100
AcDbEntity
  8
0
100
AcDbVertex
100
AcDb2dVertex
 10
8.31378692
 20
184.48493305
 30
0.0
  0
VERTEX
  5
760
100
AcDbEntity
  8
0
100
AcDbVertex
100
AcDb2dVertex
 10
8.35601611
 20
184.21018893
 30
0.0
  0
VERTEX
  5
761
100
AcDbEntity
  8
0
100
AcDbVertex
100
AcDb2dVertex
 10
8.36257027
 20
184.14500623
 30
0.0
  0
VERTEX
  5
762
100
AcDbEntity
  8
0
100
AcDbVertex
100
AcDb2dVertex
 10
8.37581475
 20
183.88784178
 30
0.0
  0
SEQEND
  5
763
100
AcDbEntity
  8
0
  0
POLYLINE
  5
764
100
AcDbEntity
  8
0
100
AcDb2dPolyline
 66
     1
  0
VERTEX
  5
765
100
AcDbEntity
  8
0
100
AcDbVertex
100
AcDb2dVertex
 10
7.61637810
 20
190.80513050
 30
0.0
  0
VERTEX
  5
766
100
AcDbEntity
  8
0
100
AcDbVertex
100
AcDb2dVertex
 10
7.69320855
 20
190.64715216
 30
0.0
  0
VERTEX
  5
767
100
AcDbEntity
  8
0
100
AcDbVertex
100
AcDb2dVertex
 10
7.91129372
 20
190.02747250
 30
0.0
  0
VERTEX
  5
768
100
AcDbEntity
  8
0
100
AcDbVertex
100
AcDb2dVertex
 10
8.01278074
 20
189.65681124
 30
0.0
  0
VERTEX
  5
769
100
AcDbEntity
  8
0
100
AcDbVertex
100
AcDb2dVertex
 10
8.08216832
 20
189.32790071
 30
0.0
  0
VERTEX
  5
76A
100
AcDbEntity
  8
0
100
AcDbVertex
100
AcDb2dVertex
 10
8.15033538
 20
188.75631576
 30
0.0
  0
VERTEX
  5
76B
100
AcDbEntity
  8
0
100
AcDbVertex
100
AcDb2dVertex
 10
8.15889163
 20
188.11894858
 30
0.0
  0
VERTEX
  5
76C
100
AcDbEntity
  8
0
100
AcDbVertex
100
AcDb2dVertex
 10
8.10133905
 20
187.47925576
 30
0.0
  0
VERTEX
  5
76D
100
AcDbEntity
  8
0
100
AcDbVertex
100
AcDb2dVertex
 10
7.98759080
 20
186.93482191
 30
0.0
  0
VERTEX
  5
76E
100
AcDbEntity
  8
0
100
AcDbVertex
100
AcDb2dVertex
 10
7.91549517
 20
186.67834060
 30
0.0
  0
VERTEX
  5
76F
100
AcDbEntity
  8
0
100
AcDbVertex
100
AcDb2dVertex
 10
7.89226262
 20
186.60267177
 30
0.0
  0
VERTEX
  5
770
100
AcDbEntity
  8
0
100
AcDbVertex
100
AcDb2dVertex
 10
7.70005485
 20
186.06132488
 30
0.0
  0
VERTEX
  5
771
100
AcDbEntity
  8
0
100
AcDbVertex
100
AcDb2dVertex
 10
7.61636082
 20
185.88678009
 30
0.0
  0
SEQEND
  5
772
100
AcDbEntity
  8
0
  0
POLYLINE
  5
773
100
AcDbEntity
  8
0
100
AcDb2dPolyline
 66
     1
  0
VERTEX
  5
774
100
AcDbEntity
  8
0
100
AcDbVertex
100
AcDb2dVertex
 10
8.37581475
 20
192.80407925
 30
0.0
  0
VERTEX
  5
775
100
AcDbEntity
  8
0
100
AcDbVertex
100
AcDb2dVertex
 10
8.33183247
 20
192.30635403
 30
0.0
  0
VERTEX
  5
776
100
AcDbEntity
  8
0
100
AcDbVertex
100
AcDb2dVertex
 10
8.28062342
 20
192.05821220
 30
0.0
  0
VERTEX
  5
777
100
AcDbEntity
  8
0
100
AcDbVertex
100
AcDb2dVertex
 10
8.21002508
 20
191.81731185
 30
0.0
  0
VERTEX
  5
778
100
AcDbEntity
  8
0
100
AcDbVertex
100
AcDb2dVertex
 10
8.12639645
 20
191.60113032
 30
0.0
  0
VERTEX
  5
779
100
AcDbEntity
  8
0
100
AcDbVertex
100
AcDb2dVertex
 10
8.00211657
 20
191.35349972
 30
0.0
  0
VERTEX
  5
77A
100
AcDbEntity
  8
0
100
AcDbVertex
100
AcDb2dVertex
 10
7.96735042
 20
191.29462044
 30
0.0
  0
VERTEX
  5
77B
100
AcDbEntity
  8
0
100
AcDbVertex
100
AcDb2dVertex
 10
7.84030314
 20
191.10575823
 30
0.0
  0
VERTEX
  5
77C
100
AcDbEntity
  8
0
100
AcDbVertex
100
AcDb2dVertex
 10
7.79037691
 20
191.03777708
 30
0.0
  0
VERTEX
  5
77D
100
AcDbEntity
  8
0
100
AcDbVertex
100
AcDb2dVertex
 10
7.68137376
 20
190.89154323
 30
0.0
  0
VERTEX
  5
77E
100
AcDbEntity
  8
0
100
AcDbVertex
100
AcDb2dVertex
 10
7.61637810
 20
190.80513050
 30
0.0
  0
SEQEND
  5
77F
100
AcDbEntity
  8
0
  0
POLYLINE
  5
780
100
AcDbEntity
  8
0
100
AcDb2dPolyline
 66
     1
  0
VERTEX
  5
781
100
AcDbEntity
  8
0
100
AcDbVertex
100
AcDb2dVertex
 10
7.61636082
 20
185.88678009
 30
0.0
  0
VERTEX
  5
782
100
AcDbEntity
  8
0
100
AcDbVertex
100
AcDb2dVertex
 10
7.31772781
 20
185.64947054
 30
0.0
  0
VERTEX
  5
783
100
AcDbEntity
  8
0
100
AcDbVertex
100
AcDb2dVertex
 10
7.07196792
 20
185.36295975
 30
0.0
  0
VERTEX
  5
784
100
AcDbEntity
  8
0
100
AcDbVertex
100
AcDb2dVertex
 10
6.95007554
 20
185.16687896
 30
0.0
  0
VERTEX
  5
785
100
AcDbEntity
  8
0
100
AcDbVertex
100
AcDb2dVertex
 10
6.80382365
 20
184.82537803
 30
0.0
  0
VERTEX
  5
786
100
AcDbEntity
  8
0
100
AcDbVertex
100
AcDb2dVertex
 10
6.72412548
 20
184.46605151
 30
0.0
  0
VERTEX
  5
787
100
AcDbEntity
  8
0
100
AcDbVertex
100
AcDb2dVertex
 10
6.70852596
 20
184.21769156
 30
0.0
  0
SEQEND
  5
788
100
AcDbEntity
  8
0
  0
POLYLINE
  5
789
100
AcDbEntity
  8
0
100
AcDb2dPolyline
 66
     1
  0
VERTEX
  5
78A
100
AcDbEntity
  8
0
100
AcDbVertex
100
AcDb2dVertex
 10
8.75873515
 20
182.08503621
 30
0.0
  0
VERTEX
  5
78B
100
AcDbEntity
  8
0
100
AcDbVertex
100
AcDb2dVertex
 10
10.05003957
 20
181.98179017
 30
0.0
  0
VERTEX
  5
78C
100
AcDbEntity
  8
0
100
AcDbVertex
100
AcDb2dVertex
 10
11.73529219
 20
181.91863402
 30
0.0
  0
VERTEX
  5
78D
100
AcDbEntity
  8
0
100
AcDbVertex
100
AcDb2dVertex
 10
13.70852596
 20
181.91621188
 30
0.0
  0
SEQEND
  5
78E
100
AcDbEntity
  8
0
  0
LINE
  5
78F
100
AcDbEntity
  8
0
100
AcDbLine
 10
13.66404270
 20
183.88784179
 30
0.0
 11
13.70852596
 21
181.91621188
 31
0.0
  0
LINE
  5
790
100
AcDbEntity
  8
0
100
AcDbLine
 10
75.75086604
 20
185.82911095
 30
0.0
 11
75.89108140
 21
184.13192116
 31
0.0
  0
POLYLINE
  5
791
100
AcDbEntity
  8
0
100
AcDb2dPolyline
 66
     1
  0
VERTEX
  5
792
100
AcDbEntity
  8
0
100
AcDbVertex
100
AcDb2dVertex
 10
75.75086604
 20
185.82911095
 30
0.0
  0
VERTEX
  5
793
100
AcDbEntity
  8
0
100
AcDbVertex
100
AcDb2dVertex
 10
75.96643228
 20
185.89897984
 30
0.0
  0
VERTEX
  5
794
100
AcDbEntity
  8
0
100
AcDbVertex
100
AcDb2dVertex
 10
76.17404315
 20
186.03770720
 30
0.0
  0
VERTEX
  5
795
100
AcDbEntity
  8
0
100
AcDbVertex
100
AcDb2dVertex
 10
76.36266788
 20
186.24539786
 30
0.0
  0
VERTEX
  5
796
100
AcDbEntity
  8
0
100
AcDbVertex
100
AcDb2dVertex
 10
76.44213839
 20
186.36727030
 30
0.0
  0
VERTEX
  5
797
100
AcDbEntity
  8
0
100
AcDbVertex
100
AcDb2dVertex
 10
76.47677729
 20
186.42946250
 30
0.0
  0
VERTEX
  5
798
100
AcDbEntity
  8
0
100
AcDbVertex
100
AcDb2dVertex
 10
76.61195126
 20
186.75631251
 30
0.0
  0
VERTEX
  5
799
100
AcDbEntity
  8
0
100
AcDbVertex
100
AcDb2dVertex
 10
76.64810852
 20
186.88212930
 30
0.0
  0
VERTEX
  5
79A
100
AcDbEntity
  8
0
100
AcDbVertex
100
AcDb2dVertex
 10
76.67001303
 20
186.97303221
 30
0.0
  0
VERTEX
  5
79B
100
AcDbEntity
  8
0
100
AcDbVertex
100
AcDb2dVertex
 10
76.70771107
 20
187.17261439
 30
0.0
  0
VERTEX
  5
79C
100
AcDbEntity
  8
0
100
AcDbVertex
100
AcDb2dVertex
 10
76.75893551
 20
187.69881052
 30
0.0
  0
VERTEX
  5
79D
100
AcDbEntity
  8
0
100
AcDbVertex
100
AcDb2dVertex
 10
76.77231366
 20
188.47261079
 30
0.0
  0
VERTEX
  5
79E
100
AcDbEntity
  8
0
100
AcDbVertex
100
AcDb2dVertex
 10
76.76797271
 20
188.75466310
 30
0.0
  0
VERTEX
  5
79F
100
AcDbEntity
  8
0
100
AcDbVertex
100
AcDb2dVertex
 10
76.75985587
 20
188.97479683
 30
0.0
  0
VERTEX
  5
7A0
100
AcDbEntity
  8
0
100
AcDbVertex
100
AcDb2dVertex
 10
76.73210212
 20
189.33582289
 30
0.0
  0
VERTEX
  5
7A1
100
AcDbEntity
  8
0
100
AcDbVertex
100
AcDb2dVertex
 10
76.64348424
 20
189.82736837
 30
0.0
  0
VERTEX
  5
7A2
100
AcDbEntity
  8
0
100
AcDbVertex
100
AcDb2dVertex
 10
76.61772490
 20
189.91713049
 30
0.0
  0
VERTEX
  5
7A3
100
AcDbEntity
  8
0
100
AcDbVertex
100
AcDb2dVertex
 10
76.58999532
 20
190.00136649
 30
0.0
  0
VERTEX
  5
7A4
100
AcDbEntity
  8
0
100
AcDbVertex
100
AcDb2dVertex
 10
76.56034779
 20
190.08065970
 30
0.0
  0
VERTEX
  5
7A5
100
AcDbEntity
  8
0
100
AcDbVertex
100
AcDb2dVertex
 10
76.52884459
 20
190.15541411
 30
0.0
  0
VERTEX
  5
7A6
100
AcDbEntity
  8
0
100
AcDbVertex
100
AcDb2dVertex
 10
76.49555585
 20
190.22591581
 30
0.0
  0
VERTEX
  5
7A7
100
AcDbEntity
  8
0
100
AcDbVertex
100
AcDb2dVertex
 10
76.46055864
 20
190.29237025
 30
0.0
  0
VERTEX
  5
7A8
100
AcDbEntity
  8
0
100
AcDbVertex
100
AcDb2dVertex
 10
76.42393584
 20
190.35492616
 30
0.0
  0
VERTEX
  5
7A9
100
AcDbEntity
  8
0
100
AcDbVertex
100
AcDb2dVertex
 10
76.38577492
 20
190.41370491
 30
0.0
  0
VERTEX
  5
7AA
100
AcDbEntity
  8
0
100
AcDbVertex
100
AcDb2dVertex
 10
76.34616682
 20
190.46879430
 30
0.0
  0
VERTEX
  5
7AB
100
AcDbEntity
  8
0
100
AcDbVertex
100
AcDb2dVertex
 10
76.30521081
 20
190.52023223
 30
0.0
  0
VERTEX
  5
7AC
100
AcDbEntity
  8
0
100
AcDbVertex
100
AcDb2dVertex
 10
76.26300910
 20
190.56807255
 30
0.0
  0
VERTEX
  5
7AD
100
AcDbEntity
  8
0
100
AcDbVertex
100
AcDb2dVertex
 10
76.21966546
 20
190.61236205
 30
0.0
  0
VERTEX
  5
7AE
100
AcDbEntity
  8
0
100
AcDbVertex
100
AcDb2dVertex
 10
76.17528393
 20
190.65313702
 30
0.0
  0
VERTEX
  5
7AF
100
AcDbEntity
  8
0
100
AcDbVertex
100
AcDb2dVertex
 10
76.12997873
 20
190.69039086
 30
0.0
  0
VERTEX
  5
7B0
100
AcDbEntity
  8
0
100
AcDbVertex
100
AcDb2dVertex
 10
76.08386612
 20
190.72413360
 30
0.0
  0
VERTEX
  5
7B1
100
AcDbEntity
  8
0
100
AcDbVertex
100
AcDb2dVertex
 10
76.03706459
 20
190.75438193
 30
0.0
  0
VERTEX
  5
7B2
100
AcDbEntity
  8
0
100
AcDbVertex
100
AcDb2dVertex
 10
75.98969036
 20
190.78115218
 30
0.0
  0
VERTEX
  5
7B3
100
AcDbEntity
  8
0
100
AcDbVertex
100
AcDb2dVertex
 10
75.94186159
 20
190.80445755
 30
0.0
  0
VERTEX
  5
7B4
100
AcDbEntity
  8
0
100
AcDbVertex
100
AcDb2dVertex
 10
75.89369842
 20
190.82430908
 30
0.0
  0
VERTEX
  5
7B5
100
AcDbEntity
  8
0
100
AcDbVertex
100
AcDb2dVertex
 10
75.79685887
 20
190.85367619
 30
0.0
  0
VERTEX
  5
7B6
100
AcDbEntity
  8
0
100
AcDbVertex
100
AcDb2dVertex
 10
75.75086408
 20
190.86280613
 30
0.0
  0
VERTEX
  5
7B7
100
AcDbEntity
  8
0
100
AcDbVertex
100
AcDb2dVertex
 10
75.89108140
 20
192.55999999
 30
0.0
  0
SEQEND
  5
7B8
100
AcDbEntity
  8
0
  0
POLYLINE
  5
7B9
100
AcDbEntity
  8
0
100
AcDb2dPolyline
 66
     1
  0
VERTEX
  5
7BA
100
AcDbEntity
  8
0
100
AcDbVertex
100
AcDb2dVertex
 10
70.79756656
 20
165.34596052
 30
0.0
  0
VERTEX
  5
7BB
100
AcDbEntity
  8
0
100
AcDbVertex
100
AcDb2dVertex
 10
69.88406285
 20
165.43816235
 30
0.0
  0
VERTEX
  5
7BC
100
AcDbEntity
  8
0
100
AcDbVertex
100
AcDb2dVertex
 10
69.02765864
 20
165.52465905
 30
0.0
  0
VERTEX
  5
7BD
100
AcDbEntity
  8
0
100
AcDbVertex
100
AcDb2dVertex
 10
68.22479222
 20
165.60587447
 30
0.0
  0
VERTEX
  5
7BE
100
AcDbEntity
  8
0
100
AcDbVertex
100
AcDb2dVertex
 10
67.47212229
 20
165.68218476
 30
0.0
  0
VERTEX
  5
7BF
100
AcDbEntity
  8
0
100
AcDbVertex
100
AcDb2dVertex
 10
66.76651468
 20
165.75392620
 30
0.0
  0
VERTEX
  5
7C0
100
AcDbEntity
  8
0
100
AcDbVertex
100
AcDb2dVertex
 10
66.10502981
 20
165.82140160
 30
0.0
  0
VERTEX
  5
7C1
100
AcDbEntity
  8
0
100
AcDbVertex
100
AcDb2dVertex
 10
65.48491085
 20
165.88488542
 30
0.0
  0
VERTEX
  5
7C2
100
AcDbEntity
  8
0
100
AcDbVertex
100
AcDb2dVertex
 10
64.90356399
 20
165.94458374
 30
0.0
  0
VERTEX
  5
7C3
100
AcDbEntity
  8
0
100
AcDbVertex
100
AcDb2dVertex
 10
63.81359194
 20
166.05721068
 30
0.0
  0
VERTEX
  5
7C4
100
AcDbEntity
  8
0
100
AcDbVertex
100
AcDb2dVertex
 10
62.94919919
 20
166.14772275
 30
0.0
  0
VERTEX
  5
7C5
100
AcDbEntity
  8
0
100
AcDbVertex
100
AcDb2dVertex
 10
62.23167196
 20
166.22404712
 30
0.0
  0
VERTEX
  5
7C6
100
AcDbEntity
  8
0
100
AcDbVertex
100
AcDb2dVertex
 10
61.59206064
 20
166.29324160
 30
0.0
  0
VERTEX
  5
7C7
100
AcDbEntity
  8
0
100
AcDbVertex
100
AcDb2dVertex
 10
61.00545429
 20
166.35784479
 30
0.0
  0
VERTEX
  5
7C8
100
AcDbEntity
  8
0
100
AcDbVertex
100
AcDb2dVertex
 10
60.09132722
 20
166.46236866
 30
0.0
  0
VERTEX
  5
7C9
100
AcDbEntity
  8
0
100
AcDbVertex
100
AcDb2dVertex
 10
58.86862386
 20
166.61762965
 30
0.0
  0
VERTEX
  5
7CA
100
AcDbEntity
  8
0
100
AcDbVertex
100
AcDb2dVertex
 10
56.45306259
 20
166.97199716
 30
0.0
  0
VERTEX
  5
7CB
100
AcDbEntity
  8
0
100
AcDbVertex
100
AcDb2dVertex
 10
48.90263600
 20
168.12275402
 30
0.0
  0
VERTEX
  5
7CC
100
AcDbEntity
  8
0
100
AcDbVertex
100
AcDb2dVertex
 10
43.64189217
 20
168.90000708
 30
0.0
  0
VERTEX
  5
7CD
100
AcDbEntity
  8
0
100
AcDbVertex
100
AcDb2dVertex
 10
39.82221348
 20
169.44266538
 30
0.0
  0
VERTEX
  5
7CE
100
AcDbEntity
  8
0
100
AcDbVertex
100
AcDb2dVertex
 10
36.53206477
 20
169.89085548
 30
0.0
  0
VERTEX
  5
7CF
100
AcDbEntity
  8
0
100
AcDbVertex
100
AcDb2dVertex
 10
33.72600201
 20
170.25499293
 30
0.0
  0
VERTEX
  5
7D0
100
AcDbEntity
  8
0
100
AcDbVertex
100
AcDb2dVertex
 10
30.99940554
 20
170.58789918
 30
0.0
  0
VERTEX
  5
7D1
100
AcDbEntity
  8
0
100
AcDbVertex
100
AcDb2dVertex
 10
28.81382189
 20
170.83487350
 30
0.0
  0
VERTEX
  5
7D2
100
AcDbEntity
  8
0
100
AcDbVertex
100
AcDb2dVertex
 10
26.96470027
 20
171.02504127
 30
0.0
  0
VERTEX
  5
7D3
100
AcDbEntity
  8
0
100
AcDbVertex
100
AcDb2dVertex
 10
23.63609752
 20
171.31022306
 30
0.0
  0
VERTEX
  5
7D4
100
AcDbEntity
  8
0
100
AcDbVertex
100
AcDb2dVertex
 10
20.83445442
 20
171.48017206
 30
0.0
  0
VERTEX
  5
7D5
100
AcDbEntity
  8
0
100
AcDbVertex
100
AcDb2dVertex
 10
18.19310827
 20
171.57167785
 30
0.0
  0
VERTEX
  5
7D6
100
AcDbEntity
  8
0
100
AcDbVertex
100
AcDb2dVertex
 10
15.61790401
 20
171.59157386
 30
0.0
  0
VERTEX
  5
7D7
100
AcDbEntity
  8
0
100
AcDbVertex
100
AcDb2dVertex
 10
13.70852596
 20
171.56717135
 30
0.0
  0
SEQEND
  5
7D8
100
AcDbEntity
  8
0
  0
LINE
  5
7D9
100
AcDbEntity
  8
0
100
AcDbLine
 10
125.20899022
 20
165.34596052
 30
0.0
 11
70.79756656
 21
165.34596052
 31
0.0
  0
POLYLINE
  5
7DA
100
AcDbEntity
  8
0
100
AcDb2dPolyline
 66
     1
  0
VERTEX
  5
7DB
100
AcDbEntity
  8
0
100
AcDbVertex
100
AcDb2dVertex
 10
125.20899022
 20
165.34596052
 30
0.0
  0
VERTEX
  5
7DC
100
AcDbEntity
  8
0
100
AcDbVertex
100
AcDb2dVertex
 10
129.20899022
 20
169.34596052
 30
0.0
  0
VERTEX
  5
7DD
100
AcDbEntity
  8
0
100
AcDbVertex
100
AcDb2dVertex
 10
129.20899022
 20
207.34596052
 30
0.0
  0
VERTEX
  5
7DE
100
AcDbEntity
  8
0
100
AcDbVertex
100
AcDb2dVertex
 10
125.20899022
 20
211.34596052
 30
0.0
  0
SEQEND
  5
7DF
100
AcDbEntity
  8
0
  0
LINE
  5
7E0
100
AcDbEntity
  8
0
100
AcDbLine
 10
70.79756656
 20
211.34596052
 30
0.0
 11
125.20899022
 21
211.34596052
 31
0.0
  0
POLYLINE
  5
7E1
100
AcDbEntity
  8
0
100
AcDb2dPolyline
 66
     1
  0
VERTEX
  5
7E2
100
AcDbEntity
  8
0
100
AcDbVertex
100
AcDb2dVertex
 10
13.70852596
 20
205.12474969
 30
0.0
  0
VERTEX
  5
7E3
100
AcDbEntity
  8
0
100
AcDbVertex
100
AcDb2dVertex
 10
15.28218013
 20
205.10247301
 30
0.0
  0
VERTEX
  5
7E4
100
AcDbEntity
  8
0
100
AcDbVertex
100
AcDb2dVertex
 10
18.07874832
 20
205.11791718
 30
0.0
  0
VERTEX
  5
7E5
100
AcDbEntity
  8
0
100
AcDbVertex
100
AcDb2dVertex
 10
20.83445441
 20
205.21174898
 30
0.0
  0
VERTEX
  5
7E6
100
AcDbEntity
  8
0
100
AcDbVertex
100
AcDb2dVertex
 10
23.52888388
 20
205.37392919
 30
0.0
  0
VERTEX
  5
7E7
100
AcDbEntity
  8
0
100
AcDbVertex
100
AcDb2dVertex
 10
26.42443948
 20
205.61522212
 30
0.0
  0
VERTEX
  5
7E8
100
AcDbEntity
  8
0
100
AcDbVertex
100
AcDb2dVertex
 10
29.68396918
 20
205.95284209
 30
0.0
  0
VERTEX
  5
7E9
100
AcDbEntity
  8
0
100
AcDbVertex
100
AcDb2dVertex
 10
30.99940554
 20
206.10402186
 30
0.0
  0
VERTEX
  5
7EA
100
AcDbEntity
  8
0
100
AcDbVertex
100
AcDb2dVertex
 10
35.48920564
 20
206.66354411
 30
0.0
  0
VERTEX
  5
7EB
100
AcDbEntity
  8
0
100
AcDbVertex
100
AcDb2dVertex
 10
40.99974823
 20
207.41425028
 30
0.0
  0
VERTEX
  5
7EC
100
AcDbEntity
  8
0
100
AcDbVertex
100
AcDb2dVertex
 10
43.64189217
 20
207.79191396
 30
0.0
  0
VERTEX
  5
7ED
100
AcDbEntity
  8
0
100
AcDbVertex
100
AcDb2dVertex
 10
51.02468320
 20
208.89013102
 30
0.0
  0
VERTEX
  5
7EE
100
AcDbEntity
  8
0
100
AcDbVertex
100
AcDb2dVertex
 10
53.63851879
 20
209.28904801
 30
0.0
  0
VERTEX
  5
7EF
100
AcDbEntity
  8
0
100
AcDbVertex
100
AcDb2dVertex
 10
56.45306259
 20
209.71992388
 30
0.0
  0
VERTEX
  5
7F0
100
AcDbEntity
  8
0
100
AcDbVertex
100
AcDb2dVertex
 10
58.26903543
 20
209.99051887
 30
0.0
  0
VERTEX
  5
7F1
100
AcDbEntity
  8
0
100
AcDbVertex
100
AcDb2dVertex
 10
60.56244490
 20
210.28425579
 30
0.0
  0
VERTEX
  5
7F2
100
AcDbEntity
  8
0
100
AcDbVertex
100
AcDb2dVertex
 10
61.12605539
 20
210.34745783
 30
0.0
  0
VERTEX
  5
7F3
100
AcDbEntity
  8
0
100
AcDbVertex
100
AcDb2dVertex
 10
65.43273244
 20
210.80168283
 30
0.0
  0
VERTEX
  5
7F4
100
AcDbEntity
  8
0
100
AcDbVertex
100
AcDb2dVertex
 10
70.79756656
 20
211.34596052
 30
0.0
  0
SEQEND
  5
7F5
100
AcDbEntity
  8
0
  0
LINE
  5
7F6
100
AcDbEntity
  8
0
100
AcDbLine
  6
STRICHPUNKT2
 62
     1
 10
119.20899022
 20
175.34596052
 30
0.0
 11
119.20899022
 21
172.34596052
 31
0.0
  0
LINE
  5
7F7
100
AcDbEntity
  8
0
100
AcDbLine
  6
STRICHPUNKT2
 62
     1
 10
119.20899022
 20
175.34596052
 30
0.0
 11
119.20899022
 21
178.34596052
 31
0.0
  0
LINE
  5
7F8
100
AcDbEntity
  8
0
100
AcDbLine
  6
STRICHPUNKT2
 62
     1
 10
119.20899022
 20
175.34596052
 30
0.0
 11
122.20899022
 21
175.34596052
 31
0.0
  0
LINE
  5
7F9
100
AcDbEntity
  8
0
100
AcDbLine
  6
STRICHPUNKT2
 62
     1
 10
119.20899022
 20
175.34596052
 30
0.0
 11
116.20899022
 21
175.34596052
 31
0.0
  0
LINE
  5
7FA
100
AcDbEntity
  8
0
100
AcDbLine
  6
STRICHPUNKT2
 62
     1
 10
119.20899022
 20
201.34596052
 30
0.0
 11
119.20899022
 21
196.84596052
 31
0.0
  0
LINE
  5
7FB
100
AcDbEntity
  8
0
100
AcDbLine
  6
STRICHPUNKT2
 62
     1
 10
119.20899022
 20
201.34596052
 30
0.0
 11
119.20899022
 21
205.84596052
 31
0.0
  0
LINE
  5
7FC
100
AcDbEntity
  8
0
100
AcDbLine
  6
STRICHPUNKT2
 62
     1
 10
119.20899022
 20
201.34596052
 30
0.0
 11
123.70899022
 21
201.34596052
 31
0.0
  0
LINE
  5
7FD
100
AcDbEntity
  8
0
100
AcDbLine
  6
STRICHPUNKT2
 62
     1
 10
119.20899022
 20
201.34596052
 30
0.0
 11
114.70899022
 21
201.34596052
 31
0.0
  0
LINE
  5
7FE
100
AcDbEntity
  8
0
100
AcDbLine
  6
STRICHPUNKT2
 62
     1
 10
39.20899022
 20
172.84596052
 30
0.0
 11
39.20899022
 21
169.84596052
 31
0.0
  0
LINE
  5
7FF
100
AcDbEntity
  8
0
100
AcDbLine
  6
STRICHPUNKT2
 62
     1
 10
39.20899022
 20
172.84596052
 30
0.0
 11
39.20899022
 21
175.84596052
 31
0.0
  0
LINE
  5
800
100
AcDbEntity
  8
0
100
AcDbLine
  6
STRICHPUNKT2
 62
     1
 10
39.20899022
 20
172.84596052
 30
0.0
 11
42.20899022
 21
172.84596052
 31
0.0
  0
LINE
  5
801
100
AcDbEntity
  8
0
100
AcDbLine
  6
STRICHPUNKT2
 62
     1
 10
39.20899022
 20
172.84596052
 30
0.0
 11
36.20899022
 21
172.84596052
 31
0.0
  0
LINE
  5
802
100
AcDbEntity
  8
0
100
AcDbLine
  6
STRICHPUNKT2
 62
     1
 10
109.20899022
 20
188.34596052
 30
0.0
 11
109.20899022
 21
180.09596052
 31
0.0
  0
LINE
  5
803
100
AcDbEntity
  8
0
100
AcDbLine
  6
STRICHPUNKT2
 62
     1
 10
109.20899022
 20
188.34596052
 30
0.0
 11
109.20899022
 21
196.59596052
 31
0.0
  0
LINE
  5
804
100
AcDbEntity
  8
0
100
AcDbLine
  6
STRICHPUNKT2
 62
     1
 10
109.20899022
 20
188.34596052
 30
0.0
 11
117.45899022
 21
188.34596052
 31
0.0
  0
LINE
  5
805
100
AcDbEntity
  8
0
100
AcDbLine
  6
STRICHPUNKT2
 62
     1
 10
109.20899022
 20
188.34596052
 30
0.0
 11
100.95899022
 21
188.34596052
 31
0.0
  0
LINE
  5
806
100
AcDbEntity
  8
0
100
AcDbLine
  6
STRICHPUNKT2
 62
     1
 10
94.20899022
 20
180.34596052
 30
0.0
 11
94.20899022
 21
177.34596052
 31
0.0
  0
LINE
  5
807
100
AcDbEntity
  8
0
100
AcDbLine
  6
STRICHPUNKT2
 62
     1
 10
94.20899022
 20
180.34596052
 30
0.0
 11
94.20899022
 21
183.34596052
 31
0.0
  0
LINE
  5
808
100
AcDbEntity
  8
0
100
AcDbLine
  6
STRICHPUNKT2
 62
     1
 10
94.20899022
 20
180.34596052
 30
0.0
 11
97.20899022
 21
180.34596052
 31
0.0
  0
LINE
  5
809
100
AcDbEntity
  8
0
100
AcDbLine
  6
STRICHPUNKT2
 62
     1
 10
94.20899022
 20
180.34596052
 30
0.0
 11
91.20899022
 21
180.34596052
 31
0.0
  0
LINE
  5
80A
100
AcDbEntity
  8
0
100
AcDbLine
  6
STRICHPUNKT2
 62
     1
 10
94.20899022
 20
196.34596052
 30
0.0
 11
94.20899022
 21
193.34596052
 31
0.0
  0
LINE
  5
80B
100
AcDbEntity
  8
0
100
AcDbLine
  6
STRICHPUNKT2
 62
     1
 10
94.20899022
 20
196.34596052
 30
0.0
 11
94.20899022
 21
199.34596052
 31
0.0
  0
LINE
  5
80C
100
AcDbEntity
  8
0
100
AcDbLine
  6
STRICHPUNKT2
 62
     1
 10
94.20899022
 20
196.34596052
 30
0.0
 11
97.20899022
 21
196.34596052
 31
0.0
  0
LINE
  5
80D
100
AcDbEntity
  8
0
100
AcDbLine
  6
STRICHPUNKT2
 62
     1
 10
94.20899022
 20
196.34596052
 30
0.0
 11
91.20899022
 21
196.34596052
 31
0.0
  0
LINE
  5
80E
100
AcDbEntity
  8
0
100
AcDbLine
  6
STRICHPUNKT2
 62
     1
 10
69.20899022
 20
201.34596052
 30
0.0
 11
69.20899022
 21
198.34596052
 31
0.0
  0
LINE
  5
80F
100
AcDbEntity
  8
0
100
AcDbLine
  6
STRICHPUNKT2
 62
     1
 10
69.20899022
 20
201.34596052
 30
0.0
 11
69.20899022
 21
204.34596052
 31
0.0
  0
LINE
  5
810
100
AcDbEntity
  8
0
100
AcDbLine
  6
STRICHPUNKT2
 62
     1
 10
69.20899022
 20
201.34596052
 30
0.0
 11
72.20899022
 21
201.34596052
 31
0.0
  0
LINE
  5
811
100
AcDbEntity
  8
0
100
AcDbLine
  6
STRICHPUNKT2
 62
     1
 10
69.20899022
 20
201.34596052
 30
0.0
 11
66.20899022
 21
201.34596052
 31
0.0
  0
LINE
  5
812
100
AcDbEntity
  8
0
100
AcDbLine
  6
STRICHPUNKT2
 62
     1
 10
69.20899022
 20
175.34596052
 30
0.0
 11
69.20899022
 21
170.84596052
 31
0.0
  0
LINE
  5
813
100
AcDbEntity
  8
0
100
AcDbLine
  6
STRICHPUNKT2
 62
     1
 10
69.20899022
 20
175.34596052
 30
0.0
 11
69.20899022
 21
179.84596052
 31
0.0
  0
LINE
  5
814
100
AcDbEntity
  8
0
100
AcDbLine
  6
STRICHPUNKT2
 62
     1
 10
69.20899022
 20
175.34596052
 30
0.0
 11
73.70899022
 21
175.34596052
 31
0.0
  0
LINE
  5
815
100
AcDbEntity
  8
0
100
AcDbLine
  6
STRICHPUNKT2
 62
     1
 10
69.20899022
 20
175.34596052
 30
0.0
 11
64.70899022
 21
175.34596052
 31
0.0
  0
LINE
  5
816
100
AcDbEntity
  8
0
100
AcDbLine
  6
STRICHPUNKT2
 62
     1
 10
39.20899022
 20
203.84596052
 30
0.0
 11
39.20899022
 21
199.34596052
 31
0.0
  0
LINE
  5
817
100
AcDbEntity
  8
0
100
AcDbLine
  6
STRICHPUNKT2
 62
     1
 10
39.20899022
 20
203.84596052
 30
0.0
 11
39.20899022
 21
208.34596052
 31
0.0
  0
LINE
  5
818
100
AcDbEntity
  8
0
100
AcDbLine
  6
STRICHPUNKT2
 62
     1
 10
39.20899022
 20
203.84596052
 30
0.0
 11
43.70899022
 21
203.84596052
 31
0.0
  0
LINE
  5
819
100
AcDbEntity
  8
0
100
AcDbLine
  6
STRICHPUNKT2
 62
     1
 10
39.20899022
 20
203.84596052
 30
0.0
 11
34.70899022
 21
203.84596052
 31
0.0
  0
LINE
  5
81A
100
AcDbEntity
  8
0
100
AcDbLine
  6
STRICHPUNKT2
 62
     1
 10
4.20852596
 20
201.34596052
 30
0.0
 11
3.20852596
 21
201.34596052
 31
0.0
  0
LINE
  5
81B
100
AcDbEntity
  8
0
100
AcDbLine
  6
STRICHPUNKT2
 62
     1
 10
7.70852596
 20
201.34596052
 30
0.0
 11
6.70852596
 21
201.34596052
 31
0.0
  0
LINE
  5
81C
100
AcDbEntity
  8
0
100
AcDbLine
  6
STRICHPUNKT2
 62
     1
 10
4.20852596
 20
188.34596052
 30
0.0
 11
1.70852596
 21
188.34596052
 31
0.0
  0
LINE
  5
81D
100
AcDbEntity
  8
0
100
AcDbLine
  6
STRICHPUNKT2
 62
     1
 10
9.20852596
 20
188.34596052
 30
0.0
 11
6.70852596
 21
188.34596052
 31
0.0
  0
LINE
  5
81E
100
AcDbEntity
  8
0
100
AcDbLine
  6
STRICHPUNKT2
 62
     1
 10
3.20852596
 20
201.34596052
 30
0.0
 11
2.70852596
 21
201.34596052
 31
0.0
  0
LINE
  5
81F
100
AcDbEntity
  8
0
100
AcDbLine
  6
STRICHPUNKT2
 62
     1
 10
8.20852596
 20
201.34596052
 30
0.0
 11
7.70852596
 21
201.34596052
 31
0.0
  0
LINE
  5
820
100
AcDbEntity
  8
0
100
AcDbLine
  6
STRICHPUNKT2
 62
     1
 10
4.20852596
 20
172.84596052
 30
0.0
 11
2.70852596
 21
172.84596052
 31
0.0
  0
LINE
  5
821
100
AcDbEntity
  8
0
100
AcDbLine
  6
STRICHPUNKT2
 62
     1
 10
8.20852596
 20
172.84596052
 30
0.0
 11
6.70852596
 21
172.84596052
 31
0.0
  0
LINE
  5
822
100
AcDbEntity
  8
0
100
AcDbLine
  6
STRICHPUNKT2
 62
     1
 10
4.20852596
 20
203.84596052
 30
0.0
 11
3.20852596
 21
203.84596052
 31
0.0
  0
LINE
  5
823
100
AcDbEntity
  8
0
100
AcDbLine
  6
STRICHPUNKT2
 62
     1
 10
7.70852596
 20
203.84596052
 30
0.0
 11
6.70852596
 21
203.84596052
 31
0.0
  0
LINE
  5
824
100
AcDbEntity
  8
0
100
AcDbLine
  6
STRICHPUNKT2
 62
     1
 10
4.20852596
 20
196.34596052
 30
0.0
 11
3.20852596
 21
196.34596052
 31
0.0
  0
LINE
  5
825
100
AcDbEntity
  8
0
100
AcDbLine
  6
STRICHPUNKT2
 62
     1
 10
7.70852596
 20
196.34596052
 30
0.0
 11
6.70852596
 21
196.34596052
 31
0.0
  0
LINE
  5
826
100
AcDbEntity
  8
0
100
AcDbLine
  6
STRICHPUNKT2
 62
     1
 10
4.20852596
 20
180.34596052
 30
0.0
 11
3.20852596
 21
180.34596052
 31
0.0
  0
LINE
  5
827
100
AcDbEntity
  8
0
100
AcDbLine
  6
STRICHPUNKT2
 62
     1
 10
7.70852596
 20
180.34596052
 30
0.0
 11
6.70852596
 21
180.34596052
 31
0.0
  0
LINE
  5
828
100
AcDbEntity
  8
0
100
AcDbLine
  6
STRICHPUNKT2
 62
     1
 10
4.20852596
 20
175.34596052
 30
0.0
 11
2.70852596
 21
175.34596052
 31
0.0
  0
LINE
  5
829
100
AcDbEntity
  8
0
100
AcDbLine
  6
STRICHPUNKT2
 62
     1
 10
8.20852596
 20
175.34596052
 30
0.0
 11
6.70852596
 21
175.34596052
 31
0.0
  0
POLYLINE
  5
82A
100
AcDbEntity
  8
0
100
AcDb2dPolyline
 66
     1
  0
VERTEX
  5
82B
100
AcDbEntity
  8
0
100
AcDbVertex
100
AcDb2dVertex
 10
167.54135230
 20
0.34540238
 30
0.0
  0
VERTEX
  5
82C
100
AcDbEntity
  8
0
100
AcDbVertex
100
AcDb2dVertex
 10
205.54135230
 20
0.34540238
 30
0.0
  0
VERTEX
  5
82D
100
AcDbEntity
  8
0
100
AcDbVertex
100
AcDb2dVertex
 10
205.54135230
 20
-2.15459762
 30
0.0
  0
SEQEND
  5
82E
100
AcDbEntity
  8
0
  0
LINE
  5
82F
100
AcDbEntity
  8
0
100
AcDbLine
 10
167.54135230
 20
-2.15459762
 30
0.0
 11
205.54135230
 21
-2.15459762
 31
0.0
  0
LINE
  5
830
100
AcDbEntity
  8
0
100
AcDbLine
 10
167.54135230
 20
-2.15459762
 30
0.0
 11
167.54135230
 21
0.34540238
 31
0.0
  0
LINE
  5
831
100
AcDbEntity
  8
0
100
AcDbLine
 10
163.54135230
 20
0.34540238
 30
0.0
 11
167.54135230
 21
0.34540238
 31
0.0
  0
LINE
  5
832
100
AcDbEntity
  8
0
100
AcDbLine
 10
163.54135230
 20
-2.15459762
 30
0.0
 11
163.54135230
 21
0.34540238
 31
0.0
  0
LINE
  5
833
100
AcDbEntity
  8
0
100
AcDbLine
 10
167.54135230
 20
-2.15459762
 30
0.0
 11
163.54135230
 21
-2.15459762
 31
0.0
  0
LINE
  5
834
100
AcDbEntity
  8
0
100
AcDbLine
 10
209.54135230
 20
-2.15459762
 30
0.0
 11
205.54135230
 21
-2.15459762
 31
0.0
  0
LINE
  5
835
100
AcDbEntity
  8
0
100
AcDbLine
 10
209.54135230
 20
0.34540238
 30
0.0
 11
209.54135230
 21
-2.15459762
 31
0.0
  0
LINE
  5
836
100
AcDbEntity
  8
0
100
AcDbLine
 10
205.54135230
 20
0.34540238
 30
0.0
 11
209.54135230
 21
0.34540238
 31
0.0
  0
CIRCLE
  5
837
100
AcDbEntity
  8
0
100
AcDbCircle
 10
171.04135230
 20
32.84586408
 30
0.0
 40
3.00000000
  0
CIRCLE
  5
838
100
AcDbEntity
  8
0
100
AcDbCircle
 10
202.04135230
 20
32.84586408
 30
0.0
 40
2.00000000
  0
CIRCLE
  5
839
100
AcDbEntity
  8
0
100
AcDbCircle
 10
199.54135230
 20
62.84586408
 30
0.0
 40
3.00000000
  0
CIRCLE
  5
83A
100
AcDbEntity
  8
0
100
AcDbCircle
 10
173.54135230
 20
62.84586408
 30
0.0
 40
2.00000000
  0
CIRCLE
  5
83B
100
AcDbEntity
  8
0
100
AcDbCircle
 10
178.54135230
 20
87.84586408
 30
0.0
 40
2.00000000
  0
CIRCLE
  5
83C
100
AcDbEntity
  8
0
100
AcDbCircle
 10
194.54135230
 20
87.84586408
 30
0.0
 40
2.00000000
  0
POLYLINE
  5
83D
100
AcDbEntity
  8
0
100
AcDb2dPolyline
 66
     1
 70
     1
  0
VERTEX
  5
83E
100
AcDbEntity
  8
0
100
AcDbVertex
100
AcDb2dVertex
 10
191.54135230
 20
98.84586408
 30
0.0
 42
-1.000000000
  0
VERTEX
  5
83F
100
AcDbEntity
  8
0
100
AcDbVertex
100
AcDb2dVertex
 10
181.54135230
 20
98.84586408
 30
0.0
  0
VERTEX
  5
840
100
AcDbEntity
  8
0
100
AcDbVertex
100
AcDb2dVertex
 10
181.54135230
 20
108.84586408
 30
0.0
 42
-1.000000000
  0
VERTEX
  5
841
100
AcDbEntity
  8
0
100
AcDbVertex
100
AcDb2dVertex
 10
191.54135230
 20
108.84586408
 30
0.0
  0
SEQEND
  5
842
100
AcDbEntity
  8
0
  0
CIRCLE
  5
843
100
AcDbEntity
  8
0
100
AcDbCircle
 10
173.54135230
 20
112.84586408
 30
0.0
 40
3.00000000
  0
CIRCLE
  5
844
100
AcDbEntity
  8
0
100
AcDbCircle
 10
199.54135230
 20
112.84586408
 30
0.0
 40
2.00000000
  0
LINE
  5
845
100
AcDbEntity
  8
0
100
AcDbLine
 10
192.97110094
 20
7.34540238
 30
0.0
 11
203.32014146
 21
7.34540238
 31
0.0
  0
POLYLINE
  5
846
100
AcDbEntity
  8
0
100
AcDb2dPolyline
 66
     1
  0
VERTEX
  5
847
100
AcDbEntity
  8
0
100
AcDbVertex
100
AcDb2dVertex
 10
209.54135230
 20
64.43444298
 30
0.0
  0
VERTEX
  5
848
100
AcDbEntity
  8
0
100
AcDbVertex
100
AcDb2dVertex
 10
208.97127132
 20
58.81835631
 30
0.0
  0
VERTEX
  5
849
100
AcDbEntity
  8
0
100
AcDbVertex
100
AcDb2dVertex
 10
208.50555728
 20
54.42862518
 30
0.0
  0
VERTEX
  5
84A
100
AcDbEntity
  8
0
100
AcDbVertex
100
AcDb2dVertex
 10
208.41346424
 20
53.63201304
 30
0.0
  0
VERTEX
  5
84B
100
AcDbEntity
  8
0
100
AcDbVertex
100
AcDb2dVertex
 10
208.07194175
 20
51.12779870
 30
0.0
  0
VERTEX
  5
84C
100
AcDbEntity
  8
0
100
AcDbVertex
100
AcDb2dVertex
 10
207.24855160
 20
45.73216697
 30
0.0
  0
VERTEX
  5
84D
100
AcDbEntity
  8
0
100
AcDbVertex
100
AcDb2dVertex
 10
206.97375903
 20
43.92535944
 30
0.0
  0
VERTEX
  5
84E
100
AcDbEntity
  8
0
100
AcDbVertex
100
AcDb2dVertex
 10
206.57535324
 20
41.27684483
 30
0.0
  0
VERTEX
  5
84F
100
AcDbEntity
  8
0
100
AcDbVertex
100
AcDb2dVertex
 10
206.24824609
 20
39.06806725
 30
0.0
  0
VERTEX
  5
850
100
AcDbEntity
  8
0
100
AcDbVertex
100
AcDb2dVertex
 10
205.65675191
 20
34.97006156
 30
0.0
  0
VERTEX
  5
851
100
AcDbEntity
  8
0
100
AcDbVertex
100
AcDb2dVertex
 10
205.17293046
 20
31.48243235
 30
0.0
  0
VERTEX
  5
852
100
AcDbEntity
  8
0
100
AcDbVertex
100
AcDb2dVertex
 10
204.77154829
 20
28.45336763
 30
0.0
  0
VERTEX
  5
853
100
AcDbEntity
  8
0
100
AcDbVertex
100
AcDb2dVertex
 10
204.44083358
 20
25.81855212
 30
0.0
  0
VERTEX
  5
854
100
AcDbEntity
  8
0
100
AcDbVertex
100
AcDb2dVertex
 10
204.15779853
 20
23.40589554
 30
0.0
  0
VERTEX
  5
855
100
AcDbEntity
  8
0
100
AcDbVertex
100
AcDb2dVertex
 10
203.91459890
 20
21.13215307
 30
0.0
  0
VERTEX
  5
856
100
AcDbEntity
  8
0
100
AcDbVertex
100
AcDb2dVertex
 10
203.63104819
 20
17.98298939
 30
0.0
  0
VERTEX
  5
857
100
AcDbEntity
  8
0
100
AcDbVertex
100
AcDb2dVertex
 10
203.44252336
 20
15.16322867
 30
0.0
  0
VERTEX
  5
858
100
AcDbEntity
  8
0
100
AcDbVertex
100
AcDb2dVertex
 10
203.33436096
 20
12.57724022
 30
0.0
  0
VERTEX
  5
859
100
AcDbEntity
  8
0
100
AcDbVertex
100
AcDb2dVertex
 10
203.29484281
 20
10.10844974
 30
0.0
  0
VERTEX
  5
85A
100
AcDbEntity
  8
0
100
AcDbVertex
100
AcDb2dVertex
 10
203.32014146
 20
7.34540238
 30
0.0
  0
SEQEND
  5
85B
100
AcDbEntity
  8
0
  0
LINE
  5
85C
100
AcDbEntity
  8
0
100
AcDbLine
 10
209.54135230
 20
118.84586408
 30
0.0
 11
209.54135230
 21
64.43444298
 31
0.0
  0
LINE
  5
85D
100
AcDbEntity
  8
0
100
AcDbLine
 10
209.54135230
 20
118.84586408
 30
0.0
 11
205.54135230
 21
122.84586408
 31
0.0
  0
LINE
  5
85E
100
AcDbEntity
  8
0
100
AcDbLine
 10
167.54135230
 20
122.84586408
 30
0.0
 11
205.54135230
 21
122.84586408
 31
0.0
  0
LINE
  5
85F
100
AcDbEntity
  8
0
100
AcDbLine
 10
167.54135230
 20
122.84586408
 30
0.0
 11
163.54135230
 21
118.84586408
 31
0.0
  0
LINE
  5
860
100
AcDbEntity
  8
0
100
AcDbLine
 10
163.54135230
 20
64.43444298
 30
0.0
 11
163.54135230
 21
118.84586408
 31
0.0
  0
POLYLINE
  5
861
100
AcDbEntity
  8
0
100
AcDb2dPolyline
 66
     1
  0
VERTEX
  5
862
100
AcDbEntity
  8
0
100
AcDbVertex
100
AcDb2dVertex
 10
163.54135230
 20
64.43444298
 30
0.0
  0
VERTEX
  5
863
100
AcDbEntity
  8
0
100
AcDbVertex
100
AcDb2dVertex
 10
164.11143327
 20
58.81835631
 30
0.0
  0
VERTEX
  5
864
100
AcDbEntity
  8
0
100
AcDbVertex
100
AcDb2dVertex
 10
164.57714731
 20
54.42862518
 30
0.0
  0
VERTEX
  5
865
100
AcDbEntity
  8
0
100
AcDbVertex
100
AcDb2dVertex
 10
164.66924036
 20
53.63201304
 30
0.0
  0
VERTEX
  5
866
100
AcDbEntity
  8
0
100
AcDbVertex
100
AcDb2dVertex
 10
165.01076284
 20
51.12779870
 30
0.0
  0
VERTEX
  5
867
100
AcDbEntity
  8
0
100
AcDbVertex
100
AcDb2dVertex
 10
165.83415299
 20
45.73216697
 30
0.0
  0
VERTEX
  5
868
100
AcDbEntity
  8
0
100
AcDbVertex
100
AcDb2dVertex
 10
166.10894556
 20
43.92535944
 30
0.0
  0
VERTEX
  5
869
100
AcDbEntity
  8
0
100
AcDbVertex
100
AcDb2dVertex
 10
166.50735136
 20
41.27684483
 30
0.0
  0
VERTEX
  5
86A
100
AcDbEntity
  8
0
100
AcDbVertex
100
AcDb2dVertex
 10
166.83445850
 20
39.06806725
 30
0.0
  0
VERTEX
  5
86B
100
AcDbEntity
  8
0
100
AcDbVertex
100
AcDb2dVertex
 10
167.42595269
 20
34.97006156
 30
0.0
  0
VERTEX
  5
86C
100
AcDbEntity
  8
0
100
AcDbVertex
100
AcDb2dVertex
 10
167.90977413
 20
31.48243235
 30
0.0
  0
VERTEX
  5
86D
100
AcDbEntity
  8
0
100
AcDbVertex
100
AcDb2dVertex
 10
168.31115630
 20
28.45336763
 30
0.0
  0
VERTEX
  5
86E
100
AcDbEntity
  8
0
100
AcDbVertex
100
AcDb2dVertex
 10
168.64187102
 20
25.81855212
 30
0.0
  0
VERTEX
  5
86F
100
AcDbEntity
  8
0
100
AcDbVertex
100
AcDb2dVertex
 10
168.92490607
 20
23.40589554
 30
0.0
  0
VERTEX
  5
870
100
AcDbEntity
  8
0
100
AcDbVertex
100
AcDb2dVertex
 10
169.16810570
 20
21.13215307
 30
0.0
  0
VERTEX
  5
871
100
AcDbEntity
  8
0
100
AcDbVertex
100
AcDb2dVertex
 10
169.45165640
 20
17.98298939
 30
0.0
  0
VERTEX
  5
872
100
AcDbEntity
  8
0
100
AcDbVertex
100
AcDb2dVertex
 10
169.64018124
 20
15.16322867
 30
0.0
  0
VERTEX
  5
873
100
AcDbEntity
  8
0
100
AcDbVertex
100
AcDb2dVertex
 10
169.74834363
 20
12.57724022
 30
0.0
  0
VERTEX
  5
874
100
AcDbEntity
  8
0
100
AcDbVertex
100
AcDb2dVertex
 10
169.78786178
 20
10.10844974
 30
0.0
  0
VERTEX
  5
875
100
AcDbEntity
  8
0
100
AcDbVertex
100
AcDb2dVertex
 10
169.76256313
 20
7.34540239
 30
0.0
  0
VERTEX
  5
876
100
AcDbEntity
  8
0
100
AcDbVertex
100
AcDb2dVertex
 10
180.11160365
 20
7.34540238
 30
0.0
  0
SEQEND
  5
877
100
AcDbEntity
  8
0
  0
POLYLINE
  5
878
100
AcDbEntity
  8
0
100
AcDb2dPolyline
 66
     1
  0
VERTEX
  5
879
100
AcDbEntity
  8
0
100
AcDbVertex
100
AcDb2dVertex
 10
182.41308334
 20
70.53685599
 30
0.0
  0
VERTEX
  5
87A
100
AcDbEntity
  8
0
100
AcDbVertex
100
AcDb2dVertex
 10
182.11813589
 20
66.80389135
 30
0.0
  0
VERTEX
  5
87B
100
AcDbEntity
  8
0
100
AcDbVertex
100
AcDb2dVertex
 10
181.83900426
 20
62.45274788
 30
0.0
  0
VERTEX
  5
87C
100
AcDbEntity
  8
0
100
AcDbVertex
100
AcDb2dVertex
 10
181.56857648
 20
57.24923365
 30
0.0
  0
VERTEX
  5
87D
100
AcDbEntity
  8
0
100
AcDbVertex
100
AcDb2dVertex
 10
181.46933913
 20
55.05682099
 30
0.0
  0
VERTEX
  5
87E
100
AcDbEntity
  8
0
100
AcDbVertex
100
AcDb2dVertex
 10
181.19056066
 20
47.97959205
 30
0.0
  0
VERTEX
  5
87F
100
AcDbEntity
  8
0
100
AcDbVertex
100
AcDb2dVertex
 10
180.90014338
 20
39.03638896
 30
0.0
  0
VERTEX
  5
880
100
AcDbEntity
  8
0
100
AcDbVertex
100
AcDb2dVertex
 10
180.58347298
 20
27.41629019
 30
0.0
  0
VERTEX
  5
881
100
AcDbEntity
  8
0
100
AcDbVertex
100
AcDb2dVertex
 10
180.30587285
 20
15.87472039
 30
0.0
  0
VERTEX
  5
882
100
AcDbEntity
  8
0
100
AcDbVertex
100
AcDb2dVertex
 10
180.11160365
 20
7.34540238
 30
0.0
  0
SEQEND
  5
883
100
AcDbEntity
  8
0
  0
POLYLINE
  5
884
100
AcDbEntity
  8
0
100
AcDb2dPolyline
 66
     1
  0
VERTEX
  5
885
100
AcDbEntity
  8
0
100
AcDbVertex
100
AcDb2dVertex
 10
190.66962019
 20
70.53685599
 30
0.0
  0
VERTEX
  5
886
100
AcDbEntity
  8
0
100
AcDbVertex
100
AcDb2dVertex
 10
190.66873013
 20
70.54681668
 30
0.0
  0
VERTEX
  5
887
100
AcDbEntity
  8
0
100
AcDbVertex
100
AcDb2dVertex
 10
190.65767458
 20
70.64619432
 30
0.0
  0
VERTEX
  5
888
100
AcDbEntity
  8
0
100
AcDbVertex
100
AcDb2dVertex
 10
190.56972092
 20
71.05573757
 30
0.0
  0
VERTEX
  5
889
100
AcDbEntity
  8
0
100
AcDbVertex
100
AcDb2dVertex
 10
190.41576832
 20
71.45083558
 30
0.0
  0
VERTEX
  5
88A
100
AcDbEntity
  8
0
100
AcDbVertex
100
AcDb2dVertex
 10
190.19826178
 20
71.82381067
 30
0.0
  0
VERTEX
  5
88B
100
AcDbEntity
  8
0
100
AcDbVertex
100
AcDb2dVertex
 10
190.09833674
 20
71.95976969
 30
0.0
  0
VERTEX
  5
88C
100
AcDbEntity
  8
0
100
AcDbVertex
100
AcDb2dVertex
 10
189.79851521
 20
72.28961807
 30
0.0
  0
VERTEX
  5
88D
100
AcDbEntity
  8
0
100
AcDbVertex
100
AcDb2dVertex
 10
189.44408612
 20
72.58039506
 30
0.0
  0
VERTEX
  5
88E
100
AcDbEntity
  8
0
100
AcDbVertex
100
AcDb2dVertex
 10
189.03951083
 20
72.82640145
 30
0.0
  0
VERTEX
  5
88F
100
AcDbEntity
  8
0
100
AcDbVertex
100
AcDb2dVertex
 10
188.86651269
 20
72.91035223
 30
0.0
  0
VERTEX
  5
890
100
AcDbEntity
  8
0
100
AcDbVertex
100
AcDb2dVertex
 10
188.39900608
 20
73.08664307
 30
0.0
  0
VERTEX
  5
891
100
AcDbEntity
  8
0
100
AcDbVertex
100
AcDb2dVertex
 10
187.88851714
 20
73.21060457
 30
0.0
  0
VERTEX
  5
892
100
AcDbEntity
  8
0
100
AcDbVertex
100
AcDb2dVertex
 10
187.32458634
 20
73.28433766
 30
0.0
  0
VERTEX
  5
893
100
AcDbEntity
  8
0
100
AcDbVertex
100
AcDb2dVertex
 10
187.04088415
 20
73.30259441
 30
0.0
  0
VERTEX
  5
894
100
AcDbEntity
  8
0
100
AcDbVertex
100
AcDb2dVertex
 10
186.29054812
 20
73.31080697
 30
0.0
  0
VERTEX
  5
895
100
AcDbEntity
  8
0
100
AcDbVertex
100
AcDb2dVertex
 10
186.06840156
 20
73.30378791
 30
0.0
  0
VERTEX
  5
896
100
AcDbEntity
  8
0
100
AcDbVertex
100
AcDb2dVertex
 10
185.66495610
 20
73.27589766
 30
0.0
  0
VERTEX
  5
897
100
AcDbEntity
  8
0
100
AcDbVertex
100
AcDb2dVertex
 10
185.32236947
 20
73.23249263
 30
0.0
  0
VERTEX
  5
898
100
AcDbEntity
  8
0
100
AcDbVertex
100
AcDb2dVertex
 10
184.85749414
 20
73.13600445
 30
0.0
  0
VERTEX
  5
899
100
AcDbEntity
  8
0
100
AcDbVertex
100
AcDb2dVertex
 10
184.31848858
 20
72.95489582
 30
0.0
  0
VERTEX
  5
89A
100
AcDbEntity
  8
0
100
AcDbVertex
100
AcDb2dVertex
 10
183.84976765
 20
72.71829002
 30
0.0
  0
VERTEX
  5
89B
100
AcDbEntity
  8
0
100
AcDbVertex
100
AcDb2dVertex
 10
183.46101600
 20
72.44531479
 30
0.0
  0
VERTEX
  5
89C
100
AcDbEntity
  8
0
100
AcDbVertex
100
AcDb2dVertex
 10
183.11352245
 20
72.11404843
 30
0.0
  0
VERTEX
  5
89D
100
AcDbEntity
  8
0
100
AcDbVertex
100
AcDb2dVertex
 10
182.83186959
 20
71.74494490
 30
0.0
  0
VERTEX
  5
89E
100
AcDbEntity
  8
0
100
AcDbVertex
100
AcDb2dVertex
 10
182.62554929
 20
71.36107558
 30
0.0
  0
VERTEX
  5
89F
100
AcDbEntity
  8
0
100
AcDbVertex
100
AcDb2dVertex
 10
182.48224786
 20
70.94469217
 30
0.0
  0
VERTEX
  5
8A0
100
AcDbEntity
  8
0
100
AcDbVertex
100
AcDb2dVertex
 10
182.41308334
 20
70.53685599
 30
0.0
  0
SEQEND
  5
8A1
100
AcDbEntity
  8
0
  0
POLYLINE
  5
8A2
100
AcDbEntity
  8
0
100
AcDb2dPolyline
 66
     1
  0
VERTEX
  5
8A3
100
AcDbEntity
  8
0
100
AcDbVertex
100
AcDb2dVertex
 10
192.97110094
 20
7.34540238
 30
0.0
  0
VERTEX
  5
8A4
100
AcDbEntity
  8
0
100
AcDbVertex
100
AcDb2dVertex
 10
192.90769310
 20
10.15062659
 30
0.0
  0
VERTEX
  5
8A5
100
AcDbEntity
  8
0
100
AcDbVertex
100
AcDb2dVertex
 10
192.80078719
 20
14.83622186
 30
0.0
  0
VERTEX
  5
8A6
100
AcDbEntity
  8
0
100
AcDbVertex
100
AcDb2dVertex
 10
192.64689297
 20
21.40449548
 30
0.0
  0
VERTEX
  5
8A7
100
AcDbEntity
  8
0
100
AcDbVertex
100
AcDb2dVertex
 10
192.52678288
 20
26.32006667
 30
0.0
  0
VERTEX
  5
8A8
100
AcDbEntity
  8
0
100
AcDbVertex
100
AcDb2dVertex
 10
192.30773911
 20
34.66882114
 30
0.0
  0
VERTEX
  5
8A9
100
AcDbEntity
  8
0
100
AcDbVertex
100
AcDb2dVertex
 10
192.11609061
 20
41.23021653
 30
0.0
  0
VERTEX
  5
8AA
100
AcDbEntity
  8
0
100
AcDbVertex
100
AcDb2dVertex
 10
191.93604092
 20
46.73375950
 30
0.0
  0
VERTEX
  5
8AB
100
AcDbEntity
  8
0
100
AcDbVertex
100
AcDb2dVertex
 10
191.73115186
 20
52.23775025
 30
0.0
  0
VERTEX
  5
8AC
100
AcDbEntity
  8
0
100
AcDbVertex
100
AcDb2dVertex
 10
191.56535726
 20
56.13767772
 30
0.0
  0
VERTEX
  5
8AD
100
AcDbEntity
  8
0
100
AcDbVertex
100
AcDb2dVertex
 10
191.40241317
 20
59.52941673
 30
0.0
  0
VERTEX
  5
8AE
100
AcDbEntity
  8
0
100
AcDbVertex
100
AcDb2dVertex
 10
191.24118274
 20
62.49609479
 30
0.0
  0
VERTEX
  5
8AF
100
AcDbEntity
  8
0
100
AcDbVertex
100
AcDb2dVertex
 10
191.08094109
 20
65.10129176
 30
0.0
  0
VERTEX
  5
8B0
100
AcDbEntity
  8
0
100
AcDbVertex
100
AcDb2dVertex
 10
190.79751940
 20
69.01067828
 30
0.0
  0
VERTEX
  5
8B1
100
AcDbEntity
  8
0
100
AcDbVertex
100
AcDb2dVertex
 10
190.66962019
 20
70.53685599
 30
0.0
  0
SEQEND
  5
8B2
100
AcDbEntity
  8
0
  0
POLYLINE
  5
8B3
100
AcDbEntity
  8
0
100
AcDb2dPolyline
 66
     1
  0
VERTEX
  5
8B4
100
AcDbEntity
  8
0
100
AcDbVertex
100
AcDb2dVertex
 10
192.80227661
 20
2.39561152
 30
0.0
  0
VERTEX
  5
8B5
100
AcDbEntity
  8
0
100
AcDbVertex
100
AcDb2dVertex
 10
192.90552264
 20
3.68691593
 30
0.0
  0
VERTEX
  5
8B6
100
AcDbEntity
  8
0
100
AcDbVertex
100
AcDb2dVertex
 10
192.96867880
 20
5.37216853
 30
0.0
  0
VERTEX
  5
8B7
100
AcDbEntity
  8
0
100
AcDbVertex
100
AcDb2dVertex
 10
192.97110094
 20
7.34540238
 30
0.0
  0
SEQEND
  5
8B8
100
AcDbEntity
  8
0
  0
POLYLINE
  5
8B9
100
AcDbEntity
  8
0
100
AcDb2dPolyline
 66
     1
  0
VERTEX
  5
8BA
100
AcDbEntity
  8
0
100
AcDbVertex
100
AcDb2dVertex
 10
192.97110093
 20
0.34540238
 30
0.0
  0
VERTEX
  5
8BB
100
AcDbEntity
  8
0
100
AcDbVertex
100
AcDb2dVertex
 10
192.97814761
 20
0.38038166
 30
0.0
  0
VERTEX
  5
8BC
100
AcDbEntity
  8
0
100
AcDbVertex
100
AcDb2dVertex
 10
192.97856952
 20
0.39866489
 30
0.0
  0
VERTEX
  5
8BD
100
AcDbEntity
  8
0
100
AcDbVertex
100
AcDb2dVertex
 10
192.96532243
 20
0.67867696
 30
0.0
  0
VERTEX
  5
8BE
100
AcDbEntity
  8
0
100
AcDbVertex
100
AcDb2dVertex
 10
192.92316488
 20
1.18767148
 30
0.0
  0
VERTEX
  5
8BF
100
AcDbEntity
  8
0
100
AcDbVertex
100
AcDb2dVertex
 10
192.85342020
 20
1.90661137
 30
0.0
  0
VERTEX
  5
8C0
100
AcDbEntity
  8
0
100
AcDbVertex
100
AcDb2dVertex
 10
192.80227661
 20
2.39561152
 30
0.0
  0
SEQEND
  5
8C1
100
AcDbEntity
  8
0
  0
LINE
  5
8C2
100
AcDbEntity
  8
0
100
AcDbLine
 10
203.32014146
 20
0.34540238
 30
0.0
 11
203.32014146
 21
7.34540238
 31
0.0
  0
POLYLINE
  5
8C3
100
AcDbEntity
  8
0
100
AcDb2dPolyline
 66
     1
  0
VERTEX
  5
8C4
100
AcDbEntity
  8
0
100
AcDbVertex
100
AcDb2dVertex
 10
190.99947103
 20
2.01269117
 30
0.0
  0
VERTEX
  5
8C5
100
AcDbEntity
  8
0
100
AcDbVertex
100
AcDb2dVertex
 10
191.09997444
 20
1.64034672
 30
0.0
  0
VERTEX
  5
8C6
100
AcDbEntity
  8
0
100
AcDbVertex
100
AcDb2dVertex
 10
191.26800737
 20
1.29754940
 30
0.0
  0
VERTEX
  5
8C7
100
AcDbEntity
  8
0
100
AcDbVertex
100
AcDb2dVertex
 10
191.49566090
 20
0.99559921
 30
0.0
  0
VERTEX
  5
8C8
100
AcDbEntity
  8
0
100
AcDbVertex
100
AcDb2dVertex
 10
191.68019407
 20
0.81808080
 30
0.0
  0
VERTEX
  5
8C9
100
AcDbEntity
  8
0
100
AcDbVertex
100
AcDb2dVertex
 10
191.98579124
 20
0.60509476
 30
0.0
  0
VERTEX
  5
8CA
100
AcDbEntity
  8
0
100
AcDbVertex
100
AcDb2dVertex
 10
192.32252686
 20
0.45354151
 30
0.0
  0
VERTEX
  5
8CB
100
AcDbEntity
  8
0
100
AcDbVertex
100
AcDb2dVertex
 10
192.67821976
 20
0.36697448
 30
0.0
  0
VERTEX
  5
8CC
100
AcDbEntity
  8
0
100
AcDbVertex
100
AcDb2dVertex
 10
192.97110093
 20
0.34540238
 30
0.0
  0
SEQEND
  5
8CD
100
AcDbEntity
  8
0
  0
POLYLINE
  5
8CE
100
AcDbEntity
  8
0
100
AcDb2dPolyline
 66
     1
  0
VERTEX
  5
8CF
100
AcDbEntity
  8
0
100
AcDbVertex
100
AcDb2dVertex
 10
190.99947103
 20
2.01269117
 30
0.0
  0
VERTEX
  5
8D0
100
AcDbEntity
  8
0
100
AcDbVertex
100
AcDb2dVertex
 10
191.00692489
 20
2.05082155
 30
0.0
  0
VERTEX
  5
8D1
100
AcDbEntity
  8
0
100
AcDbVertex
100
AcDb2dVertex
 10
190.99370589
 20
2.25066664
 30
0.0
  0
VERTEX
  5
8D2
100
AcDbEntity
  8
0
100
AcDbVertex
100
AcDb2dVertex
 10
190.95169793
 20
2.61336460
 30
0.0
  0
VERTEX
  5
8D3
100
AcDbEntity
  8
0
100
AcDbVertex
100
AcDb2dVertex
 10
190.88240271
 20
3.12429449
 30
0.0
  0
VERTEX
  5
8D4
100
AcDbEntity
  8
0
100
AcDbVertex
100
AcDb2dVertex
 10
190.80956144
 20
3.61989833
 30
0.0
  0
VERTEX
  5
8D5
100
AcDbEntity
  8
0
100
AcDbVertex
100
AcDb2dVertex
 10
190.82360428
 20
3.55828949
 30
0.0
  0
VERTEX
  5
8D6
100
AcDbEntity
  8
0
100
AcDbVertex
100
AcDb2dVertex
 10
190.84147876
 20
3.49719458
 30
0.0
  0
VERTEX
  5
8D7
100
AcDbEntity
  8
0
100
AcDbVertex
100
AcDb2dVertex
 10
190.86314506
 20
3.43673164
 30
0.0
  0
VERTEX
  5
8D8
100
AcDbEntity
  8
0
100
AcDbVertex
100
AcDb2dVertex
 10
190.88855617
 20
3.37701733
 30
0.0
  0
VERTEX
  5
8D9
100
AcDbEntity
  8
0
100
AcDbVertex
100
AcDb2dVertex
 10
190.91765794
 20
3.31816668
 30
0.0
  0
VERTEX
  5
8DA
100
AcDbEntity
  8
0
100
AcDbVertex
100
AcDb2dVertex
 10
190.95038923
 20
3.26029285
 30
0.0
  0
VERTEX
  5
8DB
100
AcDbEntity
  8
0
100
AcDbVertex
100
AcDb2dVertex
 10
190.98668203
 20
3.20350690
 30
0.0
  0
VERTEX
  5
8DC
100
AcDbEntity
  8
0
100
AcDbVertex
100
AcDb2dVertex
 10
191.02646158
 20
3.14791761
 30
0.0
  0
VERTEX
  5
8DD
100
AcDbEntity
  8
0
100
AcDbVertex
100
AcDb2dVertex
 10
191.06964655
 20
3.09363120
 30
0.0
  0
VERTEX
  5
8DE
100
AcDbEntity
  8
0
100
AcDbVertex
100
AcDb2dVertex
 10
191.11614921
 20
3.04075119
 30
0.0
  0
VERTEX
  5
8DF
100
AcDbEntity
  8
0
100
AcDbVertex
100
AcDb2dVertex
 10
191.16587559
 20
2.98937814
 30
0.0
  0
VERTEX
  5
8E0
100
AcDbEntity
  8
0
100
AcDbVertex
100
AcDb2dVertex
 10
191.21872572
 20
2.93960953
 30
0.0
  0
VERTEX
  5
8E1
100
AcDbEntity
  8
0
100
AcDbVertex
100
AcDb2dVertex
 10
191.27459379
 20
2.89153950
 30
0.0
  0
VERTEX
  5
8E2
100
AcDbEntity
  8
0
100
AcDbVertex
100
AcDb2dVertex
 10
191.33336842
 20
2.84525874
 30
0.0
  0
VERTEX
  5
8E3
100
AcDbEntity
  8
0
100
AcDbVertex
100
AcDb2dVertex
 10
191.39493283
 20
2.80085427
 30
0.0
  0
VERTEX
  5
8E4
100
AcDbEntity
  8
0
100
AcDbVertex
100
AcDb2dVertex
 10
191.45916515
 20
2.75840934
 30
0.0
  0
VERTEX
  5
8E5
100
AcDbEntity
  8
0
100
AcDbVertex
100
AcDb2dVertex
 10
191.52593862
 20
2.71800324
 30
0.0
  0
VERTEX
  5
8E6
100
AcDbEntity
  8
0
100
AcDbVertex
100
AcDb2dVertex
 10
191.59512186
 20
2.67971120
 30
0.0
  0
VERTEX
  5
8E7
100
AcDbEntity
  8
0
100
AcDbVertex
100
AcDb2dVertex
 10
191.66657915
 20
2.64360425
 30
0.0
  0
VERTEX
  5
8E8
100
AcDbEntity
  8
0
100
AcDbVertex
100
AcDb2dVertex
 10
191.74017069
 20
2.60974913
 30
0.0
  0
VERTEX
  5
8E9
100
AcDbEntity
  8
0
100
AcDbVertex
100
AcDb2dVertex
 10
191.81575287
 20
2.57820818
 30
0.0
  0
VERTEX
  5
8EA
100
AcDbEntity
  8
0
100
AcDbVertex
100
AcDb2dVertex
 10
191.89317860
 20
2.54903933
 30
0.0
  0
VERTEX
  5
8EB
100
AcDbEntity
  8
0
100
AcDbVertex
100
AcDb2dVertex
 10
191.97229755
 20
2.52229605
 30
0.0
  0
VERTEX
  5
8EC
100
AcDbEntity
  8
0
100
AcDbVertex
100
AcDb2dVertex
 10
192.05295646
 20
2.49802744
 30
0.0
  0
VERTEX
  5
8ED
100
AcDbEntity
  8
0
100
AcDbVertex
100
AcDb2dVertex
 10
192.13499945
 20
2.47627835
 30
0.0
  0
VERTEX
  5
8EE
100
AcDbEntity
  8
0
100
AcDbVertex
100
AcDb2dVertex
 10
192.21826828
 20
2.45708987
 30
0.0
  0
VERTEX
  5
8EF
100
AcDbEntity
  8
0
100
AcDbVertex
100
AcDb2dVertex
 10
192.30260255
 20
2.44050020
 30
0.0
  0
VERTEX
  5
8F0
100
AcDbEntity
  8
0
100
AcDbVertex
100
AcDb2dVertex
 10
192.38783973
 20
2.42654688
 30
0.0
  0
VERTEX
  5
8F1
100
AcDbEntity
  8
0
100
AcDbVertex
100
AcDb2dVertex
 10
192.47381393
 20
2.41527254
 30
0.0
  0
VERTEX
  5
8F2
100
AcDbEntity
  8
0
100
AcDbVertex
100
AcDb2dVertex
 10
192.56034756
 20
2.40674344
 30
0.0
  0
VERTEX
  5
8F3
100
AcDbEntity
  8
0
100
AcDbVertex
100
AcDb2dVertex
 10
192.64717277
 20
2.40113050
 30
0.0
  0
VERTEX
  5
8F4
100
AcDbEntity
  8
0
100
AcDbVertex
100
AcDb2dVertex
 10
192.73241203
 20
2.39934168
 30
0.0
  0
VERTEX
  5
8F5
100
AcDbEntity
  8
0
100
AcDbVertex
100
AcDb2dVertex
 10
192.80227661
 20
2.39561152
 30
0.0
  0
SEQEND
  5
8F6
100
AcDbEntity
  8
0
  0
POLYLINE
  5
8F7
100
AcDbEntity
  8
0
100
AcDb2dPolyline
 66
     1
  0
VERTEX
  5
8F8
100
AcDbEntity
  8
0
100
AcDbVertex
100
AcDb2dVertex
 10
190.80956144
 20
3.61989833
 30
0.0
  0
VERTEX
  5
8F9
100
AcDbEntity
  8
0
100
AcDbVertex
100
AcDb2dVertex
 10
190.50127120
 20
5.12317778
 30
0.0
  0
VERTEX
  5
8FA
100
AcDbEntity
  8
0
100
AcDbVertex
100
AcDb2dVertex
 10
190.39490863
 20
5.60017116
 30
0.0
  0
VERTEX
  5
8FB
100
AcDbEntity
  8
0
100
AcDbVertex
100
AcDb2dVertex
 10
190.19796615
 20
6.41340632
 30
0.0
  0
VERTEX
  5
8FC
100
AcDbEntity
  8
0
100
AcDbVertex
100
AcDb2dVertex
 10
190.02203417
 20
7.05821804
 30
0.0
  0
VERTEX
  5
8FD
100
AcDbEntity
  8
0
100
AcDbVertex
100
AcDb2dVertex
 10
189.85643048
 20
7.59500502
 30
0.0
  0
VERTEX
  5
8FE
100
AcDbEntity
  8
0
100
AcDbVertex
100
AcDb2dVertex
 10
189.69387416
 20
8.05796872
 30
0.0
  0
VERTEX
  5
8FF
100
AcDbEntity
  8
0
100
AcDbVertex
100
AcDb2dVertex
 10
189.51957673
 20
8.48722857
 30
0.0
  0
VERTEX
  5
900
100
AcDbEntity
  8
0
100
AcDbVertex
100
AcDb2dVertex
 10
189.36183229
 20
8.81917610
 30
0.0
  0
VERTEX
  5
901
100
AcDbEntity
  8
0
100
AcDbVertex
100
AcDb2dVertex
 10
189.21147374
 20
9.08998382
 30
0.0
  0
VERTEX
  5
902
100
AcDbEntity
  8
0
100
AcDbVertex
100
AcDb2dVertex
 10
189.06007154
 20
9.32396954
 30
0.0
  0
VERTEX
  5
903
100
AcDbEntity
  8
0
100
AcDbVertex
100
AcDb2dVertex
 10
188.90529318
 20
9.52920610
 30
0.0
  0
VERTEX
  5
904
100
AcDbEntity
  8
0
100
AcDbVertex
100
AcDb2dVertex
 10
188.57019212
 20
9.87928129
 30
0.0
  0
VERTEX
  5
905
100
AcDbEntity
  8
0
100
AcDbVertex
100
AcDb2dVertex
 10
188.21538600
 20
10.14173010
 30
0.0
  0
VERTEX
  5
906
100
AcDbEntity
  8
0
100
AcDbVertex
100
AcDb2dVertex
 10
188.15905109
 20
10.17513121
 30
0.0
  0
VERTEX
  5
907
100
AcDbEntity
  8
0
100
AcDbVertex
100
AcDb2dVertex
 10
187.78803521
 20
10.34920275
 30
0.0
  0
VERTEX
  5
908
100
AcDbEntity
  8
0
100
AcDbVertex
100
AcDb2dVertex
 10
187.37839761
 20
10.46589469
 30
0.0
  0
VERTEX
  5
909
100
AcDbEntity
  8
0
100
AcDbVertex
100
AcDb2dVertex
 10
186.90611759
 20
10.52934324
 30
0.0
  0
VERTEX
  5
90A
100
AcDbEntity
  8
0
100
AcDbVertex
100
AcDb2dVertex
 10
186.54135229
 20
10.54166850
 30
0.0
  0
VERTEX
  5
90B
100
AcDbEntity
  8
0
100
AcDbVertex
100
AcDb2dVertex
 10
186.22282509
 20
10.53241054
 30
0.0
  0
VERTEX
  5
90C
100
AcDbEntity
  8
0
100
AcDbVertex
100
AcDb2dVertex
 10
185.68276292
 20
10.46137586
 30
0.0
  0
VERTEX
  5
90D
100
AcDbEntity
  8
0
100
AcDbVertex
100
AcDb2dVertex
 10
185.24590261
 20
10.33046244
 30
0.0
  0
VERTEX
  5
90E
100
AcDbEntity
  8
0
100
AcDbVertex
100
AcDb2dVertex
 10
184.92365350
 20
10.17513121
 30
0.0
  0
VERTEX
  5
90F
100
AcDbEntity
  8
0
100
AcDbVertex
100
AcDb2dVertex
 10
184.59155764
 20
9.94624326
 30
0.0
  0
VERTEX
  5
910
100
AcDbEntity
  8
0
100
AcDbVertex
100
AcDb2dVertex
 10
184.28627206
 20
9.65583958
 30
0.0
  0
VERTEX
  5
911
100
AcDbEntity
  8
0
100
AcDbVertex
100
AcDb2dVertex
 10
184.00508561
 20
9.29864090
 30
0.0
  0
VERTEX
  5
912
100
AcDbEntity
  8
0
100
AcDbVertex
100
AcDb2dVertex
 10
183.74607221
 20
8.86750599
 30
0.0
  0
VERTEX
  5
913
100
AcDbEntity
  8
0
100
AcDbVertex
100
AcDb2dVertex
 10
183.56312786
 20
8.48722857
 30
0.0
  0
VERTEX
  5
914
100
AcDbEntity
  8
0
100
AcDbVertex
100
AcDb2dVertex
 10
183.29477675
 20
7.79766815
 30
0.0
  0
VERTEX
  5
915
100
AcDbEntity
  8
0
100
AcDbVertex
100
AcDb2dVertex
 10
183.01334837
 20
6.89240138
 30
0.0
  0
VERTEX
  5
916
100
AcDbEntity
  8
0
100
AcDbVertex
100
AcDb2dVertex
 10
182.71878481
 20
5.73436329
 30
0.0
  0
VERTEX
  5
917
100
AcDbEntity
  8
0
100
AcDbVertex
100
AcDb2dVertex
 10
182.58143339
 20
5.12317778
 30
0.0
  0
VERTEX
  5
918
100
AcDbEntity
  8
0
100
AcDbVertex
100
AcDb2dVertex
 10
182.27314316
 20
3.61991355
 30
0.0
  0
VERTEX
  5
919
100
AcDbEntity
  8
0
100
AcDbVertex
100
AcDb2dVertex
 10
182.08255638
 20
2.18030878
 30
0.0
  0
VERTEX
  5
91A
100
AcDbEntity
  8
0
100
AcDbVertex
100
AcDb2dVertex
 10
182.08323357
 20
2.01269117
 30
0.0
  0
VERTEX
  5
91B
100
AcDbEntity
  8
0
100
AcDbVertex
100
AcDb2dVertex
 10
182.58100292
 20
1.96870158
 30
0.0
  0
VERTEX
  5
91C
100
AcDbEntity
  8
0
100
AcDbVertex
100
AcDb2dVertex
 10
182.82913765
 20
1.91749064
 30
0.0
  0
VERTEX
  5
91D
100
AcDbEntity
  8
0
100
AcDbVertex
100
AcDb2dVertex
 10
183.06995482
 20
1.84691718
 30
0.0
  0
VERTEX
  5
91E
100
AcDbEntity
  8
0
100
AcDbVertex
100
AcDb2dVertex
 10
183.29873475
 20
1.75775351
 30
0.0
  0
VERTEX
  5
91F
100
AcDbEntity
  8
0
100
AcDbVertex
100
AcDb2dVertex
 10
183.56301027
 20
1.62202478
 30
0.0
  0
VERTEX
  5
920
100
AcDbEntity
  8
0
100
AcDbVertex
100
AcDb2dVertex
 10
183.96694965
 20
1.33986511
 30
0.0
  0
VERTEX
  5
921
100
AcDbEntity
  8
0
100
AcDbVertex
100
AcDb2dVertex
 10
184.02450273
 20
1.29664784
 30
0.0
  0
VERTEX
  5
922
100
AcDbEntity
  8
0
100
AcDbVertex
100
AcDb2dVertex
 10
184.05037649
 20
1.33725943
 30
0.0
  0
VERTEX
  5
923
100
AcDbEntity
  8
0
100
AcDbVertex
100
AcDb2dVertex
 10
184.20491506
 20
1.55930947
 30
0.0
  0
VERTEX
  5
924
100
AcDbEntity
  8
0
100
AcDbVertex
100
AcDb2dVertex
 10
184.36323519
 20
1.75429710
 30
0.0
  0
VERTEX
  5
925
100
AcDbEntity
  8
0
100
AcDbVertex
100
AcDb2dVertex
 10
184.70601942
 20
2.08468255
 30
0.0
  0
VERTEX
  5
926
100
AcDbEntity
  8
0
100
AcDbVertex
100
AcDb2dVertex
 10
184.78117446
 20
2.14297292
 30
0.0
  0
VERTEX
  5
927
100
AcDbEntity
  8
0
100
AcDbVertex
100
AcDb2dVertex
 10
185.13868561
 20
2.36395257
 30
0.0
  0
VERTEX
  5
928
100
AcDbEntity
  8
0
100
AcDbVertex
100
AcDb2dVertex
 10
185.51357113
 20
2.51427828
 30
0.0
  0
VERTEX
  5
929
100
AcDbEntity
  8
0
100
AcDbVertex
100
AcDb2dVertex
 10
185.91772072
 20
2.60634225
 30
0.0
  0
VERTEX
  5
92A
100
AcDbEntity
  8
0
100
AcDbVertex
100
AcDb2dVertex
 10
185.99268441
 20
2.61704071
 30
0.0
  0
VERTEX
  5
92B
100
AcDbEntity
  8
0
100
AcDbVertex
100
AcDb2dVertex
 10
186.46181881
 20
2.64922435
 30
0.0
  0
VERTEX
  5
92C
100
AcDbEntity
  8
0
100
AcDbVertex
100
AcDb2dVertex
 10
186.76229795
 20
2.64509156
 30
0.0
  0
VERTEX
  5
92D
100
AcDbEntity
  8
0
100
AcDbVertex
100
AcDb2dVertex
 10
187.04545238
 20
2.62258300
 30
0.0
  0
VERTEX
  5
92E
100
AcDbEntity
  8
0
100
AcDbVertex
100
AcDb2dVertex
 10
187.29328601
 20
2.58374027
 30
0.0
  0
VERTEX
  5
92F
100
AcDbEntity
  8
0
100
AcDbVertex
100
AcDb2dVertex
 10
187.68056895
 20
2.47699178
 30
0.0
  0
VERTEX
  5
930
100
AcDbEntity
  8
0
100
AcDbVertex
100
AcDb2dVertex
 10
188.06125901
 20
2.30091171
 30
0.0
  0
VERTEX
  5
931
100
AcDbEntity
  8
0
100
AcDbVertex
100
AcDb2dVertex
 10
188.39288893
 20
2.07150879
 30
0.0
  0
VERTEX
  5
932
100
AcDbEntity
  8
0
100
AcDbVertex
100
AcDb2dVertex
 10
188.69231520
 20
1.78478813
 30
0.0
  0
VERTEX
  5
933
100
AcDbEntity
  8
0
100
AcDbVertex
100
AcDb2dVertex
 10
188.78039699
 20
1.68283381
 30
0.0
  0
VERTEX
  5
934
100
AcDbEntity
  8
0
100
AcDbVertex
100
AcDb2dVertex
 10
189.05819791
 20
1.29665431
 30
0.0
  0
VERTEX
  5
935
100
AcDbEntity
  8
0
100
AcDbVertex
100
AcDb2dVertex
 10
189.41098641
 20
1.55403782
 30
0.0
  0
VERTEX
  5
936
100
AcDbEntity
  8
0
100
AcDbVertex
100
AcDb2dVertex
 10
189.47244107
 20
1.59342466
 30
0.0
  0
VERTEX
  5
937
100
AcDbEntity
  8
0
100
AcDbVertex
100
AcDb2dVertex
 10
189.69906660
 20
1.71833128
 30
0.0
  0
VERTEX
  5
938
100
AcDbEntity
  8
0
100
AcDbVertex
100
AcDb2dVertex
 10
189.75136971
 20
1.74305301
 30
0.0
  0
VERTEX
  5
939
100
AcDbEntity
  8
0
100
AcDbVertex
100
AcDb2dVertex
 10
189.94586527
 20
1.82325141
 30
0.0
  0
VERTEX
  5
93A
100
AcDbEntity
  8
0
100
AcDbVertex
100
AcDb2dVertex
 10
190.32009383
 20
1.93325401
 30
0.0
  0
VERTEX
  5
93B
100
AcDbEntity
  8
0
100
AcDbVertex
100
AcDb2dVertex
 10
190.74099076
 20
1.99932727
 30
0.0
  0
VERTEX
  5
93C
100
AcDbEntity
  8
0
100
AcDbVertex
100
AcDb2dVertex
 10
190.99947103
 20
2.01269117
 30
0.0
  0
SEQEND
  5
93D
100
AcDbEntity
  8
0
  0
POLYLINE
  5
93E
100
AcDbEntity
  8
0
100
AcDb2dPolyline
 66
     1
  0
VERTEX
  5
93F
100
AcDbEntity
  8
0
100
AcDbVertex
100
AcDb2dVertex
 10
184.02450273
 20
1.29664784
 30
0.0
  0
VERTEX
  5
940
100
AcDbEntity
  8
0
100
AcDbVertex
100
AcDb2dVertex
 10
184.17133769
 20
1.37261693
 30
0.0
  0
VERTEX
  5
941
100
AcDbEntity
  8
0
100
AcDbVertex
100
AcDb2dVertex
 10
184.77215173
 20
1.59767725
 30
0.0
  0
VERTEX
  5
942
100
AcDbEntity
  8
0
100
AcDbVertex
100
AcDb2dVertex
 10
185.15744905
 20
1.71287750
 30
0.0
  0
VERTEX
  5
943
100
AcDbEntity
  8
0
100
AcDbVertex
100
AcDb2dVertex
 10
185.48845424
 20
1.79071297
 30
0.0
  0
VERTEX
  5
944
100
AcDbEntity
  8
0
100
AcDbVertex
100
AcDb2dVertex
 10
186.04114610
 20
1.86869919
 30
0.0
  0
VERTEX
  5
945
100
AcDbEntity
  8
0
100
AcDbVertex
100
AcDb2dVertex
 10
186.65111820
 20
1.88676056
 30
0.0
  0
VERTEX
  5
946
100
AcDbEntity
  8
0
100
AcDbVertex
100
AcDb2dVertex
 10
187.00122689
 20
1.87183885
 30
0.0
  0
VERTEX
  5
947
100
AcDbEntity
  8
0
100
AcDbVertex
100
AcDb2dVertex
 10
187.57119946
 20
1.79530110
 30
0.0
  0
VERTEX
  5
948
100
AcDbEntity
  8
0
100
AcDbVertex
100
AcDb2dVertex
 10
188.02276014
 20
1.68600812
 30
0.0
  0
VERTEX
  5
949
100
AcDbEntity
  8
0
100
AcDbVertex
100
AcDb2dVertex
 10
188.11252227
 20
1.65984620
 30
0.0
  0
VERTEX
  5
94A
100
AcDbEntity
  8
0
100
AcDbVertex
100
AcDb2dVertex
 10
188.19675826
 20
1.63412361
 30
0.0
  0
VERTEX
  5
94B
100
AcDbEntity
  8
0
100
AcDbVertex
100
AcDb2dVertex
 10
188.27605148
 20
1.60892773
 30
0.0
  0
VERTEX
  5
94C
100
AcDbEntity
  8
0
100
AcDbVertex
100
AcDb2dVertex
 10
188.35080589
 20
1.58433810
 30
0.0
  0
VERTEX
  5
94D
100
AcDbEntity
  8
0
100
AcDbVertex
100
AcDb2dVertex
 10
188.42130758
 20
1.56042643
 30
0.0
  0
VERTEX
  5
94E
100
AcDbEntity
  8
0
100
AcDbVertex
100
AcDb2dVertex
 10
188.48776203
 20
1.53725754
 30
0.0
  0
VERTEX
  5
94F
100
AcDbEntity
  8
0
100
AcDbVertex
100
AcDb2dVertex
 10
188.55031793
 20
1.51488890
 30
0.0
  0
VERTEX
  5
950
100
AcDbEntity
  8
0
100
AcDbVertex
100
AcDb2dVertex
 10
188.60909669
 20
1.49335521
 30
0.0
  0
VERTEX
  5
951
100
AcDbEntity
  8
0
100
AcDbVertex
100
AcDb2dVertex
 10
188.66418608
 20
1.47269340
 30
0.0
  0
VERTEX
  5
952
100
AcDbEntity
  8
0
100
AcDbVertex
100
AcDb2dVertex
 10
188.76346432
 20
1.43419738
 30
0.0
  0
VERTEX
  5
953
100
AcDbEntity
  8
0
100
AcDbVertex
100
AcDb2dVertex
 10
189.05819791
 20
1.29665431
 30
0.0
  0
SEQEND
  5
954
100
AcDbEntity
  8
0
  0
POLYLINE
  5
955
100
AcDbEntity
  8
0
100
AcDb2dPolyline
 66
     1
  0
VERTEX
  5
956
100
AcDbEntity
  8
0
100
AcDbVertex
100
AcDb2dVertex
 10
184.02450273
 20
1.29664784
 30
0.0
  0
VERTEX
  5
957
100
AcDbEntity
  8
0
100
AcDbVertex
100
AcDb2dVertex
 10
183.79467219
 20
0.99182917
 30
0.0
  0
VERTEX
  5
958
100
AcDbEntity
  8
0
100
AcDbVertex
100
AcDb2dVertex
 10
183.51423570
 20
0.73866699
 30
0.0
  0
VERTEX
  5
959
100
AcDbEntity
  8
0
100
AcDbVertex
100
AcDb2dVertex
 10
183.29932277
 20
0.59933592
 30
0.0
  0
VERTEX
  5
95A
100
AcDbEntity
  8
0
100
AcDbVertex
100
AcDb2dVertex
 10
182.95959185
 20
0.44869611
 30
0.0
  0
VERTEX
  5
95B
100
AcDbEntity
  8
0
100
AcDbVertex
100
AcDb2dVertex
 10
182.60117014
 20
0.36436974
 30
0.0
  0
VERTEX
  5
95C
100
AcDbEntity
  8
0
100
AcDbVertex
100
AcDb2dVertex
 10
182.32731294
 20
0.34540238
 30
0.0
  0
SEQEND
  5
95D
100
AcDbEntity
  8
0
  0
LINE
  5
95E
100
AcDbEntity
  8
0
100
AcDbLine
 10
169.76256313
 20
7.34540239
 30
0.0
 11
169.76256313
 21
0.34540238
 31
0.0
  0
POLYLINE
  5
95F
100
AcDbEntity
  8
0
100
AcDb2dPolyline
 66
     1
  0
VERTEX
  5
960
100
AcDbEntity
  8
0
100
AcDbVertex
100
AcDb2dVertex
 10
180.28042798
 20
2.39571346
 30
0.0
  0
VERTEX
  5
961
100
AcDbEntity
  8
0
100
AcDbVertex
100
AcDb2dVertex
 10
180.10698072
 20
0.50697624
 30
0.0
  0
VERTEX
  5
962
100
AcDbEntity
  8
0
100
AcDbVertex
100
AcDb2dVertex
 10
180.11160366
 20
0.34540238
 30
0.0
  0
SEQEND
  5
963
100
AcDbEntity
  8
0
  0
POLYLINE
  5
964
100
AcDbEntity
  8
0
100
AcDb2dPolyline
 66
     1
  0
VERTEX
  5
965
100
AcDbEntity
  8
0
100
AcDbVertex
100
AcDb2dVertex
 10
180.11160365
 20
7.34540238
 30
0.0
  0
VERTEX
  5
966
100
AcDbEntity
  8
0
100
AcDbVertex
100
AcDb2dVertex
 10
180.11433992
 20
5.35584126
 30
0.0
  0
VERTEX
  5
967
100
AcDbEntity
  8
0
100
AcDbVertex
100
AcDb2dVertex
 10
180.18421900
 20
3.56907632
 30
0.0
  0
VERTEX
  5
968
100
AcDbEntity
  8
0
100
AcDbVertex
100
AcDb2dVertex
 10
180.28042798
 20
2.39571346
 30
0.0
  0
SEQEND
  5
969
100
AcDbEntity
  8
0
  0
LINE
  5
96A
100
AcDbEntity
  8
0
100
AcDbLine
 10
182.08323356
 20
7.30091913
 30
0.0
 11
180.11160365
 21
7.34540238
 31
0.0
  0
POLYLINE
  5
96B
100
AcDbEntity
  8
0
100
AcDb2dPolyline
 66
     1
  0
VERTEX
  5
96C
100
AcDbEntity
  8
0
100
AcDbVertex
100
AcDb2dVertex
 10
184.08217186
 20
70.39083419
 30
0.0
  0
VERTEX
  5
96D
100
AcDbEntity
  8
0
100
AcDbVertex
100
AcDb2dVertex
 10
183.78781905
 20
64.83518459
 30
0.0
  0
VERTEX
  5
96E
100
AcDbEntity
  8
0
100
AcDbVertex
100
AcDb2dVertex
 10
183.48642673
 20
57.98017916
 30
0.0
  0
VERTEX
  5
96F
100
AcDbEntity
  8
0
100
AcDbVertex
100
AcDb2dVertex
 10
183.17013273
 20
49.38167715
 30
0.0
  0
VERTEX
  5
970
100
AcDbEntity
  8
0
100
AcDbVertex
100
AcDb2dVertex
 10
182.99235771
 20
43.80144038
 30
0.0
  0
VERTEX
  5
971
100
AcDbEntity
  8
0
100
AcDbVertex
100
AcDb2dVertex
 10
182.66631381
 20
32.07410961
 30
0.0
  0
VERTEX
  5
972
100
AcDbEntity
  8
0
100
AcDbVertex
100
AcDb2dVertex
 10
182.28922811
 20
16.40313198
 30
0.0
  0
VERTEX
  5
973
100
AcDbEntity
  8
0
100
AcDbVertex
100
AcDb2dVertex
 10
182.08323356
 20
7.30091913
 30
0.0
  0
SEQEND
  5
974
100
AcDbEntity
  8
0
  0
POLYLINE
  5
975
100
AcDbEntity
  8
0
100
AcDb2dPolyline
 66
     1
  0
VERTEX
  5
976
100
AcDbEntity
  8
0
100
AcDbVertex
100
AcDb2dVertex
 10
189.00052227
 20
70.39083662
 30
0.0
  0
VERTEX
  5
977
100
AcDbEntity
  8
0
100
AcDbVertex
100
AcDb2dVertex
 10
188.91142792
 20
70.40795570
 30
0.0
  0
VERTEX
  5
978
100
AcDbEntity
  8
0
100
AcDbVertex
100
AcDb2dVertex
 10
188.78039699
 20
70.43055320
 30
0.0
  0
VERTEX
  5
979
100
AcDbEntity
  8
0
100
AcDbVertex
100
AcDb2dVertex
 10
188.63610188
 20
70.45228319
 30
0.0
  0
VERTEX
  5
97A
100
AcDbEntity
  8
0
100
AcDbVertex
100
AcDb2dVertex
 10
188.55815218
 20
70.46279030
 30
0.0
  0
VERTEX
  5
97B
100
AcDbEntity
  8
0
100
AcDbVertex
100
AcDb2dVertex
 10
188.47657327
 20
70.47294194
 30
0.0
  0
VERTEX
  5
97C
100
AcDbEntity
  8
0
100
AcDbVertex
100
AcDb2dVertex
 10
188.39110355
 20
70.48271428
 30
0.0
  0
VERTEX
  5
97D
100
AcDbEntity
  8
0
100
AcDbVertex
100
AcDb2dVertex
 10
188.30153013
 20
70.49207347
 30
0.0
  0
VERTEX
  5
97E
100
AcDbEntity
  8
0
100
AcDbVertex
100
AcDb2dVertex
 10
188.20772644
 20
70.50097537
 30
0.0
  0
VERTEX
  5
97F
100
AcDbEntity
  8
0
100
AcDbVertex
100
AcDb2dVertex
 10
188.10969215
 20
70.50936688
 30
0.0
  0
VERTEX
  5
980
100
AcDbEntity
  8
0
100
AcDbVertex
100
AcDb2dVertex
 10
188.00758356
 20
70.51718985
 30
0.0
  0
VERTEX
  5
981
100
AcDbEntity
  8
0
100
AcDbVertex
100
AcDb2dVertex
 10
187.04425884
 20
70.55621576
 30
0.0
  0
VERTEX
  5
982
100
AcDbEntity
  8
0
100
AcDbVertex
100
AcDb2dVertex
 10
185.73323016
 20
70.54943584
 30
0.0
  0
VERTEX
  5
983
100
AcDbEntity
  8
0
100
AcDbVertex
100
AcDb2dVertex
 10
185.14749930
 20
70.52220679
 30
0.0
  0
VERTEX
  5
984
100
AcDbEntity
  8
0
100
AcDbVertex
100
AcDb2dVertex
 10
184.34658295
 20
70.43755315
 30
0.0
  0
VERTEX
  5
985
100
AcDbEntity
  8
0
100
AcDbVertex
100
AcDb2dVertex
 10
184.17127667
 20
70.40795570
 30
0.0
  0
VERTEX
  5
986
100
AcDbEntity
  8
0
100
AcDbVertex
100
AcDb2dVertex
 10
184.08217186
 20
70.39083419
 30
0.0
  0
SEQEND
  5
987
100
AcDbEntity
  8
0
  0
POLYLINE
  5
988
100
AcDbEntity
  8
0
100
AcDb2dPolyline
 66
     1
  0
VERTEX
  5
989
100
AcDbEntity
  8
0
100
AcDbVertex
100
AcDb2dVertex
 10
190.99947103
 20
7.30091913
 30
0.0
  0
VERTEX
  5
98A
100
AcDbEntity
  8
0
100
AcDbVertex
100
AcDb2dVertex
 10
190.93039579
 20
10.36806338
 30
0.0
  0
VERTEX
  5
98B
100
AcDbEntity
  8
0
100
AcDbVertex
100
AcDb2dVertex
 10
190.86542191
 20
13.24341495
 30
0.0
  0
VERTEX
  5
98C
100
AcDbEntity
  8
0
100
AcDbVertex
100
AcDb2dVertex
 10
190.76474896
 20
17.65474461
 30
0.0
  0
VERTEX
  5
98D
100
AcDbEntity
  8
0
100
AcDbVertex
100
AcDb2dVertex
 10
190.61215624
 20
24.16780896
 30
0.0
  0
VERTEX
  5
98E
100
AcDbEntity
  8
0
100
AcDbVertex
100
AcDb2dVertex
 10
190.49099879
 20
29.12985060
 30
0.0
  0
VERTEX
  5
98F
100
AcDbEntity
  8
0
100
AcDbVertex
100
AcDb2dVertex
 10
190.26858809
 20
37.62783702
 30
0.0
  0
VERTEX
  5
990
100
AcDbEntity
  8
0
100
AcDbVertex
100
AcDb2dVertex
 10
190.07145521
 20
44.42160047
 30
0.0
  0
VERTEX
  5
991
100
AcDbEntity
  8
0
100
AcDbVertex
100
AcDb2dVertex
 10
189.87852838
 20
50.38623137
 30
0.0
  0
VERTEX
  5
992
100
AcDbEntity
  8
0
100
AcDbVertex
100
AcDb2dVertex
 10
189.66105120
 20
56.34755288
 30
0.0
  0
VERTEX
  5
993
100
AcDbEntity
  8
0
100
AcDbVertex
100
AcDb2dVertex
 10
189.47925801
 20
60.77927188
 30
0.0
  0
VERTEX
  5
994
100
AcDbEntity
  8
0
100
AcDbVertex
100
AcDb2dVertex
 10
189.29311227
 20
64.87332579
 30
0.0
  0
VERTEX
  5
995
100
AcDbEntity
  8
0
100
AcDbVertex
100
AcDb2dVertex
 10
189.00052227
 20
70.39083662
 30
0.0
  0
SEQEND
  5
996
100
AcDbEntity
  8
0
  0
POLYLINE
  5
997
100
AcDbEntity
  8
0
100
AcDb2dPolyline
 66
     1
  0
VERTEX
  5
998
100
AcDbEntity
  8
0
100
AcDbVertex
100
AcDb2dVertex
 10
190.80956144
 20
3.61989833
 30
0.0
  0
VERTEX
  5
999
100
AcDbEntity
  8
0
100
AcDbVertex
100
AcDb2dVertex
 10
190.91823546
 20
4.50250919
 30
0.0
  0
VERTEX
  5
99A
100
AcDbEntity
  8
0
100
AcDbVertex
100
AcDb2dVertex
 10
190.99018885
 20
5.67156285
 30
0.0
  0
VERTEX
  5
99B
100
AcDbEntity
  8
0
100
AcDbVertex
100
AcDb2dVertex
 10
191.00411333
 20
7.04591352
 30
0.0
  0
VERTEX
  5
99C
100
AcDbEntity
  8
0
100
AcDbVertex
100
AcDb2dVertex
 10
190.99947103
 20
7.30091913
 30
0.0
  0
VERTEX
  5
99D
100
AcDbEntity
  8
0
100
AcDbVertex
100
AcDb2dVertex
 10
192.97110094
 20
7.34540238
 30
0.0
  0
SEQEND
  5
99E
100
AcDbEntity
  8
0
  0
POLYLINE
  5
99F
100
AcDbEntity
  8
0
100
AcDb2dPolyline
 66
     1
  0
VERTEX
  5
9A0
100
AcDbEntity
  8
0
100
AcDbVertex
100
AcDb2dVertex
 10
189.00052227
 20
70.39083662
 30
0.0
  0
VERTEX
  5
9A1
100
AcDbEntity
  8
0
100
AcDbVertex
100
AcDb2dVertex
 10
188.92977357
 20
70.60336271
 30
0.0
  0
VERTEX
  5
9A2
100
AcDbEntity
  8
0
100
AcDbVertex
100
AcDb2dVertex
 10
188.79025878
 20
70.80758140
 30
0.0
  0
VERTEX
  5
9A3
100
AcDbEntity
  8
0
100
AcDbVertex
100
AcDb2dVertex
 10
188.58105840
 20
70.99342763
 30
0.0
  0
VERTEX
  5
9A4
100
AcDbEntity
  8
0
100
AcDbVertex
100
AcDb2dVertex
 10
188.45476372
 20
71.07357858
 30
0.0
  0
VERTEX
  5
9A5
100
AcDbEntity
  8
0
100
AcDbVertex
100
AcDb2dVertex
 10
188.39183781
 20
71.10752478
 30
0.0
  0
VERTEX
  5
9A6
100
AcDbEntity
  8
0
100
AcDbVertex
100
AcDb2dVertex
 10
188.32533431
 20
71.13982637
 30
0.0
  0
VERTEX
  5
9A7
100
AcDbEntity
  8
0
100
AcDbVertex
100
AcDb2dVertex
 10
188.25514687
 20
71.17040857
 30
0.0
  0
VERTEX
  5
9A8
100
AcDbEntity
  8
0
100
AcDbVertex
100
AcDb2dVertex
 10
188.18112570
 20
71.19920313
 30
0.0
  0
VERTEX
  5
9A9
100
AcDbEntity
  8
0
100
AcDbVertex
100
AcDb2dVertex
 10
188.10308203
 20
71.22614476
 30
0.0
  0
VERTEX
  5
9AA
100
AcDbEntity
  8
0
100
AcDbVertex
100
AcDb2dVertex
 10
188.02075142
 20
71.25117495
 30
0.0
  0
VERTEX
  5
9AB
100
AcDbEntity
  8
0
100
AcDbVertex
100
AcDb2dVertex
 10
187.93377001
 20
71.27424200
 30
0.0
  0
VERTEX
  5
9AC
100
AcDbEntity
  8
0
100
AcDbVertex
100
AcDb2dVertex
 10
187.84164022
 20
71.29530147
 30
0.0
  0
VERTEX
  5
9AD
100
AcDbEntity
  8
0
100
AcDbVertex
100
AcDb2dVertex
 10
187.74367580
 20
71.31431758
 30
0.0
  0
VERTEX
  5
9AE
100
AcDbEntity
  8
0
100
AcDbVertex
100
AcDb2dVertex
 10
187.63893124
 20
71.33126358
 30
0.0
  0
VERTEX
  5
9AF
100
AcDbEntity
  8
0
100
AcDbVertex
100
AcDb2dVertex
 10
187.52612012
 20
71.34612000
 30
0.0
  0
VERTEX
  5
9B0
100
AcDbEntity
  8
0
100
AcDbVertex
100
AcDb2dVertex
 10
187.40353163
 20
71.35886967
 30
0.0
  0
VERTEX
  5
9B1
100
AcDbEntity
  8
0
100
AcDbVertex
100
AcDb2dVertex
 10
187.26893084
 20
71.36948954
 30
0.0
  0
VERTEX
  5
9B2
100
AcDbEntity
  8
0
100
AcDbVertex
100
AcDb2dVertex
 10
187.11949367
 20
71.37793751
 30
0.0
  0
VERTEX
  5
9B3
100
AcDbEntity
  8
0
100
AcDbVertex
100
AcDb2dVertex
 10
186.95170753
 20
71.38413909
 30
0.0
  0
VERTEX
  5
9B4
100
AcDbEntity
  8
0
100
AcDbVertex
100
AcDb2dVertex
 10
186.76231945
 20
71.38796360
 30
0.0
  0
VERTEX
  5
9B5
100
AcDbEntity
  8
0
100
AcDbVertex
100
AcDb2dVertex
 10
186.56047096
 20
71.38929267
 30
0.0
  0
VERTEX
  5
9B6
100
AcDbEntity
  8
0
100
AcDbVertex
100
AcDb2dVertex
 10
186.34850578
 20
71.38829901
 30
0.0
  0
VERTEX
  5
9B7
100
AcDbEntity
  8
0
100
AcDbVertex
100
AcDb2dVertex
 10
186.12170478
 20
71.38387222
 30
0.0
  0
VERTEX
  5
9B8
100
AcDbEntity
  8
0
100
AcDbVertex
100
AcDb2dVertex
 10
185.91235358
 20
71.37540937
 30
0.0
  0
VERTEX
  5
9B9
100
AcDbEntity
  8
0
100
AcDbVertex
100
AcDb2dVertex
 10
185.73250280
 20
71.36346232
 30
0.0
  0
VERTEX
  5
9BA
100
AcDbEntity
  8
0
100
AcDbVertex
100
AcDb2dVertex
 10
185.58140253
 20
71.34896747
 30
0.0
  0
VERTEX
  5
9BB
100
AcDbEntity
  8
0
100
AcDbVertex
100
AcDb2dVertex
 10
185.45058853
 20
71.33225574
 30
0.0
  0
VERTEX
  5
9BC
100
AcDbEntity
  8
0
100
AcDbVertex
100
AcDb2dVertex
 10
185.33412535
 20
71.31344215
 30
0.0
  0
VERTEX
  5
9BD
100
AcDbEntity
  8
0
100
AcDbVertex
100
AcDb2dVertex
 10
184.89269271
 20
71.19592062
 30
0.0
  0
VERTEX
  5
9BE
100
AcDbEntity
  8
0
100
AcDbVertex
100
AcDb2dVertex
 10
184.56110676
 20
71.03337908
 30
0.0
  0
VERTEX
  5
9BF
100
AcDbEntity
  8
0
100
AcDbVertex
100
AcDb2dVertex
 10
184.31759442
 20
70.83503043
 30
0.0
  0
VERTEX
  5
9C0
100
AcDbEntity
  8
0
100
AcDbVertex
100
AcDb2dVertex
 10
184.29440729
 20
70.80979130
 30
0.0
  0
VERTEX
  5
9C1
100
AcDbEntity
  8
0
100
AcDbVertex
100
AcDb2dVertex
 10
184.25671666
 20
70.76500691
 30
0.0
  0
VERTEX
  5
9C2
100
AcDbEntity
  8
0
100
AcDbVertex
100
AcDb2dVertex
 10
184.12463283
 20
70.54029354
 30
0.0
  0
VERTEX
  5
9C3
100
AcDbEntity
  8
0
100
AcDbVertex
100
AcDb2dVertex
 10
184.08217186
 20
70.39083419
 30
0.0
  0
VERTEX
  5
9C4
100
AcDbEntity
  8
0
100
AcDbVertex
100
AcDb2dVertex
 10
182.41308334
 20
70.53685599
 30
0.0
  0
SEQEND
  5
9C5
100
AcDbEntity
  8
0
  0
LINE
  5
9C6
100
AcDbEntity
  8
0
100
AcDbLine
 10
189.00052227
 20
70.39083662
 30
0.0
 11
190.66962019
 21
70.53685599
 31
0.0
  0
POLYLINE
  5
9C7
100
AcDbEntity
  8
0
100
AcDb2dPolyline
 66
     1
  0
VERTEX
  5
9C8
100
AcDbEntity
  8
0
100
AcDbVertex
100
AcDb2dVertex
 10
182.08323356
 20
7.30091913
 30
0.0
  0
VERTEX
  5
9C9
100
AcDbEntity
  8
0
100
AcDbVertex
100
AcDb2dVertex
 10
182.08601926
 20
5.87777752
 30
0.0
  0
VERTEX
  5
9CA
100
AcDbEntity
  8
0
100
AcDbVertex
100
AcDb2dVertex
 10
182.15587450
 20
4.59959447
 30
0.0
  0
VERTEX
  5
9CB
100
AcDbEntity
  8
0
100
AcDbVertex
100
AcDb2dVertex
 10
182.27314316
 20
3.61991355
 30
0.0
  0
VERTEX
  5
9CC
100
AcDbEntity
  8
0
100
AcDbVertex
100
AcDb2dVertex
 10
182.25910032
 20
3.55830405
 30
0.0
  0
VERTEX
  5
9CD
100
AcDbEntity
  8
0
100
AcDbVertex
100
AcDb2dVertex
 10
182.15649326
 20
3.30231808
 30
0.0
  0
VERTEX
  5
9CE
100
AcDbEntity
  8
0
100
AcDbVertex
100
AcDb2dVertex
 10
181.98304933
 20
3.05890892
 30
0.0
  0
VERTEX
  5
9CF
100
AcDbEntity
  8
0
100
AcDbVertex
100
AcDb2dVertex
 10
181.73804953
 20
2.83676878
 30
0.0
  0
VERTEX
  5
9D0
100
AcDbEntity
  8
0
100
AcDbVertex
100
AcDb2dVertex
 10
181.62353944
 20
2.75832852
 30
0.0
  0
VERTEX
  5
9D1
100
AcDbEntity
  8
0
100
AcDbVertex
100
AcDb2dVertex
 10
181.55676597
 20
2.71790434
 30
0.0
  0
VERTEX
  5
9D2
100
AcDbEntity
  8
0
100
AcDbVertex
100
AcDb2dVertex
 10
181.34253390
 20
2.60957644
 30
0.0
  0
VERTEX
  5
9D3
100
AcDbEntity
  8
0
100
AcDbVertex
100
AcDb2dVertex
 10
181.26695172
 20
2.57800203
 30
0.0
  0
VERTEX
  5
9D4
100
AcDbEntity
  8
0
100
AcDbVertex
100
AcDb2dVertex
 10
181.11040704
 20
2.52200252
 30
0.0
  0
VERTEX
  5
9D5
100
AcDbEntity
  8
0
100
AcDbVertex
100
AcDb2dVertex
 10
181.02974813
 20
2.49767570
 30
0.0
  0
VERTEX
  5
9D6
100
AcDbEntity
  8
0
100
AcDbVertex
100
AcDb2dVertex
 10
180.94770514
 20
2.47585405
 30
0.0
  0
VERTEX
  5
9D7
100
AcDbEntity
  8
0
100
AcDbVertex
100
AcDb2dVertex
 10
180.86443631
 20
2.45657255
 30
0.0
  0
VERTEX
  5
9D8
100
AcDbEntity
  8
0
100
AcDbVertex
100
AcDb2dVertex
 10
180.78010204
 20
2.43985909
 30
0.0
  0
VERTEX
  5
9D9
100
AcDbEntity
  8
0
100
AcDbVertex
100
AcDb2dVertex
 10
180.69486486
 20
2.42573218
 30
0.0
  0
VERTEX
  5
9DA
100
AcDbEntity
  8
0
100
AcDbVertex
100
AcDb2dVertex
 10
180.60889066
 20
2.41419539
 30
0.0
  0
VERTEX
  5
9DB
100
AcDbEntity
  8
0
100
AcDbVertex
100
AcDb2dVertex
 10
180.52235704
 20
2.40521953
 30
0.0
  0
VERTEX
  5
9DC
100
AcDbEntity
  8
0
100
AcDbVertex
100
AcDb2dVertex
 10
180.43553182
 20
2.39866710
 30
0.0
  0
VERTEX
  5
9DD
100
AcDbEntity
  8
0
100
AcDbVertex
100
AcDb2dVertex
 10
180.35029258
 20
2.39370710
 30
0.0
  0
VERTEX
  5
9DE
100
AcDbEntity
  8
0
100
AcDbVertex
100
AcDb2dVertex
 10
180.28042798
 20
2.39571346
 30
0.0
  0
SEQEND
  5
9DF
100
AcDbEntity
  8
0
  0
POLYLINE
  5
9E0
100
AcDbEntity
  8
0
100
AcDb2dPolyline
 66
     1
  0
VERTEX
  5
9E1
100
AcDbEntity
  8
0
100
AcDbVertex
100
AcDb2dVertex
 10
182.08323357
 20
2.01269117
 30
0.0
  0
VERTEX
  5
9E2
100
AcDbEntity
  8
0
100
AcDbVertex
100
AcDb2dVertex
 10
181.98273015
 20
1.64034672
 30
0.0
  0
VERTEX
  5
9E3
100
AcDbEntity
  8
0
100
AcDbVertex
100
AcDb2dVertex
 10
181.81469722
 20
1.29754940
 30
0.0
  0
VERTEX
  5
9E4
100
AcDbEntity
  8
0
100
AcDbVertex
100
AcDb2dVertex
 10
181.58704369
 20
0.99559921
 30
0.0
  0
VERTEX
  5
9E5
100
AcDbEntity
  8
0
100
AcDbVertex
100
AcDb2dVertex
 10
181.40251052
 20
0.81808080
 30
0.0
  0
VERTEX
  5
9E6
100
AcDbEntity
  8
0
100
AcDbVertex
100
AcDb2dVertex
 10
181.09691335
 20
0.60509476
 30
0.0
  0
VERTEX
  5
9E7
100
AcDbEntity
  8
0
100
AcDbVertex
100
AcDb2dVertex
 10
180.76017773
 20
0.45354151
 30
0.0
  0
VERTEX
  5
9E8
100
AcDbEntity
  8
0
100
AcDbVertex
100
AcDb2dVertex
 10
180.40448483
 20
0.36697448
 30
0.0
  0
VERTEX
  5
9E9
100
AcDbEntity
  8
0
100
AcDbVertex
100
AcDb2dVertex
 10
180.11160366
 20
0.34540238
 30
0.0
  0
SEQEND
  5
9EA
100
AcDbEntity
  8
0
  0
POLYLINE
  5
9EB
100
AcDbEntity
  8
0
100
AcDb2dPolyline
 66
     1
  0
VERTEX
  5
9EC
100
AcDbEntity
  8
0
100
AcDbVertex
100
AcDb2dVertex
 10
189.05819791
 20
1.29665431
 30
0.0
  0
VERTEX
  5
9ED
100
AcDbEntity
  8
0
100
AcDbVertex
100
AcDb2dVertex
 10
189.28803796
 20
0.99182333
 30
0.0
  0
VERTEX
  5
9EE
100
AcDbEntity
  8
0
100
AcDbVertex
100
AcDb2dVertex
 10
189.56847540
 20
0.73866228
 30
0.0
  0
VERTEX
  5
9EF
100
AcDbEntity
  8
0
100
AcDbVertex
100
AcDb2dVertex
 10
189.78338546
 20
0.59933398
 30
0.0
  0
VERTEX
  5
9F0
100
AcDbEntity
  8
0
100
AcDbVertex
100
AcDb2dVertex
 10
190.12311667
 20
0.44869484
 30
0.0
  0
VERTEX
  5
9F1
100
AcDbEntity
  8
0
100
AcDbVertex
100
AcDb2dVertex
 10
190.48153852
 20
0.36436919
 30
0.0
  0
VERTEX
  5
9F2
100
AcDbEntity
  8
0
100
AcDbVertex
100
AcDb2dVertex
 10
190.75539177
 20
0.34540238
 30
0.0
  0
SEQEND
  5
9F3
100
AcDbEntity
  8
0
  0
LINE
  5
9F4
100
AcDbEntity
  8
0
100
AcDbLine
  6
STRICHPUNKT2
 62
     1
 10
173.54135230
 20
-2.15459762
 30
0.0
 11
173.54135230
 21
-3.15459762
 31
0.0
  0
LINE
  5
9F5
100
AcDbEntity
  8
0
100
AcDbLine
  6
STRICHPUNKT2
 62
     1
 10
173.54135230
 20
1.34540238
 30
0.0
 11
173.54135230
 21
0.34540238
 31
0.0
  0
LINE
  5
9F6
100
AcDbEntity
  8
0
100
AcDbLine
  6
STRICHPUNKT2
 62
     1
 10
171.04135230
 20
32.84586408
 30
0.0
 11
175.54135230
 21
32.84586408
 31
0.0
  0
LINE
  5
9F7
100
AcDbEntity
  8
0
100
AcDbLine
  6
STRICHPUNKT2
 62
     1
 10
171.04135230
 20
32.84586408
 30
0.0
 11
166.54135230
 21
32.84586408
 31
0.0
  0
LINE
  5
9F8
100
AcDbEntity
  8
0
100
AcDbLine
  6
STRICHPUNKT2
 62
     1
 10
171.04135230
 20
32.84586408
 30
0.0
 11
171.04135230
 21
28.34586408
 31
0.0
  0
LINE
  5
9F9
100
AcDbEntity
  8
0
100
AcDbLine
  6
STRICHPUNKT2
 62
     1
 10
171.04135230
 20
32.84586408
 30
0.0
 11
171.04135230
 21
37.34586408
 31
0.0
  0
LINE
  5
9FA
100
AcDbEntity
  8
0
100
AcDbLine
  6
STRICHPUNKT2
 62
     1
 10
199.54135230
 20
-2.15459762
 30
0.0
 11
199.54135230
 21
-3.65459762
 31
0.0
  0
LINE
  5
9FB
100
AcDbEntity
  8
0
100
AcDbLine
  6
STRICHPUNKT2
 62
     1
 10
199.54135230
 20
1.84540238
 30
0.0
 11
199.54135230
 21
0.34540238
 31
0.0
  0
LINE
  5
9FC
100
AcDbEntity
  8
0
100
AcDbLine
  6
STRICHPUNKT2
 62
     1
 10
194.54135230
 20
87.84586408
 30
0.0
 11
197.54135230
 21
87.84586408
 31
0.0
  0
LINE
  5
9FD
100
AcDbEntity
  8
0
100
AcDbLine
  6
STRICHPUNKT2
 62
     1
 10
194.54135230
 20
87.84586408
 30
0.0
 11
191.54135230
 21
87.84586408
 31
0.0
  0
LINE
  5
9FE
100
AcDbEntity
  8
0
100
AcDbLine
  6
STRICHPUNKT2
 62
     1
 10
194.54135230
 20
87.84586408
 30
0.0
 11
194.54135230
 21
84.84586408
 31
0.0
  0
LINE
  5
9FF
100
AcDbEntity
  8
0
100
AcDbLine
  6
STRICHPUNKT2
 62
     1
 10
194.54135230
 20
87.84586408
 30
0.0
 11
194.54135230
 21
90.84586408
 31
0.0
  0
LINE
  5
A00
100
AcDbEntity
  8
0
100
AcDbLine
  6
STRICHPUNKT2
 62
     1
 10
171.04135230
 20
-2.15459762
 30
0.0
 11
171.04135230
 21
-3.15459762
 31
0.0
  0
LINE
  5
A01
100
AcDbEntity
  8
0
100
AcDbLine
  6
STRICHPUNKT2
 62
     1
 10
171.04135230
 20
1.34540238
 30
0.0
 11
171.04135230
 21
0.34540238
 31
0.0
  0
LINE
  5
A02
100
AcDbEntity
  8
0
100
AcDbLine
  6
STRICHPUNKT2
 62
     1
 10
173.54135230
 20
62.84586408
 30
0.0
 11
170.54135230
 21
62.84586408
 31
0.0
  0
LINE
  5
A03
100
AcDbEntity
  8
0
100
AcDbLine
  6
STRICHPUNKT2
 62
     1
 10
173.54135230
 20
62.84586408
 30
0.0
 11
173.54135230
 21
59.84586408
 31
0.0
  0
LINE
  5
A04
100
AcDbEntity
  8
0
100
AcDbLine
  6
STRICHPUNKT2
 62
     1
 10
173.54135230
 20
62.84586408
 30
0.0
 11
173.54135230
 21
65.84586408
 31
0.0
  0
LINE
  5
A05
100
AcDbEntity
  8
0
100
AcDbLine
  6
STRICHPUNKT2
 62
     1
 10
186.54135230
 20
-2.15459762
 30
0.0
 11
186.54135230
 21
-4.90459762
 31
0.0
  0
LINE
  5
A06
100
AcDbEntity
  8
0
100
AcDbLine
  6
STRICHPUNKT2
 62
     1
 10
186.54135230
 20
3.09540238
 30
0.0
 11
186.54135230
 21
0.34540238
 31
0.0
  0
LINE
  5
A07
100
AcDbEntity
  8
0
100
AcDbLine
  6
STRICHPUNKT2
 62
     1
 10
178.54135230
 20
87.84586408
 30
0.0
 11
181.54135230
 21
87.84586408
 31
0.0
  0
LINE
  5
A08
100
AcDbEntity
  8
0
100
AcDbLine
  6
STRICHPUNKT2
 62
     1
 10
178.54135230
 20
87.84586408
 30
0.0
 11
175.54135230
 21
87.84586408
 31
0.0
  0
LINE
  5
A09
100
AcDbEntity
  8
0
100
AcDbLine
  6
STRICHPUNKT2
 62
     1
 10
178.54135230
 20
87.84586408
 30
0.0
 11
178.54135230
 21
84.84586408
 31
0.0
  0
LINE
  5
A0A
100
AcDbEntity
  8
0
100
AcDbLine
  6
STRICHPUNKT2
 62
     1
 10
178.54135230
 20
87.84586408
 30
0.0
 11
178.54135230
 21
90.84586408
 31
0.0
  0
LINE
  5
A0B
100
AcDbEntity
  8
0
100
AcDbLine
  6
STRICHPUNKT2
 62
     1
 10
194.04135230
 20
98.84586408
 30
0.0
 11
179.04135230
 21
98.84586408
 31
0.0
  0
LINE
  5
A0C
100
AcDbEntity
  8
0
100
AcDbLine
  6
STRICHPUNKT2
 62
     1
 10
178.54135230
 20
-2.15459762
 30
0.0
 11
178.54135230
 21
-3.15459762
 31
0.0
  0
LINE
  5
A0D
100
AcDbEntity
  8
0
100
AcDbLine
  6
STRICHPUNKT2
 62
     1
 10
178.54135230
 20
1.34540238
 30
0.0
 11
178.54135230
 21
0.34540238
 31
0.0
  0
LINE
  5
A0E
100
AcDbEntity
  8
0
100
AcDbLine
  6
STRICHPUNKT2
 62
     1
 10
202.04135230
 20
32.84586408
 30
0.0
 11
205.04135230
 21
32.84586408
 31
0.0
  0
LINE
  5
A0F
100
AcDbEntity
  8
0
100
AcDbLine
  6
STRICHPUNKT2
 62
     1
 10
202.04135230
 20
32.84586408
 30
0.0
 11
199.04135230
 21
32.84586408
 31
0.0
  0
LINE
  5
A10
100
AcDbEntity
  8
0
100
AcDbLine
  6
STRICHPUNKT2
 62
     1
 10
202.04135230
 20
32.84586408
 30
0.0
 11
202.04135230
 21
29.84586408
 31
0.0
  0
LINE
  5
A11
100
AcDbEntity
  8
0
100
AcDbLine
  6
STRICHPUNKT2
 62
     1
 10
194.54135230
 20
-2.15459762
 30
0.0
 11
194.54135230
 21
-3.15459762
 31
0.0
  0
LINE
  5
A12
100
AcDbEntity
  8
0
100
AcDbLine
  6
STRICHPUNKT2
 62
     1
 10
194.54135230
 20
1.34540238
 30
0.0
 11
194.54135230
 21
0.34540238
 31
0.0
  0
LINE
  5
A13
100
AcDbEntity
  8
0
100
AcDbLine
  6
STRICHPUNKT2
 62
     1
 10
202.04135230
 20
32.84586408
 30
0.0
 11
202.04135230
 21
35.84586408
 31
0.0
  0
LINE
  5
A14
100
AcDbEntity
  8
0
100
AcDbLine
  6
STRICHPUNKT2
 62
     1
 10
199.54135230
 20
62.84586408
 30
0.0
 11
204.04135230
 21
62.84586408
 31
0.0
  0
LINE
  5
A15
100
AcDbEntity
  8
0
100
AcDbLine
  6
STRICHPUNKT2
 62
     1
 10
199.54135230
 20
62.84586408
 30
0.0
 11
195.04135230
 21
62.84586408
 31
0.0
  0
LINE
  5
A16
100
AcDbEntity
  8
0
100
AcDbLine
  6
STRICHPUNKT2
 62
     1
 10
199.54135230
 20
62.84586408
 30
0.0
 11
199.54135230
 21
58.34586408
 31
0.0
  0
LINE
  5
A17
100
AcDbEntity
  8
0
100
AcDbLine
  6
STRICHPUNKT2
 62
     1
 10
199.54135230
 20
62.84586408
 30
0.0
 11
199.54135230
 21
67.34586408
 31
0.0
  0
LINE
  5
A18
100
AcDbEntity
  8
0
100
AcDbLine
  6
STRICHPUNKT2
 62
     1
 10
173.54135230
 20
62.84586408
 30
0.0
 11
176.54135230
 21
62.84586408
 31
0.0
  0
LINE
  5
A19
100
AcDbEntity
  8
0
100
AcDbLine
  6
STRICHPUNKT2
 62
     1
 10
173.54135230
 20
-3.15459762
 30
0.0
 11
173.54135230
 21
-3.65459762
 31
0.0
  0
LINE
  5
A1A
100
AcDbEntity
  8
0
100
AcDbLine
  6
STRICHPUNKT2
 62
     1
 10
173.54135230
 20
1.84540238
 30
0.0
 11
173.54135230
 21
1.34540238
 31
0.0
  0
LINE
  5
A1B
100
AcDbEntity
  8
0
100
AcDbLine
  6
STRICHPUNKT2
 62
     1
 10
186.54135230
 20
91.34586408
 30
0.0
 11
186.54135230
 21
116.34586408
 31
0.0
  0
LINE
  5
A1C
100
AcDbEntity
  8
0
100
AcDbLine
  6
STRICHPUNKT2
 62
     1
 10
194.04135230
 20
108.84586408
 30
0.0
 11
179.04135230
 21
108.84586408
 31
0.0
  0
LINE
  5
A1D
100
AcDbEntity
  8
0
100
AcDbLine
  6
STRICHPUNKT2
 62
     1
 10
202.04135230
 20
-2.15459762
 30
0.0
 11
202.04135230
 21
-3.65459762
 31
0.0
  0
LINE
  5
A1E
100
AcDbEntity
  8
0
100
AcDbLine
  6
STRICHPUNKT2
 62
     1
 10
202.04135230
 20
1.84540238
 30
0.0
 11
202.04135230
 21
0.34540238
 31
0.0
  0
LINE
  5
A1F
100
AcDbEntity
  8
0
100
AcDbLine
  6
STRICHPUNKT2
 62
     1
 10
173.54135230
 20
112.84586408
 30
0.0
 11
178.04135230
 21
112.84586408
 31
0.0
  0
LINE
  5
A20
100
AcDbEntity
  8
0
100
AcDbLine
  6
STRICHPUNKT2
 62
     1
 10
173.54135230
 20
112.84586408
 30
0.0
 11
169.04135230
 21
112.84586408
 31
0.0
  0
LINE
  5
A21
100
AcDbEntity
  8
0
100
AcDbLine
  6
STRICHPUNKT2
 62
     1
 10
173.54135230
 20
112.84586408
 30
0.0
 11
173.54135230
 21
108.34586408
 31
0.0
  0
LINE
  5
A22
100
AcDbEntity
  8
0
100
AcDbLine
  6
STRICHPUNKT2
 62
     1
 10
173.54135230
 20
112.84586408
 30
0.0
 11
173.54135230
 21
117.34586408
 31
0.0
  0
LINE
  5
A23
100
AcDbEntity
  8
0
100
AcDbLine
  6
STRICHPUNKT2
 62
     1
 10
199.54135230
 20
112.84586408
 30
0.0
 11
199.54135230
 21
115.84586408
 31
0.0
  0
LINE
  5
A24
100
AcDbEntity
  8
0
100
AcDbLine
  6
STRICHPUNKT2
 62
     1
 10
199.54135230
 20
112.84586408
 30
0.0
 11
199.54135230
 21
109.84586408
 31
0.0
  0
LINE
  5
A25
100
AcDbEntity
  8
0
100
AcDbLine
  6
STRICHPUNKT2
 62
     1
 10
199.54135230
 20
112.84586408
 30
0.0
 11
196.54135230
 21
112.84586408
 31
0.0
  0
LINE
  5
A26
100
AcDbEntity
  8
0
100
AcDbLine
  6
STRICHPUNKT2
 62
     1
 10
199.54135230
 20
112.84586408
 30
0.0
 11
202.54135230
 21
112.84586408
 31
0.0
  0
TEXT
  5
A27
100
AcDbEntity
  8
TXT_DIM49
100
AcDbText
 10
7.79020852
 20
129.49243766
 30
0.0
 40
2.50000000
  1
2,5
  7
Arial
 41
1.000
 50
0.0
 51
0.0
100
AcDbText
  0
LINE
  5
A28
100
AcDbEntity
  8
0
100
AcDbLine
 62
     4
 10
3.20852596
 20
126.99243766
 30
0.0
 11
5.20852596
 21
128.99243766
 31
0.0
  0
LINE
  5
A29
100
AcDbEntity
  8
0
100
AcDbLine
 62
     4
 10
7.45852596
 20
128.74243766
 30
0.0
 11
5.95852596
 21
127.24243766
 31
0.0
  0
LINE
  5
A2A
100
AcDbEntity
  8
0
100
AcDbLine
 62
     4
 10
-1.79147404
 20
127.99243766
 30
0.0
 11
13.58895427
 21
127.99243766
 31
0.0
  0
LINE
  5
A2B
100
AcDbEntity
  8
0
100
AcDbLine
 62
     4
 10
4.20852596
 20
125.99243766
 30
0.0
 11
4.20852596
 21
129.99243766
 31
0.0
  0
LINE
  5
A2C
100
AcDbEntity
  8
0
100
AcDbLine
 62
     4
 10
6.70852596
 20
125.99243766
 30
0.0
 11
6.70852596
 21
129.99243766
 31
0.0
  0
TEXT
  5
A2D
100
AcDbEntity
  8
TXT_DIM49
100
AcDbText
 10
-7.29147404
 20
57.46588012
 30
0.0
 40
2.50000000
  1
125
  7
Arial
 41
1.000
 50
90.000207410
 51
0.0
100
AcDbText
  0
LINE
  5
A2E
100
AcDbEntity
  8
0
100
AcDbLine
 62
     4
 10
-4.79147404
 20
121.84586408
 30
0.0
 11
-6.79147404
 21
123.84586408
 31
0.0
  0
LINE
  5
A2F
100
AcDbEntity
  8
0
100
AcDbLine
 62
     4
 10
-6.54147404
 20
-1.40459762
 30
0.0
 11
-5.04147404
 21
-2.90459762
 31
0.0
  0
LINE
  5
A30
100
AcDbEntity
  8
0
100
AcDbLine
 62
     4
 10
-5.79147404
 20
122.84586408
 30
0.0
 11
-5.79147404
 21
-2.15459762
 31
0.0
  0
LINE
  5
A31
100
AcDbEntity
  8
0
100
AcDbLine
 62
     4
 10
-3.79147404
 20
122.84586408
 30
0.0
 11
-7.79147404
 21
122.84586408
 31
0.0
  0
LINE
  5
A32
100
AcDbEntity
  8
0
100
AcDbLine
 62
     4
 10
-3.79147404
 20
-2.15459762
 30
0.0
 11
-7.79147404
 21
-2.15459762
 31
0.0
  0
TEXT
  5
A33
100
AcDbEntity
  8
TXT_DIM49
100
AcDbText
 10
63.82900498
 20
-8.43899963
 30
0.0
 40
2.50000000
  1
125
  7
Arial
 41
1.000
 50
0.0
 51
0.0
100
AcDbText
  0
LINE
  5
A34
100
AcDbEntity
  8
0
100
AcDbLine
 62
     4
 10
5.20852596
 20
-8.93899963
 30
0.0
 11
3.20852596
 21
-10.93899963
 31
0.0
  0
LINE
  5
A35
100
AcDbEntity
  8
0
100
AcDbLine
 62
     4
 10
128.45899022
 20
-10.68899963
 30
0.0
 11
129.95899022
 21
-9.18899963
 31
0.0
  0
LINE
  5
A36
100
AcDbEntity
  8
0
100
AcDbLine
 62
     4
 10
4.20852596
 20
-9.93899963
 30
0.0
 11
129.20899022
 21
-9.93899963
 31
0.0
  0
LINE
  5
A37
100
AcDbEntity
  8
0
100
AcDbLine
 62
     4
 10
4.20852596
 20
-7.93899963
 30
0.0
 11
4.20852596
 21
-11.93899963
 31
0.0
  0
LINE
  5
A38
100
AcDbEntity
  8
0
100
AcDbLine
 62
     4
 10
129.20899022
 20
-7.93899963
 30
0.0
 11
129.20899022
 21
-11.93899963
 31
0.0
  0
TEXT
  5
A39
100
AcDbEntity
  8
TXT_DIM49
100
AcDbText
 10
122.28915477
 20
220.79898873
 30
0.0
 40
2.50000000
  1
10
  7
Arial
 41
1.000
 50
0.0
 51
0.0
100
AcDbText
  0
LINE
  5
A3A
100
AcDbEntity
  8
0
100
AcDbLine
 62
     4
 10
128.20899022
 20
218.29898873
 30
0.0
 11
130.20899022
 21
220.29898873
 31
0.0
  0
LINE
  5
A3B
100
AcDbEntity
  8
0
100
AcDbLine
 62
     4
 10
119.95899022
 20
220.04898873
 30
0.0
 11
118.45899022
 21
218.54898873
 31
0.0
  0
LINE
  5
A3C
100
AcDbEntity
  8
0
100
AcDbLine
 62
     4
 10
129.20899022
 20
219.29898873
 30
0.0
 11
119.20899022
 21
219.29898873
 31
0.0
  0
LINE
  5
A3D
100
AcDbEntity
  8
0
100
AcDbLine
 62
     4
 10
129.20899022
 20
217.29898873
 30
0.0
 11
129.20899022
 21
221.29898873
 31
0.0
  0
LINE
  5
A3E
100
AcDbEntity
  8
0
100
AcDbLine
 62
     4
 10
119.20899022
 20
217.29898873
 30
0.0
 11
119.20899022
 21
221.29898873
 31
0.0
  0
TEXT
  5
A3F
100
AcDbEntity
  8
TXT_DIM49
100
AcDbText
 10
112.28915477
 20
220.79898873
 30
0.0
 40
2.50000000
  1
10
  7
Arial
 41
1.000
 50
0.0
 51
0.0
100
AcDbText
  0
LINE
  5
A40
100
AcDbEntity
  8
0
100
AcDbLine
 62
     4
 10
118.20899022
 20
218.29898873
 30
0.0
 11
120.20899022
 21
220.29898873
 31
0.0
  0
LINE
  5
A41
100
AcDbEntity
  8
0
100
AcDbLine
 62
     4
 10
109.95899022
 20
220.04898873
 30
0.0
 11
108.45899022
 21
218.54898873
 31
0.0
  0
LINE
  5
A42
100
AcDbEntity
  8
0
100
AcDbLine
 62
     4
 10
119.20899022
 20
219.29898873
 30
0.0
 11
109.20899022
 21
219.29898873
 31
0.0
  0
LINE
  5
A43
100
AcDbEntity
  8
0
100
AcDbLine
 62
     4
 10
119.20899022
 20
217.29898873
 30
0.0
 11
119.20899022
 21
221.29898873
 31
0.0
  0
LINE
  5
A44
100
AcDbEntity
  8
0
100
AcDbLine
 62
     4
 10
109.20899022
 20
217.29898873
 30
0.0
 11
109.20899022
 21
221.29898873
 31
0.0
  0
TEXT
  5
A45
100
AcDbEntity
  8
TXT_DIM49
100
AcDbText
 10
99.78915477
 20
220.79898873
 30
0.0
 40
2.50000000
  1
15
  7
Arial
 41
1.000
 50
0.0
 51
0.0
100
AcDbText
  0
LINE
  5
A46
100
AcDbEntity
  8
0
100
AcDbLine
 62
     4
 10
108.20899022
 20
218.29898873
 30
0.0
 11
110.20899022
 21
220.29898873
 31
0.0
  0
LINE
  5
A47
100
AcDbEntity
  8
0
100
AcDbLine
 62
     4
 10
94.95899022
 20
220.04898873
 30
0.0
 11
93.45899022
 21
218.54898873
 31
0.0
  0
LINE
  5
A48
100
AcDbEntity
  8
0
100
AcDbLine
 62
     4
 10
109.20899022
 20
219.29898873
 30
0.0
 11
94.20899022
 21
219.29898873
 31
0.0
  0
LINE
  5
A49
100
AcDbEntity
  8
0
100
AcDbLine
 62
     4
 10
109.20899022
 20
217.29898873
 30
0.0
 11
109.20899022
 21
221.29898873
 31
0.0
  0
LINE
  5
A4A
100
AcDbEntity
  8
0
100
AcDbLine
 62
     4
 10
94.20899022
 20
217.29898873
 30
0.0
 11
94.20899022
 21
221.29898873
 31
0.0
  0
TEXT
  5
A4B
100
AcDbEntity
  8
TXT_DIM49
100
AcDbText
 10
79.78915477
 20
220.79898873
 30
0.0
 40
2.50000000
  1
25
  7
Arial
 41
1.000
 50
0.0
 51
0.0
100
AcDbText
  0
LINE
  5
A4C
100
AcDbEntity
  8
0
100
AcDbLine
 62
     4
 10
93.20899022
 20
218.29898873
 30
0.0
 11
95.20899022
 21
220.29898873
 31
0.0
  0
LINE
  5
A4D
100
AcDbEntity
  8
0
100
AcDbLine
 62
     4
 10
69.95899022
 20
220.04898873
 30
0.0
 11
68.45899022
 21
218.54898873
 31
0.0
  0
LINE
  5
A4E
100
AcDbEntity
  8
0
100
AcDbLine
 62
     4
 10
94.20899022
 20
219.29898873
 30
0.0
 11
69.20899022
 21
219.29898873
 31
0.0
  0
LINE
  5
A4F
100
AcDbEntity
  8
0
100
AcDbLine
 62
     4
 10
94.20899022
 20
217.29898873
 30
0.0
 11
94.20899022
 21
221.29898873
 31
0.0
  0
LINE
  5
A50
100
AcDbEntity
  8
0
100
AcDbLine
 62
     4
 10
69.20899022
 20
217.29898873
 30
0.0
 11
69.20899022
 21
221.29898873
 31
0.0
  0
TEXT
  5
A51
100
AcDbEntity
  8
TXT_DIM49
100
AcDbText
 10
52.28915477
 20
220.79898873
 30
0.0
 40
2.50000000
  1
30
  7
Arial
 41
1.000
 50
0.0
 51
0.0
100
AcDbText
  0
LINE
  5
A52
100
AcDbEntity
  8
0
100
AcDbLine
 62
     4
 10
68.20899022
 20
218.29898873
 30
0.0
 11
70.20899022
 21
220.29898873
 31
0.0
  0
LINE
  5
A53
100
AcDbEntity
  8
0
100
AcDbLine
 62
     4
 10
39.95899022
 20
220.04898873
 30
0.0
 11
38.45899022
 21
218.54898873
 31
0.0
  0
LINE
  5
A54
100
AcDbEntity
  8
0
100
AcDbLine
 62
     4
 10
69.20899022
 20
219.29898873
 30
0.0
 11
39.20899022
 21
219.29898873
 31
0.0
  0
LINE
  5
A55
100
AcDbEntity
  8
0
100
AcDbLine
 62
     4
 10
69.20899022
 20
217.29898873
 30
0.0
 11
69.20899022
 21
221.29898873
 31
0.0
  0
LINE
  5
A56
100
AcDbEntity
  8
0
100
AcDbLine
 62
     4
 10
39.20899022
 20
217.29898873
 30
0.0
 11
39.20899022
 21
221.29898873
 31
0.0
  0
TEXT
  5
A57
100
AcDbEntity
  8
TXT_DIM49
100
AcDbText
 10
19.78892264
 20
220.79898873
 30
0.0
 40
2.50000000
  1
35
  7
Arial
 41
1.000
 50
0.0
 51
0.0
100
AcDbText
  0
LINE
  5
A58
100
AcDbEntity
  8
0
100
AcDbLine
 62
     4
 10
38.20899022
 20
218.29898873
 30
0.0
 11
40.20899022
 21
220.29898873
 31
0.0
  0
LINE
  5
A59
100
AcDbEntity
  8
0
100
AcDbLine
 62
     4
 10
4.95852596
 20
220.04898873
 30
0.0
 11
3.45852596
 21
218.54898873
 31
0.0
  0
LINE
  5
A5A
100
AcDbEntity
  8
0
100
AcDbLine
 62
     4
 10
39.20899022
 20
219.29898873
 30
0.0
 11
4.20852596
 21
219.29898873
 31
0.0
  0
LINE
  5
A5B
100
AcDbEntity
  8
0
100
AcDbLine
 62
     4
 10
39.20899022
 20
217.29898873
 30
0.0
 11
39.20899022
 21
221.29898873
 31
0.0
  0
LINE
  5
A5C
100
AcDbEntity
  8
0
100
AcDbLine
 62
     4
 10
4.20852596
 20
217.29898873
 30
0.0
 11
4.20852596
 21
221.29898873
 31
0.0
  0
TEXT
  5
A5D
100
AcDbEntity
  8
TXT_DIM49
100
AcDbText
 10
135.04042669
 20
204.42612507
 30
0.0
 40
2.50000000
  1
10
  7
Arial
 41
1.000
 50
90.000207410
 51
0.0
100
AcDbText
  0
LINE
  5
A5E
100
AcDbEntity
  8
0
100
AcDbLine
 62
     4
 10
137.54042669
 20
210.34596052
 30
0.0
 11
135.54042669
 21
212.34596052
 31
0.0
  0
LINE
  5
A5F
100
AcDbEntity
  8
0
100
AcDbLine
 62
     4
 10
135.79042669
 20
202.09596052
 30
0.0
 11
137.29042669
 21
200.59596052
 31
0.0
  0
LINE
  5
A60
100
AcDbEntity
  8
0
100
AcDbLine
 62
     4
 10
136.54042669
 20
211.34596052
 30
0.0
 11
136.54042669
 21
201.34596052
 31
0.0
  0
LINE
  5
A61
100
AcDbEntity
  8
0
100
AcDbLine
 62
     4
 10
134.54042669
 20
211.34596052
 30
0.0
 11
138.54042669
 21
211.34596052
 31
0.0
  0
LINE
  5
A62
100
AcDbEntity
  8
0
100
AcDbLine
 62
     4
 10
134.54042669
 20
201.34596052
 30
0.0
 11
138.54042669
 21
201.34596052
 31
0.0
  0
TEXT
  5
A63
100
AcDbEntity
  8
TXT_DIM49
100
AcDbText
 10
135.04042669
 20
197.88604280
 30
0.0
 40
2.50000000
  1
5
  7
Arial
 41
1.000
 50
90.000207410
 51
0.0
100
AcDbText
  0
LINE
  5
A64
100
AcDbEntity
  8
0
100
AcDbLine
 62
     4
 10
137.54042669
 20
200.34596052
 30
0.0
 11
135.54042669
 21
202.34596052
 31
0.0
  0
LINE
  5
A65
100
AcDbEntity
  8
0
100
AcDbLine
 62
     4
 10
135.79042669
 20
197.09596052
 30
0.0
 11
137.29042669
 21
195.59596052
 31
0.0
  0
LINE
  5
A66
100
AcDbEntity
  8
0
100
AcDbLine
 62
     4
 10
136.54042669
 20
201.34596052
 30
0.0
 11
136.54042669
 21
196.34596052
 31
0.0
  0
LINE
  5
A67
100
AcDbEntity
  8
0
100
AcDbLine
 62
     4
 10
134.54042669
 20
201.34596052
 30
0.0
 11
138.54042669
 21
201.34596052
 31
0.0
  0
LINE
  5
A68
100
AcDbEntity
  8
0
100
AcDbLine
 62
     4
 10
134.54042669
 20
196.34596052
 30
0.0
 11
138.54042669
 21
196.34596052
 31
0.0
  0
TEXT
  5
A69
100
AcDbEntity
  8
TXT_DIM49
100
AcDbText
 10
135.04042669
 20
191.38604280
 30
0.0
 40
2.50000000
  1
8
  7
Arial
 41
1.000
 50
90.000207410
 51
0.0
100
AcDbText
  0
LINE
  5
A6A
100
AcDbEntity
  8
0
100
AcDbLine
 62
     4
 10
137.54042669
 20
195.34596052
 30
0.0
 11
135.54042669
 21
197.34596052
 31
0.0
  0
LINE
  5
A6B
100
AcDbEntity
  8
0
100
AcDbLine
 62
     4
 10
135.79042669
 20
189.09596052
 30
0.0
 11
137.29042669
 21
187.59596052
 31
0.0
  0
LINE
  5
A6C
100
AcDbEntity
  8
0
100
AcDbLine
 62
     4
 10
136.54042669
 20
196.34596052
 30
0.0
 11
136.54042669
 21
188.34596052
 31
0.0
  0
LINE
  5
A6D
100
AcDbEntity
  8
0
100
AcDbLine
 62
     4
 10
134.54042669
 20
196.34596052
 30
0.0
 11
138.54042669
 21
196.34596052
 31
0.0
  0
LINE
  5
A6E
100
AcDbEntity
  8
0
100
AcDbLine
 62
     4
 10
134.54042669
 20
188.34596052
 30
0.0
 11
138.54042669
 21
188.34596052
 31
0.0
  0
TEXT
  5
A6F
100
AcDbEntity
  8
TXT_DIM49
100
AcDbText
 10
135.04042669
 20
183.38604280
 30
0.0
 40
2.50000000
  1
8
  7
Arial
 41
1.000
 50
90.000207410
 51
0.0
100
AcDbText
  0
LINE
  5
A70
100
AcDbEntity
  8
0
100
AcDbLine
 62
     4
 10
137.54042669
 20
187.34596052
 30
0.0
 11
135.54042669
 21
189.34596052
 31
0.0
  0
LINE
  5
A71
100
AcDbEntity
  8
0
100
AcDbLine
 62
     4
 10
135.79042669
 20
181.09596052
 30
0.0
 11
137.29042669
 21
179.59596052
 31
0.0
  0
LINE
  5
A72
100
AcDbEntity
  8
0
100
AcDbLine
 62
     4
 10
136.54042669
 20
188.34596052
 30
0.0
 11
136.54042669
 21
180.34596052
 31
0.0
  0
LINE
  5
A73
100
AcDbEntity
  8
0
100
AcDbLine
 62
     4
 10
134.54042669
 20
188.34596052
 30
0.0
 11
138.54042669
 21
188.34596052
 31
0.0
  0
LINE
  5
A74
100
AcDbEntity
  8
0
100
AcDbLine
 62
     4
 10
134.54042669
 20
180.34596052
 30
0.0
 11
138.54042669
 21
180.34596052
 31
0.0
  0
TEXT
  5
A75
100
AcDbEntity
  8
TXT_DIM49
100
AcDbText
 10
135.04042669
 20
176.88604280
 30
0.0
 40
2.50000000
  1
5
  7
Arial
 41
1.000
 50
90.000207410
 51
0.0
100
AcDbText
  0
LINE
  5
A76
100
AcDbEntity
  8
0
100
AcDbLine
 62
     4
 10
137.54042669
 20
179.34596052
 30
0.0
 11
135.54042669
 21
181.34596052
 31
0.0
  0
LINE
  5
A77
100
AcDbEntity
  8
0
100
AcDbLine
 62
     4
 10
135.79042669
 20
176.09596052
 30
0.0
 11
137.29042669
 21
174.59596052
 31
0.0
  0
LINE
  5
A78
100
AcDbEntity
  8
0
100
AcDbLine
 62
     4
 10
136.54042669
 20
180.34596052
 30
0.0
 11
136.54042669
 21
175.34596052
 31
0.0
  0
LINE
  5
A79
100
AcDbEntity
  8
0
100
AcDbLine
 62
     4
 10
134.54042669
 20
180.34596052
 30
0.0
 11
138.54042669
 21
180.34596052
 31
0.0
  0
LINE
  5
A7A
100
AcDbEntity
  8
0
100
AcDbLine
 62
     4
 10
134.54042669
 20
175.34596052
 30
0.0
 11
138.54042669
 21
175.34596052
 31
0.0
  0
TEXT
  5
A7B
100
AcDbEntity
  8
TXT_DIM49
100
AcDbText
 10
135.04042669
 20
168.42612507
 30
0.0
 40
2.50000000
  1
10
  7
Arial
 41
1.000
 50
90.000207410
 51
0.0
100
AcDbText
  0
LINE
  5
A7C
100
AcDbEntity
  8
0
100
AcDbLine
 62
     4
 10
137.54042669
 20
174.34596052
 30
0.0
 11
135.54042669
 21
176.34596052
 31
0.0
  0
LINE
  5
A7D
100
AcDbEntity
  8
0
100
AcDbLine
 62
     4
 10
135.79042669
 20
166.09596052
 30
0.0
 11
137.29042669
 21
164.59596052
 31
0.0
  0
LINE
  5
A7E
100
AcDbEntity
  8
0
100
AcDbLine
 62
     4
 10
136.54042669
 20
175.34596052
 30
0.0
 11
136.54042669
 21
165.34596052
 31
0.0
  0
LINE
  5
A7F
100
AcDbEntity
  8
0
100
AcDbLine
 62
     4
 10
134.54042669
 20
175.34596052
 30
0.0
 11
138.54042669
 21
175.34596052
 31
0.0
  0
LINE
  5
A80
100
AcDbEntity
  8
0
100
AcDbLine
 62
     4
 10
134.54042669
 20
165.34596052
 30
0.0
 11
138.54042669
 21
165.34596052
 31
0.0
  0
TEXT
  5
A81
100
AcDbEntity
  8
TXT_DIM49
100
AcDbText
 10
47.70899022
 20
174.54957642
 30
0.0
 40
2.50000000
  1
7,5
  7
Arial
 41
1.000
 50
90.000207410
 51
0.0
100
AcDbText
  0
LINE
  5
A82
100
AcDbEntity
  8
0
100
AcDbLine
 62
     4
 10
50.20899022
 20
164.34596052
 30
0.0
 11
48.20899022
 21
166.34596052
 31
0.0
  0
LINE
  5
A83
100
AcDbEntity
  8
0
100
AcDbLine
 62
     4
 10
48.45899022
 20
173.59596052
 30
0.0
 11
49.95899022
 21
172.09596052
 31
0.0
  0
LINE
  5
A84
100
AcDbEntity
  8
0
100
AcDbLine
 62
     4
 10
49.20899022
 20
159.34596052
 30
0.0
 11
49.20899022
 21
180.34832277
 31
0.0
  0
LINE
  5
A85
100
AcDbEntity
  8
0
100
AcDbLine
 62
     4
 10
51.20899022
 20
165.34596052
 30
0.0
 11
47.20899022
 21
165.34596052
 31
0.0
  0
LINE
  5
A86
100
AcDbEntity
  8
0
100
AcDbLine
 62
     4
 10
47.20899022
 20
172.84596052
 30
0.0
 11
51.20899022
 21
172.84596052
 31
0.0
  0
TEXT
  5
A87
100
AcDbEntity
  8
TXT_DIM49
100
AcDbText
 10
47.70899022
 20
196.58558883
 30
0.0
 40
2.50000000
  1
7,5
  7
Arial
 41
1.000
 50
90.000207410
 51
0.0
100
AcDbText
  0
LINE
  5
A88
100
AcDbEntity
  8
0
100
AcDbLine
 62
     4
 10
48.20899022
 20
212.34596052
 30
0.0
 11
50.20899022
 21
210.34596052
 31
0.0
  0
LINE
  5
A89
100
AcDbEntity
  8
0
100
AcDbLine
 62
     4
 10
49.95899022
 20
203.09596052
 30
0.0
 11
48.45899022
 21
204.59596052
 31
0.0
  0
LINE
  5
A8A
100
AcDbEntity
  8
0
100
AcDbLine
 62
     4
 10
49.20899022
 20
217.34596052
 30
0.0
 11
49.20899022
 21
195.58558931
 31
0.0
  0
LINE
  5
A8B
100
AcDbEntity
  8
0
100
AcDbLine
 62
     4
 10
51.20899022
 20
211.34596052
 30
0.0
 11
47.20899022
 21
211.34596052
 31
0.0
  0
LINE
  5
A8C
100
AcDbEntity
  8
0
100
AcDbLine
 62
     4
 10
47.20899022
 20
203.84596052
 30
0.0
 11
51.20899022
 21
203.84596052
 31
0.0
  0
TEXT
  5
A8D
100
AcDbEntity
  8
TXT_DIM49
100
AcDbText
 10
142.52307474
 20
186.42612507
 30
0.0
 40
2.50000000
  1
46
  7
Arial
 41
1.000
 50
90.000207410
 51
0.0
100
AcDbText
  0
LINE
  5
A8E
100
AcDbEntity
  8
0
100
AcDbLine
 62
     4
 10
145.02307474
 20
210.34596052
 30
0.0
 11
143.02307474
 21
212.34596052
 31
0.0
  0
LINE
  5
A8F
100
AcDbEntity
  8
0
100
AcDbLine
 62
     4
 10
143.27307474
 20
166.09596052
 30
0.0
 11
144.77307474
 21
164.59596052
 31
0.0
  0
LINE
  5
A90
100
AcDbEntity
  8
0
100
AcDbLine
 62
     4
 10
144.02307474
 20
211.34596052
 30
0.0
 11
144.02307474
 21
165.34596052
 31
0.0
  0
LINE
  5
A91
100
AcDbEntity
  8
0
100
AcDbLine
 62
     4
 10
142.02307474
 20
211.34596052
 30
0.0
 11
146.02307474
 21
211.34596052
 31
0.0
  0
LINE
  5
A92
100
AcDbEntity
  8
0
100
AcDbLine
 62
     4
 10
142.02307474
 20
165.34596052
 30
0.0
 11
146.02307474
 21
165.34596052
 31
0.0
  0
TEXT
  5
A93
100
AcDbEntity
  8
TXT_DIM49
100
AcDbText
 10
99.40458548
 20
184.58358850
 30
0.0
 40
2.50000000
  1
Ø
  7
Arial
 41
1.000
 50
90.000207410
 51
0.0
100
AcDbText
  0
TEXT
  5
A94
100
AcDbEntity
  8
TXT_DIM49
100
AcDbText
 10
99.40458548
 20
188.26866140
 30
0.0
 40
2.50000000
  1
11
  7
Arial
 41
1.000
 50
90.000207410
 51
0.0
100
AcDbText
  0
LINE
  5
A95
100
AcDbEntity
  8
0
100
AcDbLine
 62
     4
 10
99.90458548
 20
183.84596052
 30
0.0
 11
101.90458548
 21
181.84596052
 31
0.0
  0
LINE
  5
A96
100
AcDbEntity
  8
0
100
AcDbLine
 62
     4
 10
101.65458548
 20
193.09596052
 30
0.0
 11
100.15458548
 21
194.59596052
 31
0.0
  0
LINE
  5
A97
100
AcDbEntity
  8
0
100
AcDbLine
 62
     4
 10
100.90458548
 20
182.84596052
 30
0.0
 11
100.90458548
 21
193.84596052
 31
0.0
  0
LINE
  5
A98
100
AcDbEntity
  8
0
100
AcDbLine
 62
     4
 10
102.90458548
 20
182.84596052
 30
0.0
 11
98.90458548
 21
182.84596052
 31
0.0
  0
LINE
  5
A99
100
AcDbEntity
  8
0
100
AcDbLine
 62
     4
 10
102.90458548
 20
193.84596052
 30
0.0
 11
98.90458548
 21
193.84596052
 31
0.0
  0
TEXT
  5
A9A
100
AcDbEntity
  8
TXT_DIM49
100
AcDbText
 10
86.94057140
 20
177.54350629
 30
0.0
 40
2.50000000
  1
Ø
  7
Arial
 41
1.000
 50
90.000207410
 51
0.0
100
AcDbText
  0
TEXT
  5
A9B
100
AcDbEntity
  8
TXT_DIM49
100
AcDbText
 10
86.94057140
 20
181.22857919
 30
0.0
 40
2.50000000
  1
4
  7
Arial
 41
1.000
 50
90.000207410
 51
0.0
100
AcDbText
  0
LINE
  5
A9C
100
AcDbEntity
  8
0
100
AcDbLine
 62
     4
 10
87.44057140
 20
179.34596052
 30
0.0
 11
89.44057140
 21
177.34596052
 31
0.0
  0
LINE
  5
A9D
100
AcDbEntity
  8
0
100
AcDbLine
 62
     4
 10
89.19057140
 20
181.59596052
 30
0.0
 11
87.69057140
 21
183.09596052
 31
0.0
  0
LINE
  5
A9E
100
AcDbEntity
  8
0
100
AcDbLine
 62
     4
 10
88.44057140
 20
178.34596052
 30
0.0
 11
88.44057140
 21
182.34596052
 31
0.0
  0
LINE
  5
A9F
100
AcDbEntity
  8
0
100
AcDbLine
 62
     4
 10
90.44057140
 20
178.34596052
 30
0.0
 11
86.44057140
 21
178.34596052
 31
0.0
  0
LINE
  5
AA0
100
AcDbEntity
  8
0
100
AcDbLine
 62
     4
 10
90.44057140
 20
182.34596052
 30
0.0
 11
86.44057140
 21
182.34596052
 31
0.0
  0
TEXT
  5
AA1
100
AcDbEntity
  8
TXT_DIM49
100
AcDbText
 10
107.85112268
 20
198.54350629
 30
0.0
 40
2.50000000
  1
Ø
  7
Arial
 41
1.000
 50
90.000207410
 51
0.0
100
AcDbText
  0
TEXT
  5
AA2
100
AcDbEntity
  8
TXT_DIM49
100
AcDbText
 10
107.85112268
 20
202.22857919
 30
0.0
 40
2.50000000
  1
6
  7
Arial
 41
1.000
 50
90.000207410
 51
0.0
100
AcDbText
  0
LINE
  5
AA3
100
AcDbEntity
  8
0
100
AcDbLine
 62
     4
 10
108.35112268
 20
199.34596052
 30
0.0
 11
110.35112268
 21
197.34596052
 31
0.0
  0
LINE
  5
AA4
100
AcDbEntity
  8
0
100
AcDbLine
 62
     4
 10
110.10112268
 20
203.59596052
 30
0.0
 11
108.60112268
 21
205.09596052
 31
0.0
  0
LINE
  5
AA5
100
AcDbEntity
  8
0
100
AcDbLine
 62
     4
 10
109.35112268
 20
198.34596052
 30
0.0
 11
109.35112268
 21
204.34596052
 31
0.0
  0
LINE
  5
AA6
100
AcDbEntity
  8
0
100
AcDbLine
 62
     4
 10
111.35112268
 20
198.34596052
 30
0.0
 11
107.35112268
 21
198.34596052
 31
0.0
  0
LINE
  5
AA7
100
AcDbEntity
  8
0
100
AcDbLine
 62
     4
 10
111.35112268
 20
204.34596052
 30
0.0
 11
107.35112268
 21
204.34596052
 31
0.0
  0
TEXT
  5
AA8
100
AcDbEntity
  8
TXT_DIM49
100
AcDbText
 10
173.12151685
 20
135.68106348
 30
0.0
 40
2.50000000
  1
23
  7
Arial
 41
1.000
 50
0.0
 51
0.0
100
AcDbText
  0
LINE
  5
AA9
100
AcDbEntity
  8
0
100
AcDbLine
 62
     4
 10
164.54135230
 20
135.18106348
 30
0.0
 11
162.54135230
 21
133.18106348
 31
0.0
  0
LINE
  5
AAA
100
AcDbEntity
  8
0
100
AcDbLine
 62
     4
 10
185.79135230
 20
133.43106348
 30
0.0
 11
187.29135230
 21
134.93106348
 31
0.0
  0
LINE
  5
AAB
100
AcDbEntity
  8
0
100
AcDbLine
 62
     4
 10
163.54135230
 20
134.18106348
 30
0.0
 11
186.54135230
 21
134.18106348
 31
0.0
  0
LINE
  5
AAC
100
AcDbEntity
  8
0
100
AcDbLine
 62
     4
 10
163.54135230
 20
132.18106348
 30
0.0
 11
163.54135230
 21
136.18106348
 31
0.0
  0
LINE
  5
AAD
100
AcDbEntity
  8
0
100
AcDbLine
 62
     4
 10
186.54135230
 20
132.18106348
 30
0.0
 11
186.54135230
 21
136.18106348
 31
0.0
  0
TEXT
  5
AAE
100
AcDbEntity
  8
TXT_DIM49
100
AcDbText
 10
196.12151685
 20
135.68106348
 30
0.0
 40
2.50000000
  1
23
  7
Arial
 41
1.000
 50
0.0
 51
0.0
100
AcDbText
  0
LINE
  5
AAF
100
AcDbEntity
  8
0
100
AcDbLine
 62
     4
 10
187.54135230
 20
135.18106348
 30
0.0
 11
185.54135230
 21
133.18106348
 31
0.0
  0
LINE
  5
AB0
100
AcDbEntity
  8
0
100
AcDbLine
 62
     4
 10
208.79135230
 20
133.43106348
 30
0.0
 11
210.29135230
 21
134.93106348
 31
0.0
  0
LINE
  5
AB1
100
AcDbEntity
  8
0
100
AcDbLine
 62
     4
 10
186.54135230
 20
134.18106348
 30
0.0
 11
209.54135230
 21
134.18106348
 31
0.0
  0
LINE
  5
AB2
100
AcDbEntity
  8
0
100
AcDbLine
 62
     4
 10
186.54135230
 20
132.18106348
 30
0.0
 11
186.54135230
 21
136.18106348
 31
0.0
  0
LINE
  5
AB3
100
AcDbEntity
  8
0
100
AcDbLine
 62
     4
 10
209.54135230
 20
132.18106348
 30
0.0
 11
209.54135230
 21
136.18106348
 31
0.0
  0
TEXT
  5
AB4
100
AcDbEntity
  8
TXT_DIM49
100
AcDbText
 10
170.73889806
 20
104.34586408
 30
0.0
 40
2.50000000
  1
Ø
  7
Arial
 41
1.000
 50
0.0
 51
0.0
100
AcDbText
  0
TEXT
  5
AB5
100
AcDbEntity
  8
TXT_DIM49
100
AcDbText
 10
174.42397096
 20
104.34586408
 30
0.0
 40
2.50000000
  1
6
  7
Arial
 41
1.000
 50
0.0
 51
0.0
100
AcDbText
  0
LINE
  5
AB6
100
AcDbEntity
  8
0
100
AcDbLine
 62
     4
 10
175.54135230
 20
101.84586408
 30
0.0
 11
177.54135230
 21
103.84586408
 31
0.0
  0
LINE
  5
AB7
100
AcDbEntity
  8
0
100
AcDbLine
 62
     4
 10
171.29135230
 20
103.59586408
 30
0.0
 11
169.79135230
 21
102.09586408
 31
0.0
  0
LINE
  5
AB8
100
AcDbEntity
  8
0
100
AcDbLine
 62
     4
 10
176.54135230
 20
102.84586408
 30
0.0
 11
170.54135230
 21
102.84586408
 31
0.0
  0
LINE
  5
AB9
100
AcDbEntity
  8
0
100
AcDbLine
 62
     4
 10
176.54135230
 20
104.84586408
 30
0.0
 11
176.54135230
 21
100.84586408
 31
0.0
  0
LINE
  5
ABA
100
AcDbEntity
  8
0
100
AcDbLine
 62
     4
 10
170.54135230
 20
104.84586408
 30
0.0
 11
170.54135230
 21
100.84586408
 31
0.0
  0
TEXT
  5
ABB
100
AcDbEntity
  8
TXT_DIM49
100
AcDbText
 10
175.73889806
 20
79.53473997
 30
0.0
 40
2.50000000
  1
Ø
  7
Arial
 41
1.000
 50
0.0
 51
0.0
100
AcDbText
  0
TEXT
  5
ABC
100
AcDbEntity
  8
TXT_DIM49
100
AcDbText
 10
179.42397096
 20
79.53473997
 30
0.0
 40
2.50000000
  1
4
  7
Arial
 41
1.000
 50
0.0
 51
0.0
100
AcDbText
  0
LINE
  5
ABD
100
AcDbEntity
  8
0
100
AcDbLine
 62
     4
 10
179.54135230
 20
77.03473997
 30
0.0
 11
181.54135230
 21
79.03473997
 31
0.0
  0
LINE
  5
ABE
100
AcDbEntity
  8
0
100
AcDbLine
 62
     4
 10
177.29135230
 20
78.78473997
 30
0.0
 11
175.79135230
 21
77.28473997
 31
0.0
  0
LINE
  5
ABF
100
AcDbEntity
  8
0
100
AcDbLine
 62
     4
 10
180.54135230
 20
78.03473997
 30
0.0
 11
176.54135230
 21
78.03473997
 31
0.0
  0
LINE
  5
AC0
100
AcDbEntity
  8
0
100
AcDbLine
 62
     4
 10
180.54135230
 20
80.03473997
 30
0.0
 11
180.54135230
 21
76.03473997
 31
0.0
  0
LINE
  5
AC1
100
AcDbEntity
  8
0
100
AcDbLine
 62
     4
 10
176.54135230
 20
80.03473997
 30
0.0
 11
176.54135230
 21
76.03473997
 31
0.0
  0
TEXT
  5
AC2
100
AcDbEntity
  8
TXT_DIM49
100
AcDbText
 10
184.62151685
 20
143.37602203
 30
0.0
 40
2.50000000
  1
46
  7
Arial
 41
1.000
 50
0.0
 51
0.0
100
AcDbText
  0
LINE
  5
AC3
100
AcDbEntity
  8
0
100
AcDbLine
 62
     4
 10
164.54135230
 20
142.87602203
 30
0.0
 11
162.54135230
 21
140.87602203
 31
0.0
  0
LINE
  5
AC4
100
AcDbEntity
  8
0
100
AcDbLine
 62
     4
 10
208.79135230
 20
141.12602203
 30
0.0
 11
210.29135230
 21
142.62602203
 31
0.0
  0
LINE
  5
AC5
100
AcDbEntity
  8
0
100
AcDbLine
 62
     4
 10
163.54135230
 20
141.87602203
 30
0.0
 11
209.54135230
 21
141.87602203
 31
0.0
  0
LINE
  5
AC6
100
AcDbEntity
  8
0
100
AcDbLine
 62
     4
 10
163.54135230
 20
139.87602203
 30
0.0
 11
163.54135230
 21
143.87602203
 31
0.0
  0
LINE
  5
AC7
100
AcDbEntity
  8
0
100
AcDbLine
 62
     4
 10
209.54135230
 20
139.87602203
 30
0.0
 11
209.54135230
 21
143.87602203
 31
0.0
  0
TEXT
  5
AC8
100
AcDbEntity
  8
TXT_DIM49
100
AcDbText
 10
175.31364300
 20
44.34586408
 30
0.0
 40
2.50000000
  1
7,5
  7
Arial
 41
1.000
 50
0.0
 51
0.0
100
AcDbText
  0
LINE
  5
AC9
100
AcDbEntity
  8
0
100
AcDbLine
 62
     4
 10
162.54135230
 20
41.84586408
 30
0.0
 11
164.54135230
 21
43.84586408
 31
0.0
  0
LINE
  5
ACA
100
AcDbEntity
  8
0
100
AcDbLine
 62
     4
 10
171.79135230
 20
43.59586408
 30
0.0
 11
170.29135230
 21
42.09586408
 31
0.0
  0
LINE
  5
ACB
100
AcDbEntity
  8
0
100
AcDbLine
 62
     4
 10
157.54135230
 20
42.84586408
 30
0.0
 11
181.11238959
 21
42.84586408
 31
0.0
  0
LINE
  5
ACC
100
AcDbEntity
  8
0
100
AcDbLine
 62
     4
 10
163.54135230
 20
44.84586408
 30
0.0
 11
163.54135230
 21
40.84586408
 31
0.0
  0
LINE
  5
ACD
100
AcDbEntity
  8
0
100
AcDbLine
 62
     4
 10
171.04135230
 20
40.84586408
 30
0.0
 11
171.04135230
 21
44.84586408
 31
0.0
  0
TEXT
  5
ACE
100
AcDbEntity
  8
TXT_DIM49
100
AcDbText
 10
195.97748723
 20
44.34586408
 30
0.0
 40
2.50000000
  1
7,5
  7
Arial
 41
1.000
 50
0.0
 51
0.0
100
AcDbText
  0
LINE
  5
ACF
100
AcDbEntity
  8
0
100
AcDbLine
 62
     4
 10
210.54135230
 20
43.84586408
 30
0.0
 11
208.54135230
 21
41.84586408
 31
0.0
  0
LINE
  5
AD0
100
AcDbEntity
  8
0
100
AcDbLine
 62
     4
 10
201.29135230
 20
42.09586408
 30
0.0
 11
202.79135230
 21
43.59586408
 31
0.0
  0
LINE
  5
AD1
100
AcDbEntity
  8
0
100
AcDbLine
 62
     4
 10
215.54135230
 20
42.84586408
 30
0.0
 11
194.97748759
 21
42.84586408
 31
0.0
  0
LINE
  5
AD2
100
AcDbEntity
  8
0
100
AcDbLine
 62
     4
 10
209.54135230
 20
44.84586408
 30
0.0
 11
209.54135230
 21
40.84586408
 31
0.0
  0
LINE
  5
AD3
100
AcDbEntity
  8
0
100
AcDbLine
 62
     4
 10
202.04135230
 20
40.84586408
 30
0.0
 11
202.04135230
 21
44.84586408
 31
0.0
  0
TEXT
  5
AD4
100
AcDbEntity
  8
TXT_DIM49
100
AcDbText
 10
184.62151685
 20
117.35027525
 30
0.0
 40
2.50000000
  1
10
  7
Arial
 41
1.000
 50
0.0
 51
0.0
100
AcDbText
  0
LINE
  5
AD5
100
AcDbEntity
  8
0
100
AcDbLine
 62
     4
 10
190.54135230
 20
114.85027525
 30
0.0
 11
192.54135230
 21
116.85027525
 31
0.0
  0
LINE
  5
AD6
100
AcDbEntity
  8
0
100
AcDbLine
 62
     4
 10
182.29135230
 20
116.60027525
 30
0.0
 11
180.79135230
 21
115.10027525
 31
0.0
  0
LINE
  5
AD7
100
AcDbEntity
  8
0
100
AcDbLine
 62
     4
 10
191.54135230
 20
115.85027525
 30
0.0
 11
181.54135230
 21
115.85027525
 31
0.0
  0
LINE
  5
AD8
100
AcDbEntity
  8
0
100
AcDbLine
 62
     4
 10
191.54135230
 20
113.85027525
 30
0.0
 11
191.54135230
 21
117.85027525
 31
0.0
  0
LINE
  5
AD9
100
AcDbEntity
  8
0
100
AcDbLine
 62
     4
 10
181.54135230
 20
113.85027525
 30
0.0
 11
181.54135230
 21
117.85027525
 31
0.0
  0
TEXT
  5
ADA
100
AcDbEntity
  8
TXT_DIM49
100
AcDbText
 10
155.04135230
 20
117.38594636
 30
0.0
 40
2.50000000
  1
9
  7
Arial
 41
1.000
 50
90.000207410
 51
0.0
100
AcDbText
  0
LINE
  5
ADB
100
AcDbEntity
  8
0
100
AcDbLine
 62
     4
 10
157.54135230
 20
121.84586408
 30
0.0
 11
155.54135230
 21
123.84586408
 31
0.0
  0
LINE
  5
ADC
100
AcDbEntity
  8
0
100
AcDbLine
 62
     4
 10
155.79135230
 20
114.59586408
 30
0.0
 11
157.29135230
 21
113.09586408
 31
0.0
  0
LINE
  5
ADD
100
AcDbEntity
  8
0
100
AcDbLine
 62
     4
 10
156.54135230
 20
122.84586408
 30
0.0
 11
156.54135230
 21
113.84586408
 31
0.0
  0
LINE
  5
ADE
100
AcDbEntity
  8
0
100
AcDbLine
 62
     4
 10
158.54135230
 20
122.84586408
 30
0.0
 11
154.54135230
 21
122.84586408
 31
0.0
  0
LINE
  5
ADF
100
AcDbEntity
  8
0
100
AcDbLine
 62
     4
 10
158.54135230
 20
113.84586408
 30
0.0
 11
154.54135230
 21
113.84586408
 31
0.0
  0
TEXT
  5
AE0
100
AcDbEntity
  8
TXT_DIM49
100
AcDbText
 10
155.04135230
 20
101.92602863
 30
0.0
 40
2.50000000
  1
20
  7
Arial
 41
1.000
 50
90.000207410
 51
0.0
100
AcDbText
  0
LINE
  5
AE1
100
AcDbEntity
  8
0
100
AcDbLine
 62
     4
 10
157.54135230
 20
112.84586408
 30
0.0
 11
155.54135230
 21
114.84586408
 31
0.0
  0
LINE
  5
AE2
100
AcDbEntity
  8
0
100
AcDbLine
 62
     4
 10
155.79135230
 20
94.59586408
 30
0.0
 11
157.29135230
 21
93.09586408
 31
0.0
  0
LINE
  5
AE3
100
AcDbEntity
  8
0
100
AcDbLine
 62
     4
 10
156.54135230
 20
113.84586408
 30
0.0
 11
156.54135230
 21
93.84586408
 31
0.0
  0
LINE
  5
AE4
100
AcDbEntity
  8
0
100
AcDbLine
 62
     4
 10
158.54135230
 20
113.84586408
 30
0.0
 11
154.54135230
 21
113.84586408
 31
0.0
  0
LINE
  5
AE5
100
AcDbEntity
  8
0
100
AcDbLine
 62
     4
 10
158.54135230
 20
93.84586408
 30
0.0
 11
154.54135230
 21
93.84586408
 31
0.0
  0
TEXT
  5
AE6
100
AcDbEntity
  8
TXT_DIM49
100
AcDbText
 10
215.04135230
 20
115.92602863
 30
0.0
 40
2.50000000
  1
10
  7
Arial
 41
1.000
 50
90.000207410
 51
0.0
100
AcDbText
  0
LINE
  5
AE7
100
AcDbEntity
  8
0
100
AcDbLine
 62
     4
 10
217.54135230
 20
121.84586408
 30
0.0
 11
215.54135230
 21
123.84586408
 31
0.0
  0
LINE
  5
AE8
100
AcDbEntity
  8
0
100
AcDbLine
 62
     4
 10
215.79135230
 20
113.59586408
 30
0.0
 11
217.29135230
 21
112.09586408
 31
0.0
  0
LINE
  5
AE9
100
AcDbEntity
  8
0
100
AcDbLine
 62
     4
 10
216.54135230
 20
122.84586408
 30
0.0
 11
216.54135230
 21
112.84586408
 31
0.0
  0
LINE
  5
AEA
100
AcDbEntity
  8
0
100
AcDbLine
 62
     4
 10
214.54135230
 20
122.84586408
 30
0.0
 11
218.54135230
 21
122.84586408
 31
0.0
  0
LINE
  5
AEB
100
AcDbEntity
  8
0
100
AcDbLine
 62
     4
 10
214.54135230
 20
112.84586408
 30
0.0
 11
218.54135230
 21
112.84586408
 31
0.0
  0
TEXT
  5
AEC
100
AcDbEntity
  8
TXT_DIM49
100
AcDbText
 10
215.04135230
 20
98.42602863
 30
0.0
 40
2.50000000
  1
25
  7
Arial
 41
1.000
 50
90.000207410
 51
0.0
100
AcDbText
  0
LINE
  5
AED
100
AcDbEntity
  8
0
100
AcDbLine
 62
     4
 10
217.54135230
 20
111.84586408
 30
0.0
 11
215.54135230
 21
113.84586408
 31
0.0
  0
LINE
  5
AEE
100
AcDbEntity
  8
0
100
AcDbLine
 62
     4
 10
215.79135230
 20
88.59586408
 30
0.0
 11
217.29135230
 21
87.09586408
 31
0.0
  0
LINE
  5
AEF
100
AcDbEntity
  8
0
100
AcDbLine
 62
     4
 10
216.54135230
 20
112.84586408
 30
0.0
 11
216.54135230
 21
87.84586408
 31
0.0
  0
LINE
  5
AF0
100
AcDbEntity
  8
0
100
AcDbLine
 62
     4
 10
214.54135230
 20
112.84586408
 30
0.0
 11
218.54135230
 21
112.84586408
 31
0.0
  0
LINE
  5
AF1
100
AcDbEntity
  8
0
100
AcDbLine
 62
     4
 10
214.54135230
 20
87.84586408
 30
0.0
 11
218.54135230
 21
87.84586408
 31
0.0
  0
TEXT
  5
AF2
100
AcDbEntity
  8
TXT_DIM49
100
AcDbText
 10
215.04135230
 20
73.42602863
 30
0.0
 40
2.50000000
  1
25
  7
Arial
 41
1.000
 50
90.000207410
 51
0.0
100
AcDbText
  0
LINE
  5
AF3
100
AcDbEntity
  8
0
100
AcDbLine
 62
     4
 10
217.54135230
 20
86.84586408
 30
0.0
 11
215.54135230
 21
88.84586408
 31
0.0
  0
LINE
  5
AF4
100
AcDbEntity
  8
0
100
AcDbLine
 62
     4
 10
215.79135230
 20
63.59586408
 30
0.0
 11
217.29135230
 21
62.09586408
 31
0.0
  0
LINE
  5
AF5
100
AcDbEntity
  8
0
100
AcDbLine
 62
     4
 10
216.54135230
 20
87.84586408
 30
0.0
 11
216.54135230
 21
62.84586408
 31
0.0
  0
LINE
  5
AF6
100
AcDbEntity
  8
0
100
AcDbLine
 62
     4
 10
214.54135230
 20
87.84586408
 30
0.0
 11
218.54135230
 21
87.84586408
 31
0.0
  0
LINE
  5
AF7
100
AcDbEntity
  8
0
100
AcDbLine
 62
     4
 10
214.54135230
 20
62.84586408
 30
0.0
 11
218.54135230
 21
62.84586408
 31
0.0
  0
TEXT
  5
AF8
100
AcDbEntity
  8
TXT_DIM49
100
AcDbText
 10
215.04135230
 20
45.92602863
 30
0.0
 40
2.50000000
  1
30
  7
Arial
 41
1.000
 50
90.000207410
 51
0.0
100
AcDbText
  0
LINE
  5
AF9
100
AcDbEntity
  8
0
100
AcDbLine
 62
     4
 10
217.54135230
 20
61.84586408
 30
0.0
 11
215.54135230
 21
63.84586408
 31
0.0
  0
LINE
  5
AFA
100
AcDbEntity
  8
0
100
AcDbLine
 62
     4
 10
215.79135230
 20
33.59586408
 30
0.0
 11
217.29135230
 21
32.09586408
 31
0.0
  0
LINE
  5
AFB
100
AcDbEntity
  8
0
100
AcDbLine
 62
     4
 10
216.54135230
 20
62.84586408
 30
0.0
 11
216.54135230
 21
32.84586408
 31
0.0
  0
LINE
  5
AFC
100
AcDbEntity
  8
0
100
AcDbLine
 62
     4
 10
214.54135230
 20
62.84586408
 30
0.0
 11
218.54135230
 21
62.84586408
 31
0.0
  0
LINE
  5
AFD
100
AcDbEntity
  8
0
100
AcDbLine
 62
     4
 10
214.54135230
 20
32.84586408
 30
0.0
 11
218.54135230
 21
32.84586408
 31
0.0
  0
TEXT
  5
AFE
100
AcDbEntity
  8
TXT_DIM49
100
AcDbText
 10
215.04135230
 20
13.42579778
 30
0.0
 40
2.50000000
  1
35
  7
Arial
 41
1.000
 50
90.000207410
 51
0.0
100
AcDbText
  0
LINE
  5
AFF
100
AcDbEntity
  8
0
100
AcDbLine
 62
     4
 10
217.54135230
 20
31.84586408
 30
0.0
 11
215.54135230
 21
33.84586408
 31
0.0
  0
LINE
  5
B00
100
AcDbEntity
  8
0
100
AcDbLine
 62
     4
 10
215.79135230
 20
-1.40459762
 30
0.0
 11
217.29135230
 21
-2.90459762
 31
0.0
  0
LINE
  5
B01
100
AcDbEntity
  8
0
100
AcDbLine
 62
     4
 10
216.54135230
 20
32.84586408
 30
0.0
 11
216.54135230
 21
-2.15459762
 31
0.0
  0
LINE
  5
B02
100
AcDbEntity
  8
0
100
AcDbLine
 62
     4
 10
214.54135230
 20
32.84586408
 30
0.0
 11
218.54135230
 21
32.84586408
 31
0.0
  0
LINE
  5
B03
100
AcDbEntity
  8
0
100
AcDbLine
 62
     4
 10
214.54135230
 20
-2.15459762
 30
0.0
 11
218.54135230
 21
-2.15459762
 31
0.0
  0
TEXT
  5
B04
100
AcDbEntity
  8
TXT_DIM49
100
AcDbText
 10
166.62151685
 20
129.06428206
 30
0.0
 40
2.50000000
  1
10
  7
Arial
 41
1.000
 50
0.0
 51
0.0
100
AcDbText
  0
LINE
  5
B05
100
AcDbEntity
  8
0
100
AcDbLine
 62
     4
 10
164.54135230
 20
128.56428206
 30
0.0
 11
162.54135230
 21
126.56428206
 31
0.0
  0
LINE
  5
B06
100
AcDbEntity
  8
0
100
AcDbLine
 62
     4
 10
172.79135230
 20
126.81428206
 30
0.0
 11
174.29135230
 21
128.31428206
 31
0.0
  0
LINE
  5
B07
100
AcDbEntity
  8
0
100
AcDbLine
 62
     4
 10
163.54135230
 20
127.56428206
 30
0.0
 11
173.54135230
 21
127.56428206
 31
0.0
  0
LINE
  5
B08
100
AcDbEntity
  8
0
100
AcDbLine
 62
     4
 10
163.54135230
 20
125.56428206
 30
0.0
 11
163.54135230
 21
129.56428206
 31
0.0
  0
LINE
  5
B09
100
AcDbEntity
  8
0
100
AcDbLine
 62
     4
 10
173.54135230
 20
125.56428206
 30
0.0
 11
173.54135230
 21
129.56428206
 31
0.0
  0
TEXT
  5
B0A
100
AcDbEntity
  8
TXT_DIM49
100
AcDbText
 10
175.08143457
 20
129.06428206
 30
0.0
 40
2.50000000
  1
5
  7
Arial
 41
1.000
 50
0.0
 51
0.0
100
AcDbText
  0
LINE
  5
B0B
100
AcDbEntity
  8
0
100
AcDbLine
 62
     4
 10
174.54135230
 20
128.56428206
 30
0.0
 11
172.54135230
 21
126.56428206
 31
0.0
  0
LINE
  5
B0C
100
AcDbEntity
  8
0
100
AcDbLine
 62
     4
 10
177.79135230
 20
126.81428206
 30
0.0
 11
179.29135230
 21
128.31428206
 31
0.0
  0
LINE
  5
B0D
100
AcDbEntity
  8
0
100
AcDbLine
 62
     4
 10
173.54135230
 20
127.56428206
 30
0.0
 11
178.54135230
 21
127.56428206
 31
0.0
  0
LINE
  5
B0E
100
AcDbEntity
  8
0
100
AcDbLine
 62
     4
 10
173.54135230
 20
125.56428206
 30
0.0
 11
173.54135230
 21
129.56428206
 31
0.0
  0
LINE
  5
B0F
100
AcDbEntity
  8
0
100
AcDbLine
 62
     4
 10
178.54135230
 20
125.56428206
 30
0.0
 11
178.54135230
 21
129.56428206
 31
0.0
  0
TEXT
  5
B10
100
AcDbEntity
  8
TXT_DIM49
100
AcDbText
 10
184.62151685
 20
129.06428206
 30
0.0
 40
2.50000000
  1
16
  7
Arial
 41
1.000
 50
0.0
 51
0.0
100
AcDbText
  0
LINE
  5
B11
100
AcDbEntity
  8
0
100
AcDbLine
 62
     4
 10
179.54135230
 20
128.56428206
 30
0.0
 11
177.54135230
 21
126.56428206
 31
0.0
  0
LINE
  5
B12
100
AcDbEntity
  8
0
100
AcDbLine
 62
     4
 10
193.79135230
 20
126.81428206
 30
0.0
 11
195.29135230
 21
128.31428206
 31
0.0
  0
LINE
  5
B13
100
AcDbEntity
  8
0
100
AcDbLine
 62
     4
 10
178.54135230
 20
127.56428206
 30
0.0
 11
194.54135230
 21
127.56428206
 31
0.0
  0
LINE
  5
B14
100
AcDbEntity
  8
0
100
AcDbLine
 62
     4
 10
178.54135230
 20
125.56428206
 30
0.0
 11
178.54135230
 21
129.56428206
 31
0.0
  0
LINE
  5
B15
100
AcDbEntity
  8
0
100
AcDbLine
 62
     4
 10
194.54135230
 20
125.56428206
 30
0.0
 11
194.54135230
 21
129.56428206
 31
0.0
  0
TEXT
  5
B16
100
AcDbEntity
  8
TXT_DIM49
100
AcDbText
 10
196.08143457
 20
129.06428206
 30
0.0
 40
2.50000000
  1
5
  7
Arial
 41
1.000
 50
0.0
 51
0.0
100
AcDbText
  0
LINE
  5
B17
100
AcDbEntity
  8
0
100
AcDbLine
 62
     4
 10
195.54135230
 20
128.56428206
 30
0.0
 11
193.54135230
 21
126.56428206
 31
0.0
  0
LINE
  5
B18
100
AcDbEntity
  8
0
100
AcDbLine
 62
     4
 10
198.79135230
 20
126.81428206
 30
0.0
 11
200.29135230
 21
128.31428206
 31
0.0
  0
LINE
  5
B19
100
AcDbEntity
  8
0
100
AcDbLine
 62
     4
 10
194.54135230
 20
127.56428206
 30
0.0
 11
199.54135230
 21
127.56428206
 31
0.0
  0
LINE
  5
B1A
100
AcDbEntity
  8
0
100
AcDbLine
 62
     4
 10
194.54135230
 20
125.56428206
 30
0.0
 11
194.54135230
 21
129.56428206
 31
0.0
  0
LINE
  5
B1B
100
AcDbEntity
  8
0
100
AcDbLine
 62
     4
 10
199.54135230
 20
125.56428206
 30
0.0
 11
199.54135230
 21
129.56428206
 31
0.0
  0
TEXT
  5
B1C
100
AcDbEntity
  8
TXT_DIM49
100
AcDbText
 10
202.62151685
 20
129.06428206
 30
0.0
 40
2.50000000
  1
10
  7
Arial
 41
1.000
 50
0.0
 51
0.0
100
AcDbText
  0
LINE
  5
B1D
100
AcDbEntity
  8
0
100
AcDbLine
 62
     4
 10
200.54135230
 20
128.56428206
 30
0.0
 11
198.54135230
 21
126.56428206
 31
0.0
  0
LINE
  5
B1E
100
AcDbEntity
  8
0
100
AcDbLine
 62
     4
 10
208.79135230
 20
126.81428206
 30
0.0
 11
210.29135230
 21
128.31428206
 31
0.0
  0
LINE
  5
B1F
100
AcDbEntity
  8
0
100
AcDbLine
 62
     4
 10
199.54135230
 20
127.56428206
 30
0.0
 11
209.54135230
 21
127.56428206
 31
0.0
  0
LINE
  5
B20
100
AcDbEntity
  8
0
100
AcDbLine
 62
     4
 10
199.54135230
 20
125.56428206
 30
0.0
 11
199.54135230
 21
129.56428206
 31
0.0
  0
LINE
  5
B21
100
AcDbEntity
  8
0
100
AcDbLine
 62
     4
 10
209.54135230
 20
125.56428206
 30
0.0
 11
209.54135230
 21
129.56428206
 31
0.0
  0
ENDSEC
  0
SECTION
  2
OBJECTS
  0
DICTIONARY
  5
C
330
0
100
AcDbDictionary
281
     1
  3
ACAD_GROUP
350
D
  3
ACAD_LAYOUT
350
19
  3
ACAD_MLINESTYLE
350
16
  0
DICTIONARY
  5
115
330
1E
100
AcDbDictionary
280
     1
281
     1
  3
ACAD_INDEX
360
116
  0
DICTIONARY
  5
D
100
AcDbDictionary
281
     1
  0
DICTIONARY
  5
19
100
AcDbDictionary
281
     1
  3
Layout1
350
1D
  3
Model
350
21
  0
DICTIONARY
  5
16
100
AcDbDictionary
281
     1
  3
Standard
350
17
  0
DICTIONARY
  5
116
100
AcDbDictionary
281
     1
  3
*A1
350
117
  0
LAYOUT
  5
1D
100
AcDbPlotSettings
  1

  2
C:\Programme\MDT\plotters\DWF Classic.pc3
  4

  6

 40
0.0
 41
0.0
 42
0.0
 43
0.0
 44
0.0
 45
0.0
 46
0.0
 47
0.0
 48
0.0
 49
0.0
140
0.0
141
0.0
142
1.0
143
1.0
 70
   688
 72
     0
 73
     0
 74
     5
  7

 75
    16
147
1.0
148
0.0
149
0.0
100
AcDbLayout
  1
Layout1
 70
     1
 71
     1
 10
0.0
 20
0.0
 11
12.0
 21
9.0
 12
0.0
 22
0.0
 32
0.0
 14
1.000000000000000E+20
 24
1.000000000000000E+20
 34
1.000000000000000E+20
 15
-1.000000000000000E+20
 25
-1.000000000000000E+20
 35
-1.000000000000000E+20
146
0.0
 13
0.0
 23
0.0
 33
0.0
 16
1.0
 26
0.0
 36
0.0
 17
0.0
 27
1.0
 37
0.0
 76
     0
330
1A
  0
LAYOUT
  5
21
100
AcDbPlotSettings
  1

  2
C:\Programme\MDT\plotters\DWF Classic.pc3
  4

  6

 40
0.0
 41
0.0
 42
0.0
 43
0.0
 44
0.0
 45
0.0
 46
0.0
 47
0.0
 48
0.0
 49
0.0
140
0.0
141
0.0
142
1.0
143
1.0
 70
  1712
 72
     0
 73
     0
 74
     0
  7

 75
     0
147
1.0
148
0.0
149
0.0
100
AcDbLayout
  1
Model
 70
     1
 71
     0
 10
0.0
 20
0.0
 11
12.0
 21
9.0
 12
0.0
 22
0.0
 32
0.0
 14
0.0
 24
0.0
 34
0.0
 15
0.0
 25
0.0
 35
0.0
146
0.0
 13
0.0
 23
0.0
 33
0.0
 16
1.0
 26
0.0
 36
0.0
 17
0.0
 27
1.0
 37
0.0
 76
     0
330
1E
  0
MLINESTYLE
  5
17
100
AcDbMlineStyle
  2
STANDARD
 70
     0
  3

 62
   256
 51
90.0
 52
90.0
 71
     2
 49
0.5
 62
   256
  6
BYLAYER
 49
-0.5
 62
   256
  6
BYLAYER
  0
ACDBPLACEHOLDER
  5
F
  0
XRECORD
  5
129
100
AcDbXrecord
280
     1
 90
        0
  0
XRECORD
  5
12A
100
AcDbXrecord
280
     1
  1
{46C4153B-0B27-49FA-99B6-AF3E057D65BC}
  0
XRECORD
  5
122
100
AcDbXrecord
280
     1
  1

  0
XRECORD
  5
128
100
AcDbXrecord
280
     1
 90
        0
  0
XRECORD
  5
124
100
AcDbXrecord
280
     1
340
19
  0
XRECORD
  5
127
100
AcDbXrecord
280
     1
 90
    10781
  0
XRECORD
  5
125
100
AcDbXrecord
280
     1
340
18
  0
XRECORD
  5
126
100
AcDbXrecord
280
     1
340
E
  0
XRECORD
  5
12C
100
AcDbXrecord
280
     1
 40
0.0
  0
XRECORD
  5
12F
100
AcDbXrecord
280
     1
340
0
  0
XRECORD
  5
135
100
AcDbXrecord
280
     1
 10
0.0
 20
0.0
 30
0.0
  0
XRECORD
  5
131
100
AcDbXrecord
280
     1
 10
0.0
 20
0.0
 30
0.0
  0
XRECORD
  5
134
100
AcDbXrecord
280
     1
 10
0.0
 20
0.0
 30
0.0
  0
XRECORD
  5
132
100
AcDbXrecord
280
     1
 10
0.0
 20
0.0
 30
0.0
  0
XRECORD
  5
133
100
AcDbXrecord
280
     1
 10
0.0
 20
0.0
 30
0.0
  0
XRECORD
  5
130
100
AcDbXrecord
280
     1
 10
0.0
 20
0.0
 30
0.0
  0
XRECORD
  5
12D
100
AcDbXrecord
280
     1
340
0
  0
XRECORD
  5
12E
100
AcDbXrecord
280
     1
 70
     0
  0
XRECORD
  5
123
100
AcDbXrecord
280
     1
  1

  0
XRECORD
  5
120
100
AcDbXrecord
280
     1
 90
        1
  0
XRECORD
  5
121
100
AcDbXrecord
280
     1
 90
       70
  0
XRECORD
  5
138
100
AcDbXrecord
280
     1
340
0
  0
XRECORD
  5
13E
100
AcDbXrecord
280
     1
 10
0.0
 20
0.0
 30
0.0
  0
XRECORD
  5
13A
100
AcDbXrecord
280
     1
 10
0.0
 20
0.0
 30
0.0
  0
XRECORD
  5
13D
100
AcDbXrecord
280
     1
 10
0.0
 20
0.0
 30
0.0
  0
XRECORD
  5
13B
100
AcDbXrecord
280
     1
 10
0.0
 20
0.0
 30
0.0
  0
XRECORD
  5
13C
100
AcDbXrecord
280
     1
 10
0.0
 20
0.0
 30
0.0
  0
XRECORD
  5
139
100
AcDbXrecord
280
     1
 10
0.0
 20
0.0
 30
0.0
  0
XRECORD
  5
136
100
AcDbXrecord
280
     1
340
0
  0
XRECORD
  5
137
100
AcDbXrecord
280
     1
 70
     0
  0
XRECORD
  5
12B
100
AcDbXrecord
280
     1
  1
{09700D79-BD6A-4B2C-8A65-8ED4ED61BA28}
  0
DICTIONARYVAR
  5
11D
100
DictionaryVariables
280
     0
  1
1
  0
ENDSEC
  0
EOF
