  0
SECTION
  2
HEADER
  9
$ACADVER
  1
AC1006
  9
$DWGCODEPAGE
  3
ansi_1252
  9
$INSBASE
 10
0.0
 20
0.0
 30
0.0
  9
$EXTMIN
 10
130.55875388
 20
-338.81656322
  9
$EXTMAX
 10
558.95875388
 20
-25.12735697
  9
$LIMMIN
 10
130.55875388
 20
-338.81656322
  9
$LIMMAX
 10
558.95875388
 20
-25.12735697
  9
$ORTHOMODE
 70
     0
  9
$REGENMODE
 70
     1
  9
$FILLMODE
 70
     1
  9
$QTEXTMODE
 70
     0
  9
$MIRRTEXT
 70
     1
  9
$DRAGMODE
 70
     2
  9
$LTSCALE
 40
1.0
  9
$OSMODE
 70
    37
  9
$ATTMODE
 70
     1
  9
$TEXTSIZE
 40
1.0
  9
$TRACEWID
 40
0.05
  9
$TEXTSTYLE
  7
STANDARD
  9
$CLAYER
  8
0
  9
$CELTYPE
  6
BYBLOCK
  9
$CECOLOR
 62
   256
  9
$DIMSCALE
 40
1.0
  9
$DIMASZ
 40
0.18
  9
$DIMEXO
 40
0.0625
  9
$DIMDLI
 40
0.38
  9
$DIMRND
 40
0.0
  9
$DIMDLE
 40
0.0
  9
$DIMEXE
 40
0.18
  9
$DIMTP
 40
0.0
  9
$DIMTM
 40
0.0
  9
$DIMTXT
 40
0.18
  9
$DIMCEN
 40
0.09
  9
$DIMTSZ
 40
0.0
  9
$DIMTOL
 70
     0
  9
$DIMLIM
 70
     0
  9
$DIMTIH
 70
     1
  9
$DIMTOH
 70
     1
  9
$DIMSE1
 70
     0
  9
$DIMSE2
 70
     0
  9
$DIMTAD
 70
     0
  9
$DIMZIN
 70
     0
  9
$DIMBLK
  1

  9
$DIMASO
 70
     1
  9
$DIMSHO
 70
     1
  9
$DIMPOST
  1

  9
$DIMAPOST
  1

  9
$DIMALT
 70
     0
  9
$DIMALTD
 70
     2
  9
$DIMALTF
 40
25.4
  9
$DIMLFAC
 40
1.0
  9
$DIMTOFL
 70
     0
  9
$DIMTVP
 40
0.0
  9
$DIMTIX
 70
     0
  9
$DIMSOXD
 70
     0
  9
$DIMSAH
 70
     0
  9
$DIMBLK1
  1

  9
$DIMBLK2
  1

  9
$LUNITS
 70
     2
  9
$LUPREC
 70
     4
  9
$SKETCHINC
 40
0.1
  9
$FILLETRAD
 40
0.5
  9
$AUNITS
 70
     0
  9
$AUPREC
 70
     0
  9
$MENU
  1
.
  9
$ELEVATION
 40
0.0
  9
$THICKNESS
 40
0.0
  9
$LIMCHECK
 70
     0
  9
$CHAMFERA
 40
0.0
  9
$CHAMFERB
 40
0.0
  9
$SKPOLY
 70
     0
  9
$TDCREATE
 40
2447893.125
  9
$TDUPDATE
 40
2460791.474984352
  9
$TDINDWG
 40
0.0
  9
$TDUSRTIMER
 40
0.0
  9
$USRTIMER
 70
     1
  9
$ANGBASE
 50
0.0
  9
$ANGDIR
 70
     0
  9
$PDMODE
 70
     0
  9
$PDSIZE
 40
0.0
  9
$PLINEWID
 40
0.0
  9
$COORDS
 70
     1
  9
$SPLFRAME
 70
     0
  9
$SPLINETYPE
 70
     6
  9
$SPLINESEGS
 70
     8
  9
$ATTDIA
 70
     0
  9
$ATTREQ
 70
     1
  9
$HANDLING
 70
     1
  9
$HANDSEED
  5
A03
  9
$SURFTAB1
 70
     6
  9
$SURFTAB2
 70
     6
  9
$SURFTYPE
 70
     6
  9
$SURFU
 70
     6
  9
$SURFV
 70
     6
  9
$UCSNAME
  2

  9
$UCSORG
 10
0.0
 20
0.0
 30
0.0
  9
$UCSXDIR
 10
1.0
 20
0.0
 30
0.0
  9
$UCSYDIR
 10
0.0
 20
1.0
 30
0.0
  9
$USERI1
 70
     0
  9
$USERI2
 70
     0
  9
$USERI3
 70
     0
  9
$USERI4
 70
     0
  9
$USERI5
 70
     0
  9
$USERR1
 40
0.0
  9
$USERR2
 40
0.0
  9
$USERR3
 40
0.0
  9
$USERR4
 40
0.0
  9
$USERR5
 40
0.0
  9
$WORLDVIEW
 70
     1
  0
ENDSEC
  0
SECTION
  2
TABLES
  0
TABLE
  2
VPORT
 70
     1
  0
VPORT
  2
*ACTIVE
 70
     0
 10
0.0
 20
0.0
 11
1.0
 21
1.0
 12
344.75875388
 22
-181.9719601
 13
0.0
 23
0.0
 14
1.0
 24
1.0
 15
0.0
 25
0.0
 16
0.0
 26
0.0
 36
1.0
 17
0.0
 27
0.0
 37
0.0
 40
313.68920625
 41
1.365682948
 42
50.0
 43
0.0
 44
0.0
 50
0.0
 51
0.0
 71
     0
 72
   100
 73
     1
 74
     1
 75
     0
 76
     0
 77
     0
 78
     0
  0
ENDTAB
  0
TABLE
  2
LTYPE
 70
    19
  0
LTYPE
  2
CONTINUOUS
 70
     0
  3
Solid line
 72
    65
 73
     0
 40
0.0
  0
LTYPE
  2
DOT
 70
     0
  3
..............
 72
    65
 73
     2
 40
2.0
 49
0.5
 49
-1.5
  0
LTYPE
  2
HIDDEN
 70
     0
  3
-- -- -- -- --
 72
    65
 73
     2
 40
7.0
 49
4.0
 49
-3.0
  0
LTYPE
  2
DASHDOT
 70
     0
  3
--.--.--.--.--
 72
    65
 73
     4
 40
8.5
 49
4.0
 49
-2.0
 49
0.5
 49
-2.0
  0
LTYPE
  2
STRICHPUNKT2
 70
     0
  3
--.--.--.--.--
 72
    65
 73
     4
 40
18.5
 49
10.0
 49
-4.0
 49
0.5
 49
-4.0
  0
LTYPE
  2
STRICHPUNKT3
 70
     0
  3
--.--.--.--.--
 72
    65
 73
     4
 40
35.5
 49
25.0
 49
-5.0
 49
0.5
 49
-5.0
  0
LTYPE
  2
PHANTOM
 70
     0
  3
--..--..--..--
 72
    65
 73
     6
 40
23.0
 49
10.0
 49
-4.0
 49
0.5
 49
-4.0
 49
0.5
 49
-4.0
  0
LTYPE
  2
PHANTOM2
 70
     0
  3
--..--..--..--
 72
    65
 73
     6
 40
33.0
 49
20.0
 49
-4.0
 49
0.5
 49
-4.0
 49
0.5
 49
-4.0
  0
LTYPE
  2
PHANTOM3
 70
     0
  3
--..--..--..--
 72
    65
 73
     6
 40
50.0
 49
37.0
 49
-4.0
 49
0.5
 49
-4.0
 49
0.5
 49
-4.0
  0
LTYPE
  2
STR3PKT
 70
     0
  3
--...--...--...
 72
    65
 73
     8
 40
31.5
 49
20.0
 49
-2.5
 49
0.5
 49
-2.5
 49
0.5
 49
-2.5
 49
0.5
 49
-2.5
  0
LTYPE
  2
2STRPKT
 70
     0
  3
--.--.--.--.--
 72
    65
 73
     6
 40
28.0
 49
10.0
 49
-2.5
 49
10.0
 49
-2.5
 49
0.5
 49
-2.5
  0
LTYPE
  2
GESTRICHELT2
 70
     0
  3
-- -- -- -- --
 72
    65
 73
     2
 40
25.0
 49
10.0
 49
-15.0
  0
LTYPE
  2
2STR2PKT
 70
     0
  3
--..--..--..--
 72
    65
 73
     8
 40
31.0
 49
10.0
 49
-2.5
 49
10.0
 49
-2.5
 49
0.5
 49
-2.5
 49
0.5
 49
-2.5
  0
LTYPE
  2
STR3PKT2
 70
     0
  3
--...--...--...
 72
    65
 73
     8
 40
21.0
 49
10.0
 49
-2.5
 49
0.5
 49
-2.5
 49
0.5
 49
-2.5
 49
0.5
 49
-2.0
  0
LTYPE
  2
2STR3PKT
 70
     0
  3
--...--...--...
 72
    65
 73
    10
 40
34.0
 49
10.0
 49
-2.5
 49
10.0
 49
-2.5
 49
0.5
 49
-2.5
 49
0.5
 49
-2.5
 49
0.5
 49
-2.5
  0
LTYPE
  2
STRKSTR
 70
     0
  3
-- - -- - -- -
 72
    65
 73
     4
 40
30.0
 49
20.0
 49
-2.5
 49
5.0
 49
-2.5
  0
LTYPE
  2
STRKSTR2
 70
     0
  3
-- - -- - -- -
 72
    65
 73
     6
 40
37.5
 49
20.0
 49
-2.5
 49
5.0
 49
-2.5
 49
5.0
 49
-2.5
  0
LTYPE
  2
STRKSTR3
 70
     0
  3
-- - -- - -- -
 72
    65
 73
     8
 40
45.0
 49
20.0
 49
-2.5
 49
5.0
 49
-2.5
 49
5.0
 49
-2.5
 49
5.0
 49
-2.5
  0
LTYPE
  2
PUNKT2
 70
     0
  3
..............
 72
    65
 73
     2
 40
3.5
 49
0.5
 49
-3.0
  0
ENDTAB
  0
TABLE
  2
LAYER
 70
    16
  0
LAYER
  2
0
 70
     0
 62
     7
  6
CONTINUOUS
  0
LAYER
  2
LE_GREEN
 70
     0
 62
     3
  6
CONTINUOUS
  0
LAYER
  2
LE_RED
 70
     0
 62
     1
  6
CONTINUOUS
  0
LAYER
  2
LE_ALL
 70
     0
 62
     7
  6
CONTINUOUS
  0
LAYER
  2
LE_HIDDEN1
 70
     0
 62
     3
  6
HIDDEN
  0
LAYER
  2
LE_HIDDEN
 70
     0
 62
     7
  6
CONTINUOUS
  0
LAYER
  2
LE_MIDDLE
 70
     0
 62
     7
  6
CONTINUOUS
  0
LAYER
  2
TXT_YELLOW
 70
     0
 62
     2
  6
CONTINUOUS
  0
LAYER
  2
TXT_DIM49
 70
     0
 62
     2
  6
CONTINUOUS
  0
LAYER
  2
TXT_ALL
 70
     0
 62
     7
  6
CONTINUOUS
  0
LAYER
  2
DIM49
 70
     0
 62
     4
  6
CONTINUOUS
  0
LAYER
  2
HATCH
 70
     0
 62
     3
  6
CONTINUOUS
  0
LAYER
  2
APPLE
 70
     0
 62
     7
  6
CONTINUOUS
  0
LAYER
  2
10
 70
     0
 62
     7
  6
CONTINUOUS
  0
LAYER
  2
20
 70
     0
 62
     7
  6
CONTINUOUS
  0
LAYER
  2
49
 70
     0
 62
     7
  6
CONTINUOUS
  0
ENDTAB
  0
TABLE
  2
STYLE
 70
     5
  0
STYLE
  2
MONOTXT
 70
     0
 40
0.0
 41
1.0
 50
0.0
 71
     0
 42
1.0
  3
monotxt.shx
  4

  0
STYLE
  2
STANDARD
 70
     0
 40
0.0
 41
1.0
 50
0.0
 71
     0
 42
1.0
  3
txt
  4

  0
STYLE
  2
ARIAL
 70
     0
 40
0.0
 41
1.0
 50
0.0
 71
     0
 42
1.0
  3
arial.ttf
  4

  0
STYLE
  2
ARIAL_NARROW
 70
     0
 40
0.0
 41
1.0
 50
0.0
 71
     0
 42
1.0
  3
ArialN.ttf
  4

  0
STYLE
  2
ISOCPEUR
 70
     0
 40
0.0
 41
1.0
 50
0.0
 71
     0
 42
1.0
  3
ISOCPEUR.ttf
  4

  0
ENDTAB
  0
TABLE
  2
VIEW
 70
     0
  0
ENDTAB
  0
TABLE
  2
UCS
 70
     0
  0
ENDTAB
  0
ENDSEC
  0
SECTION
  2
BLOCKS
  0
BLOCK
  8
0
  2
_D1
 70
     0
 10
218.82205877
 20
-258.22941977
 30
0.0
  0
TEXT
  5
50B
  8
TXT_DIM49
 10
218.82205877
 20
-258.22941977
 30
0.0
 40
2.5
  1
100
  7
ARIAL
  0
LINE
  5
50C
  8
DIM49
 10
172.70181189
 20
-258.72941977
 30
0.0
 11
170.70181189
 21
-260.72941977
 31
0.0
  0
LINE
  5
50D
  8
DIM49
 10
270.95181189
 20
-260.47941977
 30
0.0
 11
272.45181189
 21
-258.97941977
 31
0.0
  0
LINE
  5
50E
  8
DIM49
 10
171.70181189
 20
-259.72941977
 30
0.0
 11
271.70181189
 21
-259.72941977
 31
0.0
  0
LINE
  5
50F
  8
DIM49
 10
171.70181189
 20
-257.72941977
 30
0.0
 11
171.70181189
 21
-261.72941977
 31
0.0
  0
LINE
  5
510
  8
DIM49
 10
271.70181189
 20
-257.72941977
 30
0.0
 11
271.70181189
 21
-261.72941977
 31
0.0
  0
ENDBLK
  8
0
  0
BLOCK
  8
0
  2
_D2
 70
     0
 10
162.13322486
 20
-214.58574297
 30
0.0
  0
TEXT
  5
513
  8
TXT_DIM49
 10
162.13322486
 20
-214.58574297
 30
0.0
 40
2.5
  1
75
 50
90.00020741
  7
ARIAL
  0
LINE
  5
514
  8
DIM49
 10
162.63322486
 20
-249.16590752
 30
0.0
 11
164.63322486
 21
-251.16590752
 31
0.0
  0
LINE
  5
515
  8
DIM49
 10
164.38322486
 20
-175.91590752
 30
0.0
 11
162.88322486
 21
-174.41590752
 31
0.0
  0
LINE
  5
516
  8
DIM49
 10
163.63322486
 20
-250.16590752
 30
0.0
 11
163.63322486
 21
-175.16590752
 31
0.0
  0
LINE
  5
517
  8
DIM49
 10
165.63322486
 20
-250.16590752
 30
0.0
 11
161.63322486
 21
-250.16590752
 31
0.0
  0
LINE
  5
518
  8
DIM49
 10
165.63322486
 20
-175.16590752
 30
0.0
 11
161.63322486
 21
-175.16590752
 31
0.0
  0
ENDBLK
  8
0
  0
BLOCK
  8
0
  2
_D3
 70
     0
 10
277.71865947
 20
-248.62582525
 30
0.0
  0
TEXT
  5
51B
  8
TXT_DIM49
 10
277.71865947
 20
-248.62582525
 30
0.0
 40
2.5
  1
5
 50
90.00020741
  7
ARIAL
  0
LINE
  5
51C
  8
DIM49
 10
278.21865947
 20
-249.16590752
 30
0.0
 11
280.21865947
 21
-251.16590752
 31
0.0
  0
LINE
  5
51D
  8
DIM49
 10
279.96865947
 20
-245.91590752
 30
0.0
 11
278.46865947
 21
-244.41590752
 31
0.0
  0
LINE
  5
51E
  8
DIM49
 10
279.21865947
 20
-250.16590752
 30
0.0
 11
279.21865947
 21
-245.16590752
 31
0.0
  0
LINE
  5
51F
  8
DIM49
 10
277.21865947
 20
-250.16590752
 30
0.0
 11
281.21865947
 21
-250.16590752
 31
0.0
  0
LINE
  5
520
  8
DIM49
 10
277.21865947
 20
-245.16590752
 30
0.0
 11
281.21865947
 21
-245.16590752
 31
0.0
  0
ENDBLK
  8
0
  0
BLOCK
  8
0
  2
_D4
 70
     0
 10
173.24189416
 20
-168.1694932
 30
0.0
  0
TEXT
  5
523
  8
TXT_DIM49
 10
173.24189416
 20
-168.1694932
 30
0.0
 40
2.5
  1
5
  7
ARIAL
  0
LINE
  5
524
  8
DIM49
 10
172.70181189
 20
-168.6694932
 30
0.0
 11
170.70181189
 21
-170.6694932
 31
0.0
  0
LINE
  5
525
  8
DIM49
 10
175.95181189
 20
-170.4194932
 30
0.0
 11
177.45181189
 21
-168.9194932
 31
0.0
  0
LINE
  5
526
  8
DIM49
 10
171.70181189
 20
-169.6694932
 30
0.0
 11
176.70181189
 21
-169.6694932
 31
0.0
  0
LINE
  5
527
  8
DIM49
 10
171.70181189
 20
-171.6694932
 30
0.0
 11
171.70181189
 21
-167.6694932
 31
0.0
  0
LINE
  5
528
  8
DIM49
 10
176.70181189
 20
-171.6694932
 30
0.0
 11
176.70181189
 21
-167.6694932
 31
0.0
  0
ENDBLK
  8
0
  0
BLOCK
  8
0
  2
_D5
 70
     0
 10
324.71295836
 20
-160.48652923
 30
0.0
  0
TEXT
  5
54A
  8
TXT_DIM49
 10
324.71295836
 20
-160.48652923
 30
0.0
 40
2.5
  1
19
  7
ARIAL
  0
LINE
  5
54B
  8
DIM49
 10
318.38279381
 20
-160.98652923
 30
0.0
 11
316.38279381
 21
-162.98652923
 31
0.0
  0
LINE
  5
54C
  8
DIM49
 10
335.13279381
 20
-162.73652923
 30
0.0
 11
336.63279381
 21
-161.23652923
 31
0.0
  0
LINE
  5
54D
  8
DIM49
 10
317.38279381
 20
-161.98652923
 30
0.0
 11
335.88279381
 21
-161.98652923
 31
0.0
  0
LINE
  5
54E
  8
DIM49
 10
317.38279381
 20
-163.98652923
 30
0.0
 11
317.38279381
 21
-159.98652923
 31
0.0
  0
LINE
  5
54F
  8
DIM49
 10
335.88279381
 20
-163.98652923
 30
0.0
 11
335.88279381
 21
-159.98652923
 31
0.0
  0
ENDBLK
  8
0
  0
BLOCK
  8
0
  2
_D6
 70
     0
 10
351.46295836
 20
-160.48652923
 30
0.0
  0
TEXT
  5
552
  8
TXT_DIM49
 10
351.46295836
 20
-160.48652923
 30
0.0
 40
2.5
  1
35
  7
ARIAL
  0
LINE
  5
553
  8
DIM49
 10
336.88279381
 20
-160.98652923
 30
0.0
 11
334.88279381
 21
-162.98652923
 31
0.0
  0
LINE
  5
554
  8
DIM49
 10
370.13279381
 20
-162.73652923
 30
0.0
 11
371.63279381
 21
-161.23652923
 31
0.0
  0
LINE
  5
555
  8
DIM49
 10
335.88279381
 20
-161.98652923
 30
0.0
 11
370.88279381
 21
-161.98652923
 31
0.0
  0
LINE
  5
556
  8
DIM49
 10
335.88279381
 20
-163.98652923
 30
0.0
 11
335.88279381
 21
-159.98652923
 31
0.0
  0
LINE
  5
557
  8
DIM49
 10
370.88279381
 20
-163.98652923
 30
0.0
 11
370.88279381
 21
-159.98652923
 31
0.0
  0
ENDBLK
  8
0
  0
BLOCK
  8
0
  2
_D7
 70
     0
 10
378.21295836
 20
-160.48652923
 30
0.0
  0
TEXT
  5
55A
  8
TXT_DIM49
 10
378.21295836
 20
-160.48652923
 30
0.0
 40
2.5
  1
19
  7
ARIAL
  0
LINE
  5
55B
  8
DIM49
 10
371.88279381
 20
-160.98652923
 30
0.0
 11
369.88279381
 21
-162.98652923
 31
0.0
  0
LINE
  5
55C
  8
DIM49
 10
388.63279381
 20
-162.73652923
 30
0.0
 11
390.13279381
 21
-161.23652923
 31
0.0
  0
LINE
  5
55D
  8
DIM49
 10
370.88279381
 20
-161.98652923
 30
0.0
 11
389.38279381
 21
-161.98652923
 31
0.0
  0
LINE
  5
55E
  8
DIM49
 10
370.88279381
 20
-163.98652923
 30
0.0
 11
370.88279381
 21
-159.98652923
 31
0.0
  0
LINE
  5
55F
  8
DIM49
 10
389.38279381
 20
-163.98652923
 30
0.0
 11
389.38279381
 21
-159.98652923
 31
0.0
  0
ENDBLK
  8
0
  0
BLOCK
  8
0
  2
_D8
 70
     0
 10
303.0232852
 20
-184.33574297
 30
0.0
  0
TEXT
  5
562
  8
TXT_DIM49
 10
303.0232852
 20
-184.33574297
 30
0.0
 40
2.5
  1
15
 50
90.00020741
  7
ARIAL
  0
LINE
  5
563
  8
DIM49
 10
305.5232852
 20
-176.16590752
 30
0.0
 11
303.5232852
 21
-174.16590752
 31
0.0
  0
LINE
  5
564
  8
DIM49
 10
303.7732852
 20
-188.91590752
 30
0.0
 11
305.2732852
 21
-190.41590752
 31
0.0
  0
LINE
  5
565
  8
DIM49
 10
304.5232852
 20
-175.16590752
 30
0.0
 11
304.5232852
 21
-189.66590752
 31
0.0
  0
LINE
  5
566
  8
DIM49
 10
306.5232852
 20
-175.16590752
 30
0.0
 11
302.5232852
 21
-175.16590752
 31
0.0
  0
LINE
  5
567
  8
DIM49
 10
306.5232852
 20
-189.66590752
 30
0.0
 11
302.5232852
 21
-189.66590752
 31
0.0
  0
ENDBLK
  8
0
  0
BLOCK
  8
0
  2
_D9
 70
     0
 10
303.0232852
 20
-201.58574297
 30
0.0
  0
TEXT
  5
56A
  8
TXT_DIM49
 10
303.0232852
 20
-201.58574297
 30
0.0
 40
2.5
  1
20
 50
90.00020741
  7
ARIAL
  0
LINE
  5
56B
  8
DIM49
 10
305.5232852
 20
-190.66590752
 30
0.0
 11
303.5232852
 21
-188.66590752
 31
0.0
  0
LINE
  5
56C
  8
DIM49
 10
303.7732852
 20
-208.91590752
 30
0.0
 11
305.2732852
 21
-210.41590752
 31
0.0
  0
LINE
  5
56D
  8
DIM49
 10
304.5232852
 20
-189.66590752
 30
0.0
 11
304.5232852
 21
-209.66590752
 31
0.0
  0
LINE
  5
56E
  8
DIM49
 10
306.5232852
 20
-189.66590752
 30
0.0
 11
302.5232852
 21
-189.66590752
 31
0.0
  0
LINE
  5
56F
  8
DIM49
 10
306.5232852
 20
-209.66590752
 30
0.0
 11
302.5232852
 21
-209.66590752
 31
0.0
  0
ENDBLK
  8
0
  0
BLOCK
  8
0
  2
_D10
 70
     0
 10
303.0232852
 20
-221.58574297
 30
0.0
  0
TEXT
  5
572
  8
TXT_DIM49
 10
303.0232852
 20
-221.58574297
 30
0.0
 40
2.5
  1
20
 50
90.00020741
  7
ARIAL
  0
LINE
  5
573
  8
DIM49
 10
305.5232852
 20
-210.66590752
 30
0.0
 11
303.5232852
 21
-208.66590752
 31
0.0
  0
LINE
  5
574
  8
DIM49
 10
303.7732852
 20
-228.91590752
 30
0.0
 11
305.2732852
 21
-230.41590752
 31
0.0
  0
LINE
  5
575
  8
DIM49
 10
304.5232852
 20
-209.66590752
 30
0.0
 11
304.5232852
 21
-229.66590752
 31
0.0
  0
LINE
  5
576
  8
DIM49
 10
306.5232852
 20
-209.66590752
 30
0.0
 11
302.5232852
 21
-209.66590752
 31
0.0
  0
LINE
  5
577
  8
DIM49
 10
306.5232852
 20
-229.66590752
 30
0.0
 11
302.5232852
 21
-229.66590752
 31
0.0
  0
ENDBLK
  8
0
  0
BLOCK
  8
0
  2
_D11
 70
     0
 10
303.0232852
 20
-241.83574297
 30
0.0
  0
TEXT
  5
57A
  8
TXT_DIM49
 10
303.0232852
 20
-241.83574297
 30
0.0
 40
2.5
  1
21
 50
90.00020741
  7
ARIAL
  0
LINE
  5
57B
  8
DIM49
 10
305.5232852
 20
-230.66590752
 30
0.0
 11
303.5232852
 21
-228.66590752
 31
0.0
  0
LINE
  5
57C
  8
DIM49
 10
303.7732852
 20
-249.41590752
 30
0.0
 11
305.2732852
 21
-250.91590752
 31
0.0
  0
LINE
  5
57D
  8
DIM49
 10
304.5232852
 20
-229.66590752
 30
0.0
 11
304.5232852
 21
-250.16590752
 31
0.0
  0
LINE
  5
57E
  8
DIM49
 10
306.5232852
 20
-229.66590752
 30
0.0
 11
302.5232852
 21
-229.66590752
 31
0.0
  0
LINE
  5
57F
  8
DIM49
 10
306.5232852
 20
-250.16590752
 30
0.0
 11
302.5232852
 21
-250.16590752
 31
0.0
  0
ENDBLK
  8
0
  0
BLOCK
  8
0
  2
_D12
 70
     0
 10
369.46295836
 20
-152.29102902
 30
0.0
  0
TEXT
  5
582
  8
TXT_DIM49
 10
369.46295836
 20
-152.29102902
 30
0.0
 40
2.5
  1
36
  7
ARIAL
  0
LINE
  5
583
  8
DIM49
 10
388.38279381
 20
-154.79102902
 30
0.0
 11
390.38279381
 21
-152.79102902
 31
0.0
  0
LINE
  5
584
  8
DIM49
 10
354.13279381
 20
-153.04102902
 30
0.0
 11
352.63279381
 21
-154.54102902
 31
0.0
  0
LINE
  5
585
  8
DIM49
 10
389.38279381
 20
-153.79102902
 30
0.0
 11
353.38279381
 21
-153.79102902
 31
0.0
  0
LINE
  5
586
  8
DIM49
 10
389.38279381
 20
-155.79102902
 30
0.0
 11
389.38279381
 21
-151.79102902
 31
0.0
  0
LINE
  5
587
  8
DIM49
 10
353.38279381
 20
-155.79102902
 30
0.0
 11
353.38279381
 21
-151.79102902
 31
0.0
  0
ENDBLK
  8
0
  0
BLOCK
  8
0
  2
_D13
 70
     0
 10
335.44019916
 20
-152.29102902
 30
0.0
  0
TEXT
  5
58A
  8
TXT_DIM49
 10
335.44019916
 20
-152.29102902
 30
0.0
 40
2.5
  1
36
  7
ARIAL
  0
LINE
  5
58B
  8
DIM49
 10
352.38279381
 20
-154.79102902
 30
0.0
 11
354.38279381
 21
-152.79102902
 31
0.0
  0
LINE
  5
58C
  8
DIM49
 10
318.13279381
 20
-153.04102902
 30
0.0
 11
316.63279381
 21
-154.54102902
 31
0.0
  0
LINE
  5
58D
  8
DIM49
 10
353.38279381
 20
-153.79102902
 30
0.0
 11
317.38279381
 21
-153.79102902
 31
0.0
  0
LINE
  5
58E
  8
DIM49
 10
353.38279381
 20
-155.79102902
 30
0.0
 11
353.38279381
 21
-151.79102902
 31
0.0
  0
LINE
  5
58F
  8
DIM49
 10
317.38279381
 20
-155.79102902
 30
0.0
 11
317.38279381
 21
-151.79102902
 31
0.0
  0
ENDBLK
  8
0
  0
BLOCK
  8
0
  2
_D14
 70
     0
 10
391.93821993
 20
-187.25755026
 30
0.0
  0
TEXT
  5
592
  8
TXT_DIM49
 10
391.93821993
 20
-187.25755026
 30
0.0
 40
2.5
  1
3
  7
ARIAL
  0
LINE
  5
593
  8
DIM49
 10
390.38279381
 20
-187.75755026
 30
0.0
 11
388.38279381
 21
-189.75755026
 31
0.0
  0
LINE
  5
594
  8
DIM49
 10
385.53279381
 20
-189.50755026
 30
0.0
 11
387.03279381
 21
-188.00755026
 31
0.0
  0
LINE
  5
595
  8
DIM49
 10
394.8580555
 20
-188.75755026
 30
0.0
 11
380.28279381
 21
-188.75755026
 31
0.0
  0
LINE
  5
596
  8
DIM49
 10
389.38279381
 20
-186.75755026
 30
0.0
 11
389.38279381
 21
-190.75755026
 31
0.0
  0
LINE
  5
597
  8
DIM49
 10
386.28279381
 20
-186.75755026
 30
0.0
 11
386.28279381
 21
-190.75755026
 31
0.0
  0
ENDBLK
  8
0
  0
BLOCK
  8
0
  2
_D15
 70
     0
 10
314.17746773
 20
-187.69852045
 30
0.0
  0
TEXT
  5
59A
  8
TXT_DIM49
 10
314.17746773
 20
-187.69852045
 30
0.0
 40
2.5
  1
3
  7
ARIAL
  0
LINE
  5
59B
  8
DIM49
 10
316.38279381
 20
-190.19852045
 30
0.0
 11
318.38279381
 21
-188.19852045
 31
0.0
  0
LINE
  5
59C
  8
DIM49
 10
321.23279381
 20
-188.44852045
 30
0.0
 11
319.73279381
 21
-189.94852045
 31
0.0
  0
LINE
  5
59D
  8
DIM49
 10
313.17746773
 20
-189.19852045
 30
0.0
 11
326.48279381
 21
-189.19852045
 31
0.0
  0
LINE
  5
59E
  8
DIM49
 10
317.38279381
 20
-189.65156362
 30
0.0
 11
317.38279381
 21
-187.19852045
 31
0.0
  0
LINE
  5
59F
  8
DIM49
 10
320.48279381
 20
-187.19852045
 30
0.0
 11
320.48279381
 21
-191.19852045
 31
0.0
  0
ENDBLK
  8
0
  0
BLOCK
  8
0
  2
_D16
 70
     0
 10
309.31253175
 20
-180.47582525
 30
0.0
  0
TEXT
  5
5A2
  8
TXT_DIM49
 10
309.31253175
 20
-180.47582525
 30
0.0
 40
2.5
  1
9
 50
90.00020741
  7
ARIAL
  0
LINE
  5
5A3
  8
DIM49
 10
309.81253175
 20
-182.86590752
 30
0.0
 11
311.81253175
 21
-184.86590752
 31
0.0
  0
LINE
  5
5A4
  8
DIM49
 10
311.56253175
 20
-175.91590752
 30
0.0
 11
310.06253175
 21
-174.41590752
 31
0.0
  0
LINE
  5
5A5
  8
DIM49
 10
310.81253175
 20
-183.86590752
 30
0.0
 11
310.81253175
 21
-175.16590752
 31
0.0
  0
LINE
  5
5A6
  8
DIM49
 10
312.81253175
 20
-183.86590752
 30
0.0
 11
308.81253175
 21
-183.86590752
 31
0.0
  0
LINE
  5
5A7
  8
DIM49
 10
312.81253175
 20
-175.16590752
 30
0.0
 11
308.81253175
 21
-175.16590752
 31
0.0
  0
ENDBLK
  8
0
  0
BLOCK
  8
0
  2
_D17
 70
     0
 10
307.82765555
 20
-168.50686595
 30
0.0
  0
TEXT
  5
5AA
  8
TXT_DIM49
 10
307.82765555
 20
-168.50686595
 30
0.0
 40
2.5
  1
6
  7
ARIAL
  0
TEXT
  5
5AB
  8
TXT_DIM49
 10
311.24749112
 20
-168.50686595
 30
0.0
 40
2.5
  1
x45°
  7
ARIAL
  0
LINE
  5
5AC
  8
DIM49
 10
319.48279381
 20
-171.00686595
 30
0.0
 11
321.48279381
 21
-169.00686595
 31
0.0
  0
LINE
  5
5AD
  8
DIM49
 10
327.03279381
 20
-169.25686595
 30
0.0
 11
325.53279381
 21
-170.75686595
 31
0.0
  0
LINE
  5
5AE
  8
DIM49
 10
306.82765579
 20
-170.00686595
 30
0.0
 11
332.28279381
 21
-170.00686595
 31
0.0
  0
LINE
  5
5AF
  8
DIM49
 10
320.48279381
 20
-172.00686595
 30
0.0
 11
320.48279381
 21
-168.00686595
 31
0.0
  0
LINE
  5
5B0
  8
DIM49
 10
326.28279381
 20
-172.00686595
 30
0.0
 11
326.28279381
 21
-168.00686595
 31
0.0
  0
ENDBLK
  8
0
  0
BLOCK
  8
0
  2
_D18
 70
     0
 10
388.52197604
 20
-170.48228873
 30
0.0
  0
TEXT
  5
5B3
  8
TXT_DIM49
 10
388.52197604
 20
-170.48228873
 30
0.0
 40
2.5
  1
6
  7
ARIAL
  0
TEXT
  5
5B4
  8
TXT_DIM49
 10
391.94181161
 20
-170.48228873
 30
0.0
 40
2.5
  1
x45°
  7
ARIAL
  0
LINE
  5
5B5
  8
DIM49
 10
379.48279381
 20
-172.98228873
 30
0.0
 11
381.48279381
 21
-170.98228873
 31
0.0
  0
LINE
  5
5B6
  8
DIM49
 10
387.03279381
 20
-171.23228873
 30
0.0
 11
385.53279381
 21
-172.73228873
 31
0.0
  0
LINE
  5
5B7
  8
DIM49
 10
374.48279381
 20
-171.98228873
 30
0.0
 11
399.88794117
 21
-171.98228873
 31
0.0
  0
LINE
  5
5B8
  8
DIM49
 10
380.48279381
 20
-173.98228873
 30
0.0
 11
380.48279381
 21
-169.98228873
 31
0.0
  0
LINE
  5
5B9
  8
DIM49
 10
386.28279381
 20
-173.98228873
 30
0.0
 11
386.28279381
 21
-169.98228873
 31
0.0
  0
ENDBLK
  8
0
  0
BLOCK
  8
0
  2
_D19
 70
     0
 10
400.97897041
 20
-187.58574297
 30
0.0
  0
TEXT
  5
5BC
  8
TXT_DIM49
 10
400.97897041
 20
-187.58574297
 30
0.0
 40
2.5
  1
21
 50
90.00020741
  7
ARIAL
  0
LINE
  5
5BD
  8
DIM49
 10
403.47897041
 20
-176.16590752
 30
0.0
 11
401.47897041
 21
-174.16590752
 31
0.0
  0
LINE
  5
5BE
  8
DIM49
 10
401.72897041
 20
-195.41590752
 30
0.0
 11
403.22897041
 21
-196.91590752
 31
0.0
  0
LINE
  5
5BF
  8
DIM49
 10
402.47897041
 20
-175.16590752
 30
0.0
 11
402.47897041
 21
-196.16590752
 31
0.0
  0
LINE
  5
5C0
  8
DIM49
 10
400.47897041
 20
-175.16590752
 30
0.0
 11
404.47897041
 21
-175.16590752
 31
0.0
  0
LINE
  5
5C1
  8
DIM49
 10
400.47897041
 20
-196.16590752
 30
0.0
 11
404.47897041
 21
-196.16590752
 31
0.0
  0
ENDBLK
  8
0
  0
BLOCK
  8
0
  2
_D20
 70
     0
 10
400.97897041
 20
-213.08574297
 30
0.0
  0
TEXT
  5
5C4
  8
TXT_DIM49
 10
400.97897041
 20
-213.08574297
 30
0.0
 40
2.5
  1
30
 50
90.00020741
  7
ARIAL
  0
LINE
  5
5C5
  8
DIM49
 10
403.47897041
 20
-197.16590752
 30
0.0
 11
401.47897041
 21
-195.16590752
 31
0.0
  0
LINE
  5
5C6
  8
DIM49
 10
401.72897041
 20
-225.41590752
 30
0.0
 11
403.22897041
 21
-226.91590752
 31
0.0
  0
LINE
  5
5C7
  8
DIM49
 10
402.47897041
 20
-196.16590752
 30
0.0
 11
402.47897041
 21
-226.16590752
 31
0.0
  0
LINE
  5
5C8
  8
DIM49
 10
400.47897041
 20
-196.16590752
 30
0.0
 11
404.47897041
 21
-196.16590752
 31
0.0
  0
LINE
  5
5C9
  8
DIM49
 10
400.47897041
 20
-226.16590752
 30
0.0
 11
404.47897041
 21
-226.16590752
 31
0.0
  0
ENDBLK
  8
0
  0
BLOCK
  8
0
  2
_D21
 70
     0
 10
400.97897041
 20
-240.08574297
 30
0.0
  0
TEXT
  5
5CC
  8
TXT_DIM49
 10
400.97897041
 20
-240.08574297
 30
0.0
 40
2.5
  1
24
 50
90.00020741
  7
ARIAL
  0
LINE
  5
5CD
  8
DIM49
 10
403.47897041
 20
-227.16590752
 30
0.0
 11
401.47897041
 21
-225.16590752
 31
0.0
  0
LINE
  5
5CE
  8
DIM49
 10
401.72897041
 20
-249.41590752
 30
0.0
 11
403.22897041
 21
-250.91590752
 31
0.0
  0
LINE
  5
5CF
  8
DIM49
 10
402.47897041
 20
-226.16590752
 30
0.0
 11
402.47897041
 21
-250.16590752
 31
0.0
  0
LINE
  5
5D0
  8
DIM49
 10
400.47897041
 20
-226.16590752
 30
0.0
 11
404.47897041
 21
-226.16590752
 31
0.0
  0
LINE
  5
5D1
  8
DIM49
 10
400.47897041
 20
-250.16590752
 30
0.0
 11
404.47897041
 21
-250.16590752
 31
0.0
  0
ENDBLK
  8
0
  0
BLOCK
  8
0
  2
_D22
 70
     0
 10
349.62042179
 20
-190.53807461
 30
0.0
  0
TEXT
  5
5D4
  8
TXT_DIM49
 10
349.62042179
 20
-190.53807461
 30
0.0
 40
2.5
  1
Ø
  7
ARIAL
  0
TEXT
  5
5D5
  8
TXT_DIM49
 10
353.30549469
 20
-190.53807461
 30
0.0
 40
2.5
  1
13
  7
ARIAL
  0
LINE
  5
5D6
  8
DIM49
 10
347.88279381
 20
-191.03807461
 30
0.0
 11
345.88279381
 21
-193.03807461
 31
0.0
  0
LINE
  5
5D7
  8
DIM49
 10
359.13279381
 20
-192.78807461
 30
0.0
 11
360.63279381
 21
-191.28807461
 31
0.0
  0
LINE
  5
5D8
  8
DIM49
 10
346.88279381
 20
-192.03807461
 30
0.0
 11
359.88279381
 21
-192.03807461
 31
0.0
  0
LINE
  5
5D9
  8
DIM49
 10
346.88279381
 20
-194.03807461
 30
0.0
 11
346.88279381
 21
-190.03807461
 31
0.0
  0
LINE
  5
5DA
  8
DIM49
 10
359.88279381
 20
-194.03807461
 30
0.0
 11
359.88279381
 21
-190.03807461
 31
0.0
  0
ENDBLK
  8
0
  0
BLOCK
  8
0
  2
_D23
 70
     0
 10
333.08033958
 20
-178.99034759
 30
0.0
  0
TEXT
  5
5DD
  8
TXT_DIM49
 10
333.08033958
 20
-178.99034759
 30
0.0
 40
2.5
  1
Ø
  7
ARIAL
  0
TEXT
  5
5DE
  8
TXT_DIM49
 10
336.76541247
 20
-178.99034759
 30
0.0
 40
2.5
  1
9
  7
ARIAL
  0
LINE
  5
5DF
  8
DIM49
 10
332.38279381
 20
-179.49034759
 30
0.0
 11
330.38279381
 21
-181.49034759
 31
0.0
  0
LINE
  5
5E0
  8
DIM49
 10
339.63279381
 20
-181.24034759
 30
0.0
 11
341.13279381
 21
-179.74034759
 31
0.0
  0
LINE
  5
5E1
  8
DIM49
 10
331.38279381
 20
-180.49034759
 30
0.0
 11
340.38279381
 21
-180.49034759
 31
0.0
  0
LINE
  5
5E2
  8
DIM49
 10
331.38279381
 20
-182.49034759
 30
0.0
 11
331.38279381
 21
-178.49034759
 31
0.0
  0
LINE
  5
5E3
  8
DIM49
 10
340.38279381
 20
-182.49034759
 30
0.0
 11
340.38279381
 21
-178.49034759
 31
0.0
  0
ENDBLK
  8
0
  0
BLOCK
  8
0
  2
_D24
 70
     0
 10
333.08033958
 20
-201.0464468
 30
0.0
  0
TEXT
  5
5E6
  8
TXT_DIM49
 10
333.08033958
 20
-201.0464468
 30
0.0
 40
2.5
  1
Ø
  7
ARIAL
  0
TEXT
  5
5E7
  8
TXT_DIM49
 10
336.76541247
 20
-201.0464468
 30
0.0
 40
2.5
  1
7
  7
ARIAL
  0
LINE
  5
5E8
  8
DIM49
 10
333.38279381
 20
-201.5464468
 30
0.0
 11
331.38279381
 21
-203.5464468
 31
0.0
  0
LINE
  5
5E9
  8
DIM49
 10
338.63279381
 20
-203.2964468
 30
0.0
 11
340.13279381
 21
-201.7964468
 31
0.0
  0
LINE
  5
5EA
  8
DIM49
 10
332.38279381
 20
-202.5464468
 30
0.0
 11
339.38279381
 21
-202.5464468
 31
0.0
  0
LINE
  5
5EB
  8
DIM49
 10
332.38279381
 20
-204.5464468
 30
0.0
 11
332.38279381
 21
-200.5464468
 31
0.0
  0
LINE
  5
5EC
  8
DIM49
 10
339.38279381
 20
-204.5464468
 30
0.0
 11
339.38279381
 21
-200.5464468
 31
0.0
  0
ENDBLK
  8
0
  0
BLOCK
  8
0
  2
_D25
 70
     0
 10
333.08033958
 20
-256.98410406
 30
0.0
  0
TEXT
  5
5EF
  8
TXT_DIM49
 10
333.08033958
 20
-256.98410406
 30
0.0
 40
2.5
  1
Ø
  7
ARIAL
  0
TEXT
  5
5F0
  8
TXT_DIM49
 10
336.76541247
 20
-256.98410406
 30
0.0
 40
2.5
  1
9
  7
ARIAL
  0
LINE
  5
5F1
  8
DIM49
 10
339.38279381
 20
-259.48410406
 30
0.0
 11
341.38279381
 21
-257.48410406
 31
0.0
  0
LINE
  5
5F2
  8
DIM49
 10
332.13279381
 20
-257.73410406
 30
0.0
 11
330.63279381
 21
-259.23410406
 31
0.0
  0
LINE
  5
5F3
  8
DIM49
 10
340.38279381
 20
-258.48410406
 30
0.0
 11
331.38279381
 21
-258.48410406
 31
0.0
  0
LINE
  5
5F4
  8
DIM49
 10
340.38279381
 20
-256.48410406
 30
0.0
 11
340.38279381
 21
-260.48410406
 31
0.0
  0
LINE
  5
5F5
  8
DIM49
 10
331.38279381
 20
-256.48410406
 30
0.0
 11
331.38279381
 21
-260.48410406
 31
0.0
  0
ENDBLK
  8
0
  0
BLOCK
  8
0
  2
_D26
 70
     0
 10
368.08033958
 20
-258.16590752
 30
0.0
  0
TEXT
  5
5F8
  8
TXT_DIM49
 10
368.08033958
 20
-258.16590752
 30
0.0
 40
2.5
  1
Ø
  7
ARIAL
  0
TEXT
  5
5F9
  8
TXT_DIM49
 10
371.76541247
 20
-258.16590752
 30
0.0
 40
2.5
  1
7
  7
ARIAL
  0
LINE
  5
5FA
  8
DIM49
 10
373.38279381
 20
-260.66590752
 30
0.0
 11
375.38279381
 21
-258.66590752
 31
0.0
  0
LINE
  5
5FB
  8
DIM49
 10
368.13279381
 20
-258.91590752
 30
0.0
 11
366.63279381
 21
-260.41590752
 31
0.0
  0
LINE
  5
5FC
  8
DIM49
 10
374.38279381
 20
-259.66590752
 30
0.0
 11
367.38279381
 21
-259.66590752
 31
0.0
  0
LINE
  5
5FD
  8
DIM49
 10
374.38279381
 20
-257.66590752
 30
0.0
 11
374.38279381
 21
-261.66590752
 31
0.0
  0
LINE
  5
5FE
  8
DIM49
 10
367.38279381
 20
-257.66590752
 30
0.0
 11
367.38279381
 21
-261.66590752
 31
0.0
  0
ENDBLK
  8
0
  0
BLOCK
  8
0
  2
_D27
 70
     0
 10
368.08033958
 20
-199.32760669
 30
0.0
  0
TEXT
  5
601
  8
TXT_DIM49
 10
368.08033958
 20
-199.32760669
 30
0.0
 40
2.5
  1
Ø
  7
ARIAL
  0
TEXT
  5
602
  8
TXT_DIM49
 10
371.76541247
 20
-199.32760669
 30
0.0
 40
2.5
  1
9
  7
ARIAL
  0
LINE
  5
603
  8
DIM49
 10
367.38279381
 20
-199.82760669
 30
0.0
 11
365.38279381
 21
-201.82760669
 31
0.0
  0
LINE
  5
604
  8
DIM49
 10
374.63279381
 20
-201.57760669
 30
0.0
 11
376.13279381
 21
-200.07760669
 31
0.0
  0
LINE
  5
605
  8
DIM49
 10
366.38279381
 20
-200.82760669
 30
0.0
 11
375.38279381
 21
-200.82760669
 31
0.0
  0
LINE
  5
606
  8
DIM49
 10
366.38279381
 20
-202.82760669
 30
0.0
 11
366.38279381
 21
-198.82760669
 31
0.0
  0
LINE
  5
607
  8
DIM49
 10
375.38279381
 20
-202.82760669
 30
0.0
 11
375.38279381
 21
-198.82760669
 31
0.0
  0
ENDBLK
  8
0
  0
BLOCK
  8
0
  2
_D28
 70
     0
 10
368.08033958
 20
-180.50100069
 30
0.0
  0
TEXT
  5
60A
  8
TXT_DIM49
 10
368.08033958
 20
-180.50100069
 30
0.0
 40
2.5
  1
Ø
  7
ARIAL
  0
TEXT
  5
60B
  8
TXT_DIM49
 10
371.76541247
 20
-180.50100069
 30
0.0
 40
2.5
  1
7
  7
ARIAL
  0
LINE
  5
60C
  8
DIM49
 10
368.38279381
 20
-181.00100069
 30
0.0
 11
366.38279381
 21
-183.00100069
 31
0.0
  0
LINE
  5
60D
  8
DIM49
 10
373.63279381
 20
-182.75100069
 30
0.0
 11
375.13279381
 21
-181.25100069
 31
0.0
  0
LINE
  5
60E
  8
DIM49
 10
367.38279381
 20
-182.00100069
 30
0.0
 11
374.38279381
 21
-182.00100069
 31
0.0
  0
LINE
  5
60F
  8
DIM49
 10
367.38279381
 20
-184.00100069
 30
0.0
 11
367.38279381
 21
-180.00100069
 31
0.0
  0
LINE
  5
610
  8
DIM49
 10
374.38279381
 20
-184.00100069
 30
0.0
 11
374.38279381
 21
-180.00100069
 31
0.0
  0
ENDBLK
  8
0
  0
BLOCK
  8
0
  2
_D29
 70
     0
 10
333.08033958
 20
-220.35754911
 30
0.0
  0
TEXT
  5
613
  8
TXT_DIM49
 10
333.08033958
 20
-220.35754911
 30
0.0
 40
2.5
  1
Ø
  7
ARIAL
  0
TEXT
  5
614
  8
TXT_DIM49
 10
336.76541247
 20
-220.35754911
 30
0.0
 40
2.5
  1
9
  7
ARIAL
  0
LINE
  5
615
  8
DIM49
 10
332.38279381
 20
-220.85754911
 30
0.0
 11
330.38279381
 21
-222.85754911
 31
0.0
  0
LINE
  5
616
  8
DIM49
 10
339.63279381
 20
-222.60754911
 30
0.0
 11
341.13279381
 21
-221.10754911
 31
0.0
  0
LINE
  5
617
  8
DIM49
 10
331.38279381
 20
-221.85754911
 30
0.0
 11
340.38279381
 21
-221.85754911
 31
0.0
  0
LINE
  5
618
  8
DIM49
 10
331.38279381
 20
-223.85754911
 30
0.0
 11
331.38279381
 21
-219.85754911
 31
0.0
  0
LINE
  5
619
  8
DIM49
 10
340.38279381
 20
-223.85754911
 30
0.0
 11
340.38279381
 21
-219.85754911
 31
0.0
  0
ENDBLK
  8
0
  0
BLOCK
  8
0
  2
_D30
 70
     0
 10
368.08033958
 20
-221.07914094
 30
0.0
  0
TEXT
  5
61C
  8
TXT_DIM49
 10
368.08033958
 20
-221.07914094
 30
0.0
 40
2.5
  1
Ø
  7
ARIAL
  0
TEXT
  5
61D
  8
TXT_DIM49
 10
371.76541247
 20
-221.07914094
 30
0.0
 40
2.5
  1
7
  7
ARIAL
  0
LINE
  5
61E
  8
DIM49
 10
368.38279381
 20
-221.57914094
 30
0.0
 11
366.38279381
 21
-223.57914094
 31
0.0
  0
LINE
  5
61F
  8
DIM49
 10
373.63279381
 20
-223.32914094
 30
0.0
 11
375.13279381
 21
-221.82914094
 31
0.0
  0
LINE
  5
620
  8
DIM49
 10
367.38279381
 20
-222.57914094
 30
0.0
 11
374.38279381
 21
-222.57914094
 31
0.0
  0
LINE
  5
621
  8
DIM49
 10
367.38279381
 20
-224.57914094
 30
0.0
 11
367.38279381
 21
-220.57914094
 31
0.0
  0
LINE
  5
622
  8
DIM49
 10
374.38279381
 20
-224.57914094
 30
0.0
 11
374.38279381
 21
-220.57914094
 31
0.0
  0
ENDBLK
  8
0
  0
BLOCK
  8
0
  2
_D31
 70
     0
 10
181.25711803
 20
-62.67601346
 30
0.0
  0
TEXT
  5
640
  8
TXT_DIM49
 10
181.25711803
 20
-62.67601346
 30
0.0
 40
2.5
  1
36
  7
ARIAL
  0
LINE
  5
641
  8
DIM49
 10
166.17695347
 20
-63.17601346
 30
0.0
 11
164.17695347
 21
-65.17601346
 31
0.0
  0
LINE
  5
642
  8
DIM49
 10
200.42695347
 20
-64.92601346
 30
0.0
 11
201.92695347
 21
-63.42601346
 31
0.0
  0
LINE
  5
643
  8
DIM49
 10
165.17695347
 20
-64.17601346
 30
0.0
 11
201.17695347
 21
-64.17601346
 31
0.0
  0
LINE
  5
644
  8
DIM49
 10
165.17695347
 20
-66.17601346
 30
0.0
 11
165.17695347
 21
-62.17601346
 31
0.0
  0
LINE
  5
645
  8
DIM49
 10
201.17695347
 20
-66.17601346
 30
0.0
 11
201.17695347
 21
-62.17601346
 31
0.0
  0
ENDBLK
  8
0
  0
BLOCK
  8
0
  2
_D32
 70
     0
 10
209.25711803
 20
-62.67601346
 30
0.0
  0
TEXT
  5
648
  8
TXT_DIM49
 10
209.25711803
 20
-62.67601346
 30
0.0
 40
2.5
  1
20
  7
ARIAL
  0
LINE
  5
649
  8
DIM49
 10
202.17695347
 20
-63.17601346
 30
0.0
 11
200.17695347
 21
-65.17601346
 31
0.0
  0
LINE
  5
64A
  8
DIM49
 10
220.42695347
 20
-64.92601346
 30
0.0
 11
221.92695347
 21
-63.42601346
 31
0.0
  0
LINE
  5
64B
  8
DIM49
 10
201.17695347
 20
-64.17601346
 30
0.0
 11
221.17695347
 21
-64.17601346
 31
0.0
  0
LINE
  5
64C
  8
DIM49
 10
201.17695347
 20
-66.17601346
 30
0.0
 11
201.17695347
 21
-62.17601346
 31
0.0
  0
LINE
  5
64D
  8
DIM49
 10
221.17695347
 20
-66.17601346
 30
0.0
 11
221.17695347
 21
-62.17601346
 31
0.0
  0
ENDBLK
  8
0
  0
BLOCK
  8
0
  2
_D33
 70
     0
 10
229.25711803
 20
-62.67601346
 30
0.0
  0
TEXT
  5
650
  8
TXT_DIM49
 10
229.25711803
 20
-62.67601346
 30
0.0
 40
2.5
  1
20
  7
ARIAL
  0
LINE
  5
651
  8
DIM49
 10
222.17695347
 20
-63.17601346
 30
0.0
 11
220.17695347
 21
-65.17601346
 31
0.0
  0
LINE
  5
652
  8
DIM49
 10
240.42695347
 20
-64.92601346
 30
0.0
 11
241.92695347
 21
-63.42601346
 31
0.0
  0
LINE
  5
653
  8
DIM49
 10
221.17695347
 20
-64.17601346
 30
0.0
 11
241.17695347
 21
-64.17601346
 31
0.0
  0
LINE
  5
654
  8
DIM49
 10
221.17695347
 20
-66.17601346
 30
0.0
 11
221.17695347
 21
-62.17601346
 31
0.0
  0
LINE
  5
655
  8
DIM49
 10
241.17695347
 20
-66.17601346
 30
0.0
 11
241.17695347
 21
-62.17601346
 31
0.0
  0
ENDBLK
  8
0
  0
BLOCK
  8
0
  2
_D34
 70
     0
 10
251.25711803
 20
-62.67601346
 30
0.0
  0
TEXT
  5
658
  8
TXT_DIM49
 10
251.25711803
 20
-62.67601346
 30
0.0
 40
2.5
  1
24
  7
ARIAL
  0
LINE
  5
659
  8
DIM49
 10
242.17695347
 20
-63.17601346
 30
0.0
 11
240.17695347
 21
-65.17601346
 31
0.0
  0
LINE
  5
65A
  8
DIM49
 10
264.42695347
 20
-64.92601346
 30
0.0
 11
265.92695347
 21
-63.42601346
 31
0.0
  0
LINE
  5
65B
  8
DIM49
 10
241.17695347
 20
-64.17601346
 30
0.0
 11
265.17695347
 21
-64.17601346
 31
0.0
  0
LINE
  5
65C
  8
DIM49
 10
241.17695347
 20
-66.17601346
 30
0.0
 11
241.17695347
 21
-62.17601346
 31
0.0
  0
LINE
  5
65D
  8
DIM49
 10
265.17695347
 20
-66.17601346
 30
0.0
 11
265.17695347
 21
-62.17601346
 31
0.0
  0
ENDBLK
  8
0
  0
BLOCK
  8
0
  2
_D35
 70
     0
 10
155.66965794
 20
-112.09584891
 30
0.0
  0
TEXT
  5
660
  8
TXT_DIM49
 10
155.66965794
 20
-112.09584891
 30
0.0
 40
2.5
  1
72
 50
90.00020741
  7
ARIAL
  0
LINE
  5
661
  8
DIM49
 10
156.16965794
 20
-145.17601346
 30
0.0
 11
158.16965794
 21
-147.17601346
 31
0.0
  0
LINE
  5
662
  8
DIM49
 10
157.91965794
 20
-74.92601346
 30
0.0
 11
156.41965794
 21
-73.42601346
 31
0.0
  0
LINE
  5
663
  8
DIM49
 10
157.16965794
 20
-146.17601346
 30
0.0
 11
157.16965794
 21
-74.17601346
 31
0.0
  0
LINE
  5
664
  8
DIM49
 10
159.16965794
 20
-146.17601346
 30
0.0
 11
155.16965794
 21
-146.17601346
 31
0.0
  0
LINE
  5
665
  8
DIM49
 10
159.16965794
 20
-74.17601346
 30
0.0
 11
155.16965794
 21
-74.17601346
 31
0.0
  0
ENDBLK
  8
0
  0
BLOCK
  8
0
  2
_D36
 70
     0
 10
278.48619702
 20
-138.84584891
 30
0.0
  0
TEXT
  5
668
  8
TXT_DIM49
 10
278.48619702
 20
-138.84584891
 30
0.0
 40
2.5
  1
19
 50
90.00020741
  7
ARIAL
  0
LINE
  5
669
  8
DIM49
 10
278.98619702
 20
-145.17601346
 30
0.0
 11
280.98619702
 21
-147.17601346
 31
0.0
  0
LINE
  5
66A
  8
DIM49
 10
280.73619702
 20
-128.42601346
 30
0.0
 11
279.23619702
 21
-126.92601346
 31
0.0
  0
LINE
  5
66B
  8
DIM49
 10
279.98619702
 20
-146.17601346
 30
0.0
 11
279.98619702
 21
-127.67601346
 31
0.0
  0
LINE
  5
66C
  8
DIM49
 10
277.98619702
 20
-146.17601346
 30
0.0
 11
281.98619702
 21
-146.17601346
 31
0.0
  0
LINE
  5
66D
  8
DIM49
 10
277.98619702
 20
-127.67601346
 30
0.0
 11
281.98619702
 21
-127.67601346
 31
0.0
  0
ENDBLK
  8
0
  0
BLOCK
  8
0
  2
_D37
 70
     0
 10
278.48619702
 20
-112.09584891
 30
0.0
  0
TEXT
  5
670
  8
TXT_DIM49
 10
278.48619702
 20
-112.09584891
 30
0.0
 40
2.5
  1
35
 50
90.00020741
  7
ARIAL
  0
LINE
  5
671
  8
DIM49
 10
278.98619702
 20
-126.67601346
 30
0.0
 11
280.98619702
 21
-128.67601346
 31
0.0
  0
LINE
  5
672
  8
DIM49
 10
280.73619702
 20
-93.42601346
 30
0.0
 11
279.23619702
 21
-91.92601346
 31
0.0
  0
LINE
  5
673
  8
DIM49
 10
279.98619702
 20
-127.67601346
 30
0.0
 11
279.98619702
 21
-92.67601346
 31
0.0
  0
LINE
  5
674
  8
DIM49
 10
277.98619702
 20
-127.67601346
 30
0.0
 11
281.98619702
 21
-127.67601346
 31
0.0
  0
LINE
  5
675
  8
DIM49
 10
277.98619702
 20
-92.67601346
 30
0.0
 11
281.98619702
 21
-92.67601346
 31
0.0
  0
ENDBLK
  8
0
  0
BLOCK
  8
0
  2
_D38
 70
     0
 10
278.48619702
 20
-85.34584891
 30
0.0
  0
TEXT
  5
678
  8
TXT_DIM49
 10
278.48619702
 20
-85.34584891
 30
0.0
 40
2.5
  1
19
 50
90.00020741
  7
ARIAL
  0
LINE
  5
679
  8
DIM49
 10
278.98619702
 20
-91.67601346
 30
0.0
 11
280.98619702
 21
-93.67601346
 31
0.0
  0
LINE
  5
67A
  8
DIM49
 10
280.73619702
 20
-74.92601346
 30
0.0
 11
279.23619702
 21
-73.42601346
 31
0.0
  0
LINE
  5
67B
  8
DIM49
 10
279.98619702
 20
-92.67601346
 30
0.0
 11
279.98619702
 21
-74.17601346
 31
0.0
  0
LINE
  5
67C
  8
DIM49
 10
277.98619702
 20
-92.67601346
 30
0.0
 11
281.98619702
 21
-92.67601346
 31
0.0
  0
LINE
  5
67D
  8
DIM49
 10
277.98619702
 20
-74.17601346
 30
0.0
 11
281.98619702
 21
-74.17601346
 31
0.0
  0
ENDBLK
  8
0
  0
BLOCK
  8
0
  2
_D39
 70
     0
 10
286.31916909
 20
-94.09584891
 30
0.0
  0
TEXT
  5
680
  8
TXT_DIM49
 10
286.31916909
 20
-94.09584891
 30
0.0
 40
2.5
  1
36
 50
90.00020741
  7
ARIAL
  0
LINE
  5
681
  8
DIM49
 10
288.81916909
 20
-75.17601346
 30
0.0
 11
286.81916909
 21
-73.17601346
 31
0.0
  0
LINE
  5
682
  8
DIM49
 10
287.06916909
 20
-109.42601346
 30
0.0
 11
288.56916909
 21
-110.92601346
 31
0.0
  0
LINE
  5
683
  8
DIM49
 10
287.81916909
 20
-74.17601346
 30
0.0
 11
287.81916909
 21
-110.17601346
 31
0.0
  0
LINE
  5
684
  8
DIM49
 10
285.81916909
 20
-74.17601346
 30
0.0
 11
289.81916909
 21
-74.17601346
 31
0.0
  0
LINE
  5
685
  8
DIM49
 10
285.81916909
 20
-110.17601346
 30
0.0
 11
289.81916909
 21
-110.17601346
 31
0.0
  0
ENDBLK
  8
0
  0
BLOCK
  8
0
  2
_D40
 70
     0
 10
286.31916909
 20
-130.09584891
 30
0.0
  0
TEXT
  5
688
  8
TXT_DIM49
 10
286.31916909
 20
-130.09584891
 30
0.0
 40
2.5
  1
36
 50
90.00020741
  7
ARIAL
  0
LINE
  5
689
  8
DIM49
 10
288.81916909
 20
-111.17601346
 30
0.0
 11
286.81916909
 21
-109.17601346
 31
0.0
  0
LINE
  5
68A
  8
DIM49
 10
287.06916909
 20
-145.42601346
 30
0.0
 11
288.56916909
 21
-146.92601346
 31
0.0
  0
LINE
  5
68B
  8
DIM49
 10
287.81916909
 20
-110.17601346
 30
0.0
 11
287.81916909
 21
-146.17601346
 31
0.0
  0
LINE
  5
68C
  8
DIM49
 10
285.81916909
 20
-110.17601346
 30
0.0
 11
289.81916909
 21
-110.17601346
 31
0.0
  0
LINE
  5
68D
  8
DIM49
 10
285.81916909
 20
-146.17601346
 30
0.0
 11
289.81916909
 21
-146.17601346
 31
0.0
  0
ENDBLK
  8
0
  0
BLOCK
  8
0
  2
_D41
 70
     0
 10
218.37449924
 20
-82.89929999
 30
0.0
  0
TEXT
  5
690
  8
TXT_DIM49
 10
218.37449924
 20
-82.89929999
 30
0.0
 40
2.5
  1
Ø
  7
ARIAL
  0
TEXT
  5
691
  8
TXT_DIM49
 10
222.05957214
 20
-82.89929999
 30
0.0
 40
2.5
  1
7
  7
ARIAL
  0
LINE
  5
692
  8
DIM49
 10
218.67695347
 20
-83.39929999
 30
0.0
 11
216.67695347
 21
-85.39929999
 31
0.0
  0
LINE
  5
693
  8
DIM49
 10
223.92695347
 20
-85.14929999
 30
0.0
 11
225.42695347
 21
-83.64929999
 31
0.0
  0
LINE
  5
694
  8
DIM49
 10
217.67695347
 20
-84.39929999
 30
0.0
 11
224.67695347
 21
-84.39929999
 31
0.0
  0
LINE
  5
695
  8
DIM49
 10
217.67695347
 20
-86.39929999
 30
0.0
 11
217.67695347
 21
-82.39929999
 31
0.0
  0
LINE
  5
696
  8
DIM49
 10
224.67695347
 20
-86.39929999
 30
0.0
 11
224.67695347
 21
-82.39929999
 31
0.0
  0
ENDBLK
  8
0
  0
BLOCK
  8
0
  2
_D42
 70
     0
 10
238.37449924
 20
-81.17601346
 30
0.0
  0
TEXT
  5
699
  8
TXT_DIM49
 10
238.37449924
 20
-81.17601346
 30
0.0
 40
2.5
  1
Ø
  7
ARIAL
  0
TEXT
  5
69A
  8
TXT_DIM49
 10
242.05957214
 20
-81.17601346
 30
0.0
 40
2.5
  1
9
  7
ARIAL
  0
LINE
  5
69B
  8
DIM49
 10
237.67695347
 20
-81.67601346
 30
0.0
 11
235.67695347
 21
-83.67601346
 31
0.0
  0
LINE
  5
69C
  8
DIM49
 10
244.92695347
 20
-83.42601346
 30
0.0
 11
246.42695347
 21
-81.92601346
 31
0.0
  0
LINE
  5
69D
  8
DIM49
 10
236.67695347
 20
-82.67601346
 30
0.0
 11
245.67695347
 21
-82.67601346
 31
0.0
  0
LINE
  5
69E
  8
DIM49
 10
236.67695347
 20
-84.67601346
 30
0.0
 11
236.67695347
 21
-80.67601346
 31
0.0
  0
LINE
  5
69F
  8
DIM49
 10
245.67695347
 20
-84.67601346
 30
0.0
 11
245.67695347
 21
-80.67601346
 31
0.0
  0
ENDBLK
  8
0
  0
BLOCK
  8
0
  2
_D43
 70
     0
 10
198.37449924
 20
-81.17601346
 30
0.0
  0
TEXT
  5
6A2
  8
TXT_DIM49
 10
198.37449924
 20
-81.17601346
 30
0.0
 40
2.5
  1
Ø
  7
ARIAL
  0
TEXT
  5
6A3
  8
TXT_DIM49
 10
202.05957214
 20
-81.17601346
 30
0.0
 40
2.5
  1
9
  7
ARIAL
  0
LINE
  5
6A4
  8
DIM49
 10
197.67695347
 20
-81.67601346
 30
0.0
 11
195.67695347
 21
-83.67601346
 31
0.0
  0
LINE
  5
6A5
  8
DIM49
 10
204.92695347
 20
-83.42601346
 30
0.0
 11
206.42695347
 21
-81.92601346
 31
0.0
  0
LINE
  5
6A6
  8
DIM49
 10
196.67695347
 20
-82.67601346
 30
0.0
 11
205.67695347
 21
-82.67601346
 31
0.0
  0
LINE
  5
6A7
  8
DIM49
 10
196.67695347
 20
-84.67601346
 30
0.0
 11
196.67695347
 21
-80.67601346
 31
0.0
  0
LINE
  5
6A8
  8
DIM49
 10
205.67695347
 20
-84.67601346
 30
0.0
 11
205.67695347
 21
-80.67601346
 31
0.0
  0
ENDBLK
  8
0
  0
BLOCK
  8
0
  2
_D44
 70
     0
 10
250.65273578
 20
-72.96838056
 30
0.0
  0
TEXT
  5
6AB
  8
TXT_DIM49
 10
250.65273578
 20
-72.96838056
 30
0.0
 40
2.5
  1
2
 50
90.00020741
  7
ARIAL
  0
LINE
  5
6AC
  8
DIM49
 10
251.15273578
 20
-73.17601346
 30
0.0
 11
253.15273578
 21
-75.17601346
 31
0.0
  0
LINE
  5
6AD
  8
DIM49
 10
252.90273578
 20
-77.32601346
 30
0.0
 11
251.40273578
 21
-75.82601346
 31
0.0
  0
LINE
  5
6AE
  8
DIM49
 10
252.15273578
 20
-70.04854535
 30
0.0
 11
252.15273578
 21
-82.57601346
 31
0.0
  0
LINE
  5
6AF
  8
DIM49
 10
252.21097019
 20
-74.17601346
 30
0.0
 11
250.15273578
 21
-74.17601346
 31
0.0
  0
LINE
  5
6B0
  8
DIM49
 10
254.15273578
 20
-76.57601346
 30
0.0
 11
250.15273578
 21
-76.57601346
 31
0.0
  0
ENDBLK
  8
0
  0
BLOCK
  8
0
  2
_D45
 70
     0
 10
198.37449924
 20
-137.18300083
 30
0.0
  0
TEXT
  5
6B3
  8
TXT_DIM49
 10
198.37449924
 20
-137.18300083
 30
0.0
 40
2.5
  1
Ø
  7
ARIAL
  0
TEXT
  5
6B4
  8
TXT_DIM49
 10
202.05957214
 20
-137.18300083
 30
0.0
 40
2.5
  1
7
  7
ARIAL
  0
LINE
  5
6B5
  8
DIM49
 10
203.67695347
 20
-139.68300083
 30
0.0
 11
205.67695347
 21
-137.68300083
 31
0.0
  0
LINE
  5
6B6
  8
DIM49
 10
198.42695347
 20
-137.93300083
 30
0.0
 11
196.92695347
 21
-139.43300083
 31
0.0
  0
LINE
  5
6B7
  8
DIM49
 10
204.67695347
 20
-138.68300083
 30
0.0
 11
197.67695347
 21
-138.68300083
 31
0.0
  0
LINE
  5
6B8
  8
DIM49
 10
204.67695347
 20
-136.68300083
 30
0.0
 11
204.67695347
 21
-140.68300083
 31
0.0
  0
LINE
  5
6B9
  8
DIM49
 10
197.67695347
 20
-136.68300083
 30
0.0
 11
197.67695347
 21
-140.68300083
 31
0.0
  0
ENDBLK
  8
0
  0
BLOCK
  8
0
  2
_D46
 70
     0
 10
218.37449924
 20
-138.19341585
 30
0.0
  0
TEXT
  5
6BC
  8
TXT_DIM49
 10
218.37449924
 20
-138.19341585
 30
0.0
 40
2.5
  1
Ø
  7
ARIAL
  0
TEXT
  5
6BD
  8
TXT_DIM49
 10
222.05957214
 20
-138.19341585
 30
0.0
 40
2.5
  1
9
  7
ARIAL
  0
LINE
  5
6BE
  8
DIM49
 10
224.67695347
 20
-140.69341585
 30
0.0
 11
226.67695347
 21
-138.69341585
 31
0.0
  0
LINE
  5
6BF
  8
DIM49
 10
217.42695347
 20
-138.94341585
 30
0.0
 11
215.92695347
 21
-140.44341585
 31
0.0
  0
LINE
  5
6C0
  8
DIM49
 10
225.67695347
 20
-139.69341585
 30
0.0
 11
216.67695347
 21
-139.69341585
 31
0.0
  0
LINE
  5
6C1
  8
DIM49
 10
225.67695347
 20
-137.69341585
 30
0.0
 11
225.67695347
 21
-141.69341585
 31
0.0
  0
LINE
  5
6C2
  8
DIM49
 10
216.67695347
 20
-137.69341585
 30
0.0
 11
216.67695347
 21
-141.69341585
 31
0.0
  0
ENDBLK
  8
0
  0
BLOCK
  8
0
  2
_D47
 70
     0
 10
238.37449924
 20
-136.96266661
 30
0.0
  0
TEXT
  5
6C5
  8
TXT_DIM49
 10
238.37449924
 20
-136.96266661
 30
0.0
 40
2.5
  1
Ø
  7
ARIAL
  0
TEXT
  5
6C6
  8
TXT_DIM49
 10
242.05957214
 20
-136.96266661
 30
0.0
 40
2.5
  1
7
  7
ARIAL
  0
LINE
  5
6C7
  8
DIM49
 10
243.67695347
 20
-139.46266661
 30
0.0
 11
245.67695347
 21
-137.46266661
 31
0.0
  0
LINE
  5
6C8
  8
DIM49
 10
238.42695347
 20
-137.71266661
 30
0.0
 11
236.92695347
 21
-139.21266661
 31
0.0
  0
LINE
  5
6C9
  8
DIM49
 10
244.67695347
 20
-138.46266661
 30
0.0
 11
237.67695347
 21
-138.46266661
 31
0.0
  0
LINE
  5
6CA
  8
DIM49
 10
244.67695347
 20
-136.46266661
 30
0.0
 11
244.67695347
 21
-140.46266661
 31
0.0
  0
LINE
  5
6CB
  8
DIM49
 10
237.67695347
 20
-136.46266661
 30
0.0
 11
237.67695347
 21
-140.46266661
 31
0.0
  0
ENDBLK
  8
0
  0
BLOCK
  8
0
  2
_D48
 70
     0
 10
250.65273578
 20
-150.96074377
 30
0.0
  0
TEXT
  5
6CE
  8
TXT_DIM49
 10
250.65273578
 20
-150.96074377
 30
0.0
 40
2.5
  1
2
 50
90.00020741
  7
ARIAL
  0
LINE
  5
6CF
  8
DIM49
 10
253.15273578
 20
-147.17601346
 30
0.0
 11
251.15273578
 21
-145.17601346
 31
0.0
  0
LINE
  5
6D0
  8
DIM49
 10
251.40273578
 20
-143.02601346
 30
0.0
 11
252.90273578
 21
-144.52601346
 31
0.0
  0
LINE
  5
6D1
  8
DIM49
 10
252.15273578
 20
-151.96074389
 30
0.0
 11
252.15273578
 21
-137.77601346
 31
0.0
  0
LINE
  5
6D2
  8
DIM49
 10
254.15273578
 20
-146.17601346
 30
0.0
 11
250.15273578
 21
-146.17601346
 31
0.0
  0
LINE
  5
6D3
  8
DIM49
 10
254.15273578
 20
-143.77601346
 30
0.0
 11
250.15273578
 21
-143.77601346
 31
0.0
  0
ENDBLK
  8
0
  0
BLOCK
  8
0
  2
_D49
 70
     0
 10
270.33659637
 20
-75.95888592
 30
0.0
  0
TEXT
  5
6D6
  8
TXT_DIM49
 10
270.33659637
 20
-75.95888592
 30
0.0
 40
2.5
  1
6
 50
90.00020741
  7
ARIAL
  0
TEXT
  5
6D7
  8
TXT_DIM49
 10
270.33659637
 20
-72.53905035
 30
0.0
 40
2.5
  1
x45°
 50
90.00020741
  7
ARIAL
  0
LINE
  5
6D8
  8
DIM49
 10
270.83659637
 20
-75.57601346
 30
0.0
 11
272.83659637
 21
-77.57601346
 31
0.0
  0
LINE
  5
6D9
  8
DIM49
 10
272.58659637
 20
-83.12601346
 30
0.0
 11
271.08659637
 21
-81.62601346
 31
0.0
  0
LINE
  5
6DA
  8
DIM49
 10
271.83659637
 20
-64.59292115
 30
0.0
 11
271.83659637
 21
-88.37601346
 31
0.0
  0
LINE
  5
6DB
  8
DIM49
 10
269.83659637
 20
-76.57601346
 30
0.0
 11
273.83659637
 21
-76.57601346
 31
0.0
  0
LINE
  5
6DC
  8
DIM49
 10
269.83659637
 20
-82.37601346
 30
0.0
 11
273.83659637
 21
-82.37601346
 31
0.0
  0
ENDBLK
  8
0
  0
BLOCK
  8
0
  2
_D50
 70
     0
 10
270.22107051
 20
-155.43891545
 30
0.0
  0
TEXT
  5
6DF
  8
TXT_DIM49
 10
270.22107051
 20
-155.43891545
 30
0.0
 40
2.5
  1
6
 50
90.00020741
  7
ARIAL
  0
TEXT
  5
6E0
  8
TXT_DIM49
 10
270.22107051
 20
-152.01907989
 30
0.0
 40
2.5
  1
x45°
 50
90.00020741
  7
ARIAL
  0
LINE
  5
6E1
  8
DIM49
 10
270.72107051
 20
-136.97601346
 30
0.0
 11
272.72107051
 21
-138.97601346
 31
0.0
  0
LINE
  5
6E2
  8
DIM49
 10
272.47107051
 20
-144.52601346
 30
0.0
 11
270.97107051
 21
-143.02601346
 31
0.0
  0
LINE
  5
6E3
  8
DIM49
 10
271.72107051
 20
-131.97601346
 30
0.0
 11
271.72107051
 21
-156.43891534
 31
0.0
  0
LINE
  5
6E4
  8
DIM49
 10
269.72107051
 20
-137.97601346
 30
0.0
 11
273.72107051
 21
-137.97601346
 31
0.0
  0
LINE
  5
6E5
  8
DIM49
 10
269.72107051
 20
-143.77601346
 30
0.0
 11
273.72107051
 21
-143.77601346
 31
0.0
  0
ENDBLK
  8
0
  0
BLOCK
  8
0
  2
_D51
 70
     0
 10
259.81703575
 20
-131.56685831
 30
0.0
  0
TEXT
  5
6E8
  8
TXT_DIM49
 10
259.81703575
 20
-131.56685831
 30
0.0
 40
2.5
  1
9
  7
ARIAL
  0
LINE
  5
6E9
  8
DIM49
 10
264.17695347
 20
-134.06685831
 30
0.0
 11
266.17695347
 21
-132.06685831
 31
0.0
  0
LINE
  5
6EA
  8
DIM49
 10
257.12695347
 20
-132.31685831
 30
0.0
 11
255.62695347
 21
-133.81685831
 31
0.0
  0
LINE
  5
6EB
  8
DIM49
 10
265.17695347
 20
-133.06685831
 30
0.0
 11
256.37695347
 21
-133.06685831
 31
0.0
  0
LINE
  5
6EC
  8
DIM49
 10
265.17695347
 20
-131.06685831
 30
0.0
 11
265.17695347
 21
-135.06685831
 31
0.0
  0
LINE
  5
6ED
  8
DIM49
 10
256.37695347
 20
-135.06685831
 30
0.0
 11
256.37695347
 21
-131.06685831
 31
0.0
  0
ENDBLK
  8
0
  0
BLOCK
  8
0
  2
_D52
 70
     0
 10
187.7465917
 20
-113.93838547
 30
0.0
  0
TEXT
  5
6F0
  8
TXT_DIM49
 10
187.7465917
 20
-113.93838547
 30
0.0
 40
2.5
  1
Ø
 50
90.00020741
  7
ARIAL
  0
TEXT
  5
6F1
  8
TXT_DIM49
 10
187.7465917
 20
-110.25331257
 30
0.0
 40
2.5
  1
13
 50
90.00020741
  7
ARIAL
  0
LINE
  5
6F2
  8
DIM49
 10
188.2465917
 20
-115.67601346
 30
0.0
 11
190.2465917
 21
-117.67601346
 31
0.0
  0
LINE
  5
6F3
  8
DIM49
 10
189.9965917
 20
-104.42601346
 30
0.0
 11
188.4965917
 21
-102.92601346
 31
0.0
  0
LINE
  5
6F4
  8
DIM49
 10
189.2465917
 20
-116.67601346
 30
0.0
 11
189.2465917
 21
-103.67601346
 31
0.0
  0
LINE
  5
6F5
  8
DIM49
 10
191.2465917
 20
-116.67601346
 30
0.0
 11
187.2465917
 21
-116.67601346
 31
0.0
  0
LINE
  5
6F6
  8
DIM49
 10
191.2465917
 20
-103.67601346
 30
0.0
 11
187.2465917
 21
-103.67601346
 31
0.0
  0
ENDBLK
  8
0
  0
BLOCK
  8
0
  2
_ZBL0002_00001
 70
     0
 10
0.0
 20
0.0
 30
0.0
  0
INSERT
  5
1B8
  8
0
  2
DINA3_00002
 10
134.75875388
 20
-330.4719601
 30
0.0
  0
ENDBLK
  8
0
  0
BLOCK
  8
0
  2
DINA3_00002
 70
     0
 10
134.75875388
 20
-330.4719601
 30
0.0
  0
POLYLINE
  5
1BB
  8
0
 66
     1
 10
0.0
 20
0.0
 30
0.0
 70
     1
  0
VERTEX
  5
1BC
  8
0
 10
134.75875388
 20
-330.4719601
 30
0.0
  0
VERTEX
  5
1BD
  8
0
 10
554.75875388
 20
-330.4719601
 30
0.0
  0
VERTEX
  5
1BE
  8
0
 10
554.75875388
 20
-33.4719601
 30
0.0
  0
VERTEX
  5
1BF
  8
0
 10
134.75875388
 20
-33.4719601
 30
0.0
  0
SEQEND
  5
1C0
  8
0
  0
POLYLINE
  5
1C1
  8
0
 66
     1
 10
0.0
 20
0.0
 30
0.0
 70
     1
  0
VERTEX
  5
1C2
  8
0
 10
139.75875388
 20
-325.4719601
 30
0.0
  0
VERTEX
  5
1C3
  8
0
 10
549.75875388
 20
-325.4719601
 30
0.0
  0
VERTEX
  5
1C4
  8
0
 10
549.75875388
 20
-38.4719601
 30
0.0
  0
VERTEX
  5
1C5
  8
0
 10
139.75875388
 20
-38.4719601
 30
0.0
  0
SEQEND
  5
1C6
  8
0
  0
LINE
  5
1C7
  8
0
 10
364.75875388
 20
-325.4719601
 30
0.0
 11
364.75875388
 21
-330.4719601
 31
0.0
  0
LINE
  5
1C8
  8
0
 10
364.75875388
 20
-38.4719601
 30
0.0
 11
364.75875388
 21
-33.4719601
 31
0.0
  0
LINE
  5
1C9
  8
0
 10
154.75875388
 20
-325.4719601
 30
0.0
 11
154.75875388
 21
-330.4719601
 31
0.0
  0
LINE
  5
1CA
  8
0
 10
154.75875388
 20
-38.4719601
 30
0.0
 11
154.75875388
 21
-33.4719601
 31
0.0
  0
TEXT
  5
1CB
  8
TXT_ALL
 62
     4
 10
553.75875388
 20
-329.4719601
 30
0.0
 40
2.5
  1

 50
90.00020741
  0
POLYLINE
  5
1CC
  8
0
 66
     1
 10
0.0
 20
0.0
 30
0.0
  0
VERTEX
  5
1CD
  8
0
 10
549.75875388
 20
-48.4719601
 30
0.0
  0
VERTEX
  5
1CE
  8
0
 10
480.76545388
 20
-48.4719601
 30
0.0
  0
VERTEX
  5
1CF
  8
0
 10
480.76545388
 20
-38.4719601
 30
0.0
  0
SEQEND
  5
1D0
  8
0
  0
LINE
  5
1D1
  8
0
 10
482.66875388
 20
-305.9719601
 30
0.0
 11
342.77875388
 21
-305.9719601
 31
0.0
  0
LINE
  5
1D2
  8
0
 10
342.77875388
 20
-315.7219601
 30
0.0
 11
482.66875388
 21
-315.7219601
 31
0.0
  0
POLYLINE
  5
1D3
  8
0
 66
     1
 10
0.0
 20
0.0
 30
0.0
  0
VERTEX
  5
1D4
  8
0
 10
342.77875388
 20
-305.9719601
 30
0.0
  0
VERTEX
  5
1D5
  8
0
 10
342.77875388
 20
-315.7219601
 30
0.0
  0
VERTEX
  5
1D6
  8
0
 10
342.77875388
 20
-325.4719601
 30
0.0
  0
SEQEND
  5
1D7
  8
0
  0
POLYLINE
  5
1D8
  8
0
 66
     1
 10
0.0
 20
0.0
 30
0.0
  0
VERTEX
  5
1D9
  8
0
 10
412.72375388
 20
-305.9719601
 30
0.0
  0
VERTEX
  5
1DA
  8
0
 10
412.72375388
 20
-315.7219601
 30
0.0
  0
VERTEX
  5
1DB
  8
0
 10
412.72375388
 20
-325.4719601
 30
0.0
  0
SEQEND
  5
1DC
  8
0
  0
INSERT
  5
1DD
  8
0
  2
FLEX_00003
 10
344.77875388
 20
-310.8469601
 30
0.0
  0
INSERT
  5
1DE
  8
0
  2
FLEX_00005
 10
344.77875388
 20
-320.5969601
 30
0.0
  0
INSERT
  5
1DF
  8
0
  2
FLEX_00007
 10
414.72375388
 20
-320.5969601
 30
0.0
  0
INSERT
  5
1E0
  8
0
  2
FLEX_00009
 10
414.72375388
 20
-310.8469601
 30
0.0
  0
INSERT
  5
1E1
  8
0
  2
SCHRIFE_00011
 10
143.20071413
 20
-43.4719601
 30
0.0
  0
INSERT
  5
1E2
  8
0
  2
_B_M_P___00015
 10
531.60117995
 20
-330.3619601
 30
0.0
  0
ENDBLK
  8
0
  0
BLOCK
  8
0
  2
FLEX_00003
 70
     0
 10
344.77875388
 20
-310.8469601
 30
0.0
  0
INSERT
  5
1E5
  8
0
  2
TFIELD_00004
 10
344.77875388
 20
-310.8469601
 30
0.0
  0
ENDBLK
  8
0
  0
BLOCK
  8
0
  2
TFIELD_00004
 70
     0
 10
344.77875388
 20
-310.8469601
 30
0.0
  0
TEXT
  5
1E8
  8
TXT_ALL
 10
344.77875388
 20
-312.14696005
 30
0.0
 40
2.5999999
  1
E-mail: verkoop@jonkers-bouwmetaal.nl
  7
ARIAL
  0
ENDBLK
  8
0
  0
BLOCK
  8
0
  2
FLEX_00005
 70
     0
 10
344.77875388
 20
-320.5969601
 30
0.0
  0
INSERT
  5
1EB
  8
0
  2
TFIELD_00006
 10
344.77875388
 20
-320.5969601
 30
0.0
  0
ENDBLK
  8
0
  0
BLOCK
  8
0
  2
TFIELD_00006
 70
     0
 10
344.77875388
 20
-320.5969601
 30
0.0
  0
TEXT
  5
1EE
  8
TXT_ALL
 10
344.77875388
 20
-321.89696005
 30
0.0
 40
2.5999999
  1
Telefoon: 0527-685156
  7
ARIAL
  0
ENDBLK
  8
0
  0
BLOCK
  8
0
  2
FLEX_00007
 70
     0
 10
414.72375388
 20
-320.5969601
 30
0.0
  0
INSERT
  5
1F1
  8
0
  2
TFIELD_00008
 10
414.72375388
 20
-320.5969601
 30
0.0
  0
ENDBLK
  8
0
  0
BLOCK
  8
0
  2
TFIELD_00008
 70
     0
 10
414.72375388
 20
-320.5969601
 30
0.0
  0
TEXT
  5
1F4
  8
TXT_ALL
 10
414.72375388
 20
-321.89696005
 30
0.0
 40
2.5999999
  1
Website: www.jonkers-bouwmetaal.nl
  7
ARIAL
  0
ENDBLK
  8
0
  0
BLOCK
  8
0
  2
FLEX_00009
 70
     0
 10
414.72375388
 20
-310.8469601
 30
0.0
  0
INSERT
  5
1F7
  8
0
  2
TFIELD_00010
 10
414.72375388
 20
-310.8469601
 30
0.0
  0
ENDBLK
  8
0
  0
BLOCK
  8
0
  2
TFIELD_00010
 70
     0
 10
414.72375388
 20
-310.8469601
 30
0.0
  0
TEXT
  5
1FA
  8
TXT_ALL
 10
414.72375388
 20
-312.14696005
 30
0.0
 40
2.5999999
  1
Adres: Hoornse Hop 10, 8321 WX Urk
  7
ARIAL
  0
ENDBLK
  8
0
  0
BLOCK
  8
0
  2
SCHRIFE_00011
 70
     0
 10
143.20071413
 20
-43.4719601
 30
0.0
  0
TEXT
  5
1FD
  8
TXT_ALL
 10
143.20071413
 20
-44.7219601
 30
0.0
 40
2.5
  1
Art. nr. 91017441
  7
ARIAL
  0
TEXT
  5
1FE
  8
TXT_ALL
 10
185.93875095
 20
-44.7219601
 30
0.0
 40
2.5
  1
Omschrijving: SVH05-anker z. ril 100x75 72x5
  7
ARIAL
  0
LINE
  5
1FF
  8
0
 10
549.75875388
 20
-48.4719601
 30
0.0
 11
139.75875388
 21
-48.4719601
 31
0.0
  0
LINE
  5
200
  8
0
 10
182.77875388
 20
-48.4719601
 30
0.0
 11
182.77875388
 21
-38.4719601
 31
0.0
  0
LINE
  5
201
  8
0
 10
342.77875388
 20
-48.4719601
 30
0.0
 11
342.77875388
 21
-38.4719601
 31
0.0
  0
TEXT
  5
202
  8
TXT_ALL
 10
413.77245388
 20
-44.7219601
 30
0.0
 40
2.5
  1
Behandeling: Sendzimir verzinkt
  7
ARIAL
  0
LINE
  5
203
  8
0
 10
482.66875388
 20
-305.9719601
 30
0.0
 11
549.75875388
 21
-305.9719601
 31
0.0
  0
LINE
  5
204
  8
0
 10
482.66875388
 20
-325.4719601
 30
0.0
 11
482.66875388
 21
-305.9719601
 31
0.0
  0
LINE
  5
205
  8
0
 10
482.66875388
 20
-325.4719601
 30
0.0
 11
482.66875388
 21
-305.9719601
 31
0.0
  0
TEXT
  5
206
  8
TXT_ALL
 10
277.12395197
 20
-324.31742668
 30
0.0
 40
2.5
  1

  0
TEXT
  5
207
  8
TXT_ALL
 10
398.25913493
 20
-314.2219601
 30
0.0
 40
2.5
  1

  0
POLYLINE
  5
208
  8
0
 66
     1
 10
0.0
 20
0.0
 30
0.0
  0
VERTEX
  5
209
  8
0
 10
480.76545388
 20
-48.4719601
 30
0.0
  0
VERTEX
  5
20A
  8
0
 10
411.77245388
 20
-48.4719601
 30
0.0
  0
VERTEX
  5
20B
  8
0
 10
411.77245388
 20
-38.4719601
 30
0.0
  0
SEQEND
  5
20C
  8
0
  0
TEXT
  5
20D
  8
TXT_ALL
 10
482.76545388
 20
-44.7219601
 30
0.0
 40
2.5
  1
Verpakkingshoeveelheid: 25 st.
  7
ARIAL
  0
TEXT
  5
20E
  8
TXT_ALL
 10
344.77875388
 20
-44.7219601
 30
0.0
 40
2.5
  1
Materiaal: S350
  7
ARIAL
  0
INSERT
  5
20F
  8
0
  2
FLEX_00012
 10
524.33398929
 20
-329.47146995
 30
0.0
  0
INSERT
  5
210
  8
0
  2
_B_M_P___00014
 10
483.42812119
 20
-324.67927804
 30
0.0
  0
ENDBLK
  8
0
  0
BLOCK
  8
0
  2
FLEX_00012
 70
     0
 10
524.33398929
 20
-329.47146995
 30
0.0
  0
INSERT
  5
213
  8
0
  2
TFIELD_00013
 10
517.5404011
 20
-327.97146995
 30
0.0
  0
ENDBLK
  8
0
  0
BLOCK
  8
0
  2
TFIELD_00013
 70
     0
 10
517.5404011
 20
-327.97146995
 30
0.0
  0
TEXT
  5
216
  8
TXT_ALL
 10
517.5404011
 20
-328.72146995
 30
0.0
 40
1.5
  1
Onderdeel van
  7
ARIAL
  0
ENDBLK
  8
0
  0
BLOCK
  8
0
  2
_B_M_P___00014
 70
     0
 10
483.42812119
 20
-324.67927804
 30
0.0
  0
ENDBLK
  8
0
  0
BLOCK
  8
0
  2
_B_M_P___00015
 70
     0
 10
531.60117995
 20
-330.3619601
 30
0.0
  0
ENDBLK
  8
0
  0
BLOCK
  8
0
  2
_ANS0003_00016
 70
     0
 10
0.0
 20
0.0
 30
0.0
  0
INSERT
  5
21D
  8
0
  2
_A3D0003_00017
 10
0.0
 20
0.0
 30
0.0
  0
ENDBLK
  8
0
  0
BLOCK
  8
0
  2
_A3D0003_00017
 70
     0
 10
0.0
 20
0.0
 30
0.0
  0
INSERT
  5
220
  8
0
  2
PLAATWERK__D___5MM_00018
 10
0.0
 20
0.0
 30
0.0
  0
ENDBLK
  8
0
  0
BLOCK
  8
0
  2
PLAATWERK__D___5MM_00018
 70
     0
 10
0.0
 20
0.0
 30
0.0
  0
INSERT
  5
223
  8
0
  2
SHEET_FLANGE_00019
 10
0.0
 20
0.0
 30
0.0
  0
INSERT
  5
224
  8
0
  2
BEND_ZONE_00023
 10
0.0
 20
0.0
 30
0.0
  0
INSERT
  5
225
  8
0
  2
SHEET_FLANGE_00025
 10
0.0
 20
0.0
 30
0.0
  0
ENDBLK
  8
0
  0
BLOCK
  8
0
  2
SHEET_FLANGE_00019
 70
     0
 10
0.0
 20
0.0
 30
0.0
  0
INSERT
  5
228
  8
0
  2
SHEET_FLANGE_00020
 10
181.70181189
 20
-250.16590752
 30
0.0
  0
INSERT
  5
229
  8
0
  2
_00021
 10
0.0
 20
0.0
 30
0.0
  0
ENDBLK
  8
0
  0
BLOCK
  8
0
  2
SHEET_FLANGE_00020
 70
     0
 10
181.70181189
 20
-250.16590752
 30
0.0
  0
LINE
  5
22C
  8
LE_ALL
  6
DOT
 62
     3
 10
181.70181189
 20
-250.16590752
 30
0.0
 11
181.70181189
 21
-250.16590752
 31
0.0
  0
LINE
  5
22D
  8
LE_ALL
  6
DOT
 62
     3
 10
181.70181189
 20
-245.16590752
 30
0.0
 11
181.70181189
 21
-245.16590752
 31
0.0
  0
LINE
  5
22E
  8
LE_ALL
  6
DOT
 62
     3
 10
271.70181189
 20
-250.16590752
 30
0.0
 11
271.70181189
 21
-250.16590752
 31
0.0
  0
POLYLINE
  5
22F
  8
LE_ALL
  6
DOT
 62
     3
 66
     1
 10
0.0
 20
0.0
 30
0.0
 70
     1
  0
VERTEX
  5
230
  8
LE_ALL
  6
DOT
 62
     3
 10
262.90181189
 20
-250.16590752
 30
0.0
  0
VERTEX
  5
231
  8
LE_ALL
  6
DOT
 62
     3
 10
262.90181189
 20
-250.16590752
 30
0.0
  0
SEQEND
  5
232
  8
LE_ALL
  0
LINE
  5
233
  8
LE_ALL
  6
DOT
 62
     3
 10
271.70181189
 20
-245.16590752
 30
0.0
 11
271.70181189
 21
-245.16590752
 31
0.0
  0
POLYLINE
  5
234
  8
LE_ALL
  6
DOT
 62
     3
 66
     1
 10
0.0
 20
0.0
 30
0.0
  0
VERTEX
  5
235
  8
LE_ALL
  6
DOT
 62
     3
 10
262.90181189
 20
-245.16590752
 30
0.0
  0
VERTEX
  5
236
  8
LE_ALL
  6
DOT
 62
     3
 10
262.90181189
 20
-245.16590752
 30
0.0
  0
VERTEX
  5
237
  8
LE_ALL
  6
DOT
 62
     3
 10
262.90181189
 20
-245.16590752
 30
0.0
  0
VERTEX
  5
238
  8
LE_ALL
  6
DOT
 62
     3
 10
262.90181189
 20
-250.16590752
 30
0.0
  0
SEQEND
  5
239
  8
LE_ALL
  0
LINE
  5
23A
  8
LE_ALL
  6
DOT
 62
     3
 10
253.70181189
 20
-250.16590752
 30
0.0
 11
253.70181189
 21
-245.16590752
 31
0.0
  0
LINE
  5
23B
  8
LE_ALL
  6
DOT
 62
     3
 10
206.70181189
 20
-250.16590752
 30
0.0
 11
206.70181189
 21
-245.16590752
 31
0.0
  0
LINE
  5
23C
  8
LE_ALL
  6
DOT
 62
     3
 10
204.20181189
 20
-245.16590752
 30
0.0
 11
204.20181189
 21
-250.16590752
 31
0.0
  0
LINE
  5
23D
  8
LE_ALL
  6
DOT
 62
     3
 10
211.20181189
 20
-245.16590752
 30
0.0
 11
211.20181189
 21
-250.16590752
 31
0.0
  0
LINE
  5
23E
  8
LE_ALL
  6
DOT
 62
     3
 10
224.20181189
 20
-245.16590752
 30
0.0
 11
224.20181189
 21
-250.16590752
 31
0.0
  0
LINE
  5
23F
  8
LE_ALL
  6
DOT
 62
     3
 10
231.20181189
 20
-245.16590752
 30
0.0
 11
231.20181189
 21
-250.16590752
 31
0.0
  0
LINE
  5
240
  8
LE_ALL
  6
DOT
 62
     3
 10
244.20181189
 20
-245.16590752
 30
0.0
 11
244.20181189
 21
-250.16590752
 31
0.0
  0
LINE
  5
241
  8
LE_ALL
  6
DOT
 62
     3
 10
251.20181189
 20
-245.16590752
 30
0.0
 11
251.20181189
 21
-250.16590752
 31
0.0
  0
LINE
  5
242
  8
LE_ALL
 10
262.90181189
 20
-245.16590752
 30
0.0
 11
265.90181189
 21
-245.16590752
 31
0.0
  0
LINE
  5
243
  8
LE_ALL
 10
265.90181189
 20
-250.16590752
 30
0.0
 11
265.90181189
 21
-245.16590752
 31
0.0
  0
LINE
  5
244
  8
LE_ALL
 10
265.90181189
 20
-250.16590752
 30
0.0
 11
262.90181189
 21
-250.16590752
 31
0.0
  0
LINE
  5
245
  8
LE_ALL
 10
271.70181189
 20
-250.16590752
 30
0.0
 11
265.90181189
 21
-250.16590752
 31
0.0
  0
LINE
  5
246
  8
LE_ALL
 10
271.70181189
 20
-250.16590752
 30
0.0
 11
271.70181189
 21
-245.16590752
 31
0.0
  0
LINE
  5
247
  8
LE_ALL
 10
265.90181189
 20
-245.16590752
 30
0.0
 11
271.70181189
 21
-245.16590752
 31
0.0
  0
LINE
  5
248
  8
LE_ALL
  6
DOT
 62
     3
 10
203.20181189
 20
-245.16590752
 30
0.0
 11
203.20181189
 21
-250.16590752
 31
0.0
  0
LINE
  5
249
  8
LE_ALL
  6
DOT
 62
     3
 10
212.20181189
 20
-245.16590752
 30
0.0
 11
212.20181189
 21
-250.16590752
 31
0.0
  0
LINE
  5
24A
  8
LE_ALL
  6
DOT
 62
     3
 10
223.20181189
 20
-245.16590752
 30
0.0
 11
223.20181189
 21
-250.16590752
 31
0.0
  0
LINE
  5
24B
  8
LE_ALL
  6
DOT
 62
     3
 10
232.20181189
 20
-245.16590752
 30
0.0
 11
232.20181189
 21
-250.16590752
 31
0.0
  0
LINE
  5
24C
  8
LE_ALL
  6
DOT
 62
     3
 10
243.20181189
 20
-245.16590752
 30
0.0
 11
243.20181189
 21
-250.16590752
 31
0.0
  0
LINE
  5
24D
  8
LE_ALL
  6
DOT
 62
     3
 10
252.20181189
 20
-245.16590752
 30
0.0
 11
252.20181189
 21
-250.16590752
 31
0.0
  0
LINE
  5
24E
  8
LE_ALL
  6
DOT
 62
     3
 10
200.20181189
 20
-250.16590752
 30
0.0
 11
200.20181189
 21
-245.16590752
 31
0.0
  0
LINE
  5
24F
  8
LE_ALL
  6
DOT
 62
     3
 10
260.20181189
 20
-250.16590752
 30
0.0
 11
260.20181189
 21
-245.16590752
 31
0.0
  0
LINE
  5
250
  8
LE_ALL
 10
262.90181189
 20
-245.16590752
 30
0.0
 11
181.70181189
 21
-245.16590752
 31
0.0
  0
LINE
  5
251
  8
LE_ALL
 10
181.70181189
 20
-250.16590752
 30
0.0
 11
262.90181189
 21
-250.16590752
 31
0.0
  0
LINE
  5
252
  8
LE_ALL
 10
262.90181189
 20
-245.16590752
 30
0.0
 11
262.90181189
 21
-250.16590752
 31
0.0
  0
ENDBLK
  8
0
  0
BLOCK
  8
0
  2
_00021
 70
     0
 10
0.0
 20
0.0
 30
0.0
  0
INSERT
  5
255
  8
0
  2
_00022
 10
207.70181189
 20
-242.91590752
 30
0.0
  0
ENDBLK
  8
0
  0
BLOCK
  8
0
  2
_00022
 70
     0
 10
207.70181189
 20
-242.91590752
 30
0.0
  0
LINE
  5
258
  8
LE_ALL
  6
STRICHPUNKT2
 62
     1
 10
207.70181189
 20
-242.91590752
 30
0.0
 11
207.70181189
 21
-252.41590752
 31
0.0
  0
LINE
  5
259
  8
LE_ALL
  6
STRICHPUNKT2
 62
     1
 10
206.70181189
 20
-242.16590752
 30
0.0
 11
206.70181189
 21
-253.16590752
 31
0.0
  0
LINE
  5
25A
  8
LE_ALL
  6
STRICHPUNKT2
 62
     1
 10
247.70181189
 20
-243.41590752
 30
0.0
 11
247.70181189
 21
-251.91590752
 31
0.0
  0
LINE
  5
25B
  8
LE_ALL
  6
STRICHPUNKT2
 62
     1
 10
253.70181189
 20
-242.16590752
 30
0.0
 11
253.70181189
 21
-253.16590752
 31
0.0
  0
LINE
  5
25C
  8
LE_ALL
  6
STRICHPUNKT2
 62
     1
 10
227.70181189
 20
-243.41590752
 30
0.0
 11
227.70181189
 21
-251.91590752
 31
0.0
  0
LINE
  5
25D
  8
LE_ALL
  6
STRICHPUNKT2
 62
     1
 10
207.70181189
 20
-243.41590752
 30
0.0
 11
207.70181189
 21
-251.91590752
 31
0.0
  0
LINE
  5
25E
  8
LE_ALL
  6
STRICHPUNKT2
 62
     1
 10
227.70181189
 20
-242.91590752
 30
0.0
 11
227.70181189
 21
-252.41590752
 31
0.0
  0
LINE
  5
25F
  8
LE_ALL
  6
STRICHPUNKT2
 62
     1
 10
247.70181189
 20
-242.91590752
 30
0.0
 11
247.70181189
 21
-252.41590752
 31
0.0
  0
ENDBLK
  8
0
  0
BLOCK
  8
0
  2
BEND_ZONE_00023
 70
     0
 10
0.0
 20
0.0
 30
0.0
  0
INSERT
  5
262
  8
0
  2
BEND_ZONE_00024
 10
171.70181189
 20
-240.16590752
 30
0.0
  0
ENDBLK
  8
0
  0
BLOCK
  8
0
  2
BEND_ZONE_00024
 70
     0
 10
171.70181189
 20
-240.16590752
 30
0.0
  0
LINE
  5
265
  8
LE_ALL
  6
DOT
 62
     3
 10
171.70181189
 20
-240.16590752
 30
0.0
 11
171.70181189
 21
-240.16590752
 31
0.0
  0
LINE
  5
266
  8
LE_ALL
  6
DOT
 62
     3
 10
176.70181189
 20
-240.16590752
 30
0.0
 11
176.70181189
 21
-240.16590752
 31
0.0
  0
LINE
  5
267
  8
LE_ALL
  6
DOT
 62
     3
 10
181.70181189
 20
-250.16590752
 30
0.0
 11
181.70181189
 21
-250.16590752
 31
0.0
  0
LINE
  5
268
  8
LE_ALL
  6
DOT
 62
     3
 10
181.70181189
 20
-245.16590752
 30
0.0
 11
181.70181189
 21
-245.16590752
 31
0.0
  0
ARC
  5
269
  8
LE_ALL
 10
181.70181189
 20
-240.16590752
 30
0.0
 40
10.0
 50
180.0
 51
-90.0
  0
ARC
  5
26A
  8
LE_ALL
 10
181.70181189
 20
-240.16590752
 30
0.0
 40
5.0
 50
180.0
 51
-90.0
  0
ENDBLK
  8
0
  0
BLOCK
  8
0
  2
SHEET_FLANGE_00025
 70
     0
 10
0.0
 20
0.0
 30
0.0
  0
INSERT
  5
26D
  8
0
  2
SHEET_FLANGE_00026
 10
171.70181189
 20
-240.16590752
 30
0.0
  0
INSERT
  5
26E
  8
0
  2
_00027
 10
0.0
 20
0.0
 30
0.0
  0
ENDBLK
  8
0
  0
BLOCK
  8
0
  2
SHEET_FLANGE_00026
 70
     0
 10
171.70181189
 20
-240.16590752
 30
0.0
  0
LINE
  5
271
  8
LE_ALL
  6
DOT
 62
     3
 10
171.70181189
 20
-240.16590752
 30
0.0
 11
171.70181189
 21
-240.16590752
 31
0.0
  0
LINE
  5
272
  8
LE_ALL
  6
DOT
 62
     3
 10
176.70181189
 20
-240.16590752
 30
0.0
 11
176.70181189
 21
-240.16590752
 31
0.0
  0
POLYLINE
  5
273
  8
LE_ALL
  6
DOT
 62
     3
 66
     1
 10
0.0
 20
0.0
 30
0.0
 70
     1
  0
VERTEX
  5
274
  8
LE_ALL
  6
DOT
 62
     3
 10
171.70181189
 20
-183.86590752
 30
0.0
  0
VERTEX
  5
275
  8
LE_ALL
  6
DOT
 62
     3
 10
171.70181189
 20
-183.86590752
 30
0.0
  0
SEQEND
  5
276
  8
LE_ALL
  0
LINE
  5
277
  8
LE_ALL
  6
DOT
 62
     3
 10
171.70181189
 20
-175.16590752
 30
0.0
 11
171.70181189
 21
-175.16590752
 31
0.0
  0
LINE
  5
278
  8
LE_ALL
  6
DOT
 62
     3
 10
176.70181189
 20
-183.86590752
 30
0.0
 11
171.70181189
 21
-183.86590752
 31
0.0
  0
LINE
  5
279
  8
LE_ALL
  6
DOT
 62
     3
 10
176.70181189
 20
-175.16590752
 30
0.0
 11
176.70181189
 21
-175.16590752
 31
0.0
  0
POLYLINE
  5
27A
  8
LE_ALL
  6
DOT
 62
     3
 66
     1
 10
0.0
 20
0.0
 30
0.0
 70
     1
  0
VERTEX
  5
27B
  8
LE_ALL
  6
DOT
 62
     3
 10
176.70181189
 20
-183.86590752
 30
0.0
  0
VERTEX
  5
27C
  8
LE_ALL
  6
DOT
 62
     3
 10
176.70181189
 20
-183.86590752
 30
0.0
  0
SEQEND
  5
27D
  8
LE_ALL
  0
LINE
  5
27E
  8
LE_ALL
  6
DOT
 62
     3
 10
171.70181189
 20
-219.66590752
 30
0.0
 11
176.70181189
 21
-219.66590752
 31
0.0
  0
LINE
  5
27F
  8
LE_ALL
  6
DOT
 62
     3
 10
171.70181189
 20
-202.66590752
 30
0.0
 11
176.70181189
 21
-202.66590752
 31
0.0
  0
LINE
  5
280
  8
LE_ALL
  6
DOT
 62
     3
 10
176.70181189
 20
-206.16590752
 30
0.0
 11
171.70181189
 21
-206.16590752
 31
0.0
  0
LINE
  5
281
  8
LE_ALL
  6
DOT
 62
     3
 10
176.70181189
 20
-213.16590752
 30
0.0
 11
171.70181189
 21
-213.16590752
 31
0.0
  0
LINE
  5
282
  8
LE_ALL
  6
DOT
 62
     3
 10
176.70181189
 20
-226.16590752
 30
0.0
 11
171.70181189
 21
-226.16590752
 31
0.0
  0
LINE
  5
283
  8
LE_ALL
  6
DOT
 62
     3
 10
176.70181189
 20
-233.16590752
 30
0.0
 11
171.70181189
 21
-233.16590752
 31
0.0
  0
LINE
  5
284
  8
LE_ALL
  6
DOT
 62
     3
 10
176.70181189
 20
-186.16590752
 30
0.0
 11
171.70181189
 21
-186.16590752
 31
0.0
  0
LINE
  5
285
  8
LE_ALL
  6
DOT
 62
     3
 10
176.70181189
 20
-193.16590752
 30
0.0
 11
171.70181189
 21
-193.16590752
 31
0.0
  0
LINE
  5
286
  8
LE_ALL
 10
171.70181189
 20
-180.96590752
 30
0.0
 11
176.70181189
 21
-180.96590752
 31
0.0
  0
LINE
  5
287
  8
LE_ALL
 10
176.70181189
 20
-175.16590752
 30
0.0
 11
176.70181189
 21
-180.96590752
 31
0.0
  0
LINE
  5
288
  8
LE_ALL
 10
171.70181189
 20
-175.16590752
 30
0.0
 11
176.70181189
 21
-175.16590752
 31
0.0
  0
LINE
  5
289
  8
LE_ALL
 10
171.70181189
 20
-180.96590752
 30
0.0
 11
171.70181189
 21
-175.16590752
 31
0.0
  0
LINE
  5
28A
  8
LE_ALL
 10
171.70181189
 20
-183.86590752
 30
0.0
 11
171.70181189
 21
-180.96590752
 31
0.0
  0
LINE
  5
28B
  8
LE_ALL
 10
176.70181189
 20
-180.96590752
 30
0.0
 11
176.70181189
 21
-183.86590752
 31
0.0
  0
LINE
  5
28C
  8
LE_ALL
  6
DOT
 62
     3
 10
176.70181189
 20
-225.16590752
 30
0.0
 11
171.70181189
 21
-225.16590752
 31
0.0
  0
LINE
  5
28D
  8
LE_ALL
  6
DOT
 62
     3
 10
176.70181189
 20
-234.16590752
 30
0.0
 11
171.70181189
 21
-234.16590752
 31
0.0
  0
LINE
  5
28E
  8
LE_ALL
  6
DOT
 62
     3
 10
176.70181189
 20
-205.16590752
 30
0.0
 11
171.70181189
 21
-205.16590752
 31
0.0
  0
LINE
  5
28F
  8
LE_ALL
  6
DOT
 62
     3
 10
176.70181189
 20
-214.16590752
 30
0.0
 11
171.70181189
 21
-214.16590752
 31
0.0
  0
LINE
  5
290
  8
LE_ALL
  6
DOT
 62
     3
 10
176.70181189
 20
-185.16590752
 30
0.0
 11
171.70181189
 21
-185.16590752
 31
0.0
  0
LINE
  5
291
  8
LE_ALL
  6
DOT
 62
     3
 10
176.70181189
 20
-194.16590752
 30
0.0
 11
171.70181189
 21
-194.16590752
 31
0.0
  0
LINE
  5
292
  8
LE_ALL
  6
DOT
 62
     3
 10
171.70181189
 20
-196.16590752
 30
0.0
 11
176.70181189
 21
-196.16590752
 31
0.0
  0
LINE
  5
293
  8
LE_ALL
  6
DOT
 62
     3
 10
171.70181189
 20
-226.16590752
 30
0.0
 11
176.70181189
 21
-226.16590752
 31
0.0
  0
LINE
  5
294
  8
LE_ALL
 10
171.70181189
 20
-240.16590752
 30
0.0
 11
171.70181189
 21
-183.86590752
 31
0.0
  0
LINE
  5
295
  8
LE_ALL
 10
176.70181189
 20
-183.86590752
 30
0.0
 11
171.70181189
 21
-183.86590752
 31
0.0
  0
LINE
  5
296
  8
LE_ALL
 10
176.70181189
 20
-183.86590752
 30
0.0
 11
176.70181189
 21
-240.16590752
 31
0.0
  0
ENDBLK
  8
0
  0
BLOCK
  8
0
  2
_00027
 70
     0
 10
0.0
 20
0.0
 30
0.0
  0
INSERT
  5
299
  8
0
  2
_00028
 10
178.95181189
 20
-229.66590752
 30
0.0
  0
ENDBLK
  8
0
  0
BLOCK
  8
0
  2
_00028
 70
     0
 10
178.95181189
 20
-229.66590752
 30
0.0
  0
LINE
  5
29C
  8
LE_ALL
  6
STRICHPUNKT2
 62
     1
 10
178.95181189
 20
-229.66590752
 30
0.0
 11
169.45181189
 21
-229.66590752
 31
0.0
  0
LINE
  5
29D
  8
LE_ALL
  6
STRICHPUNKT2
 62
     1
 10
178.45181189
 20
-229.66590752
 30
0.0
 11
169.95181189
 21
-229.66590752
 31
0.0
  0
LINE
  5
29E
  8
LE_ALL
  6
STRICHPUNKT2
 62
     1
 10
178.95181189
 20
-209.66590752
 30
0.0
 11
169.45181189
 21
-209.66590752
 31
0.0
  0
LINE
  5
29F
  8
LE_ALL
  6
STRICHPUNKT2
 62
     1
 10
178.45181189
 20
-209.66590752
 30
0.0
 11
169.95181189
 21
-209.66590752
 31
0.0
  0
LINE
  5
2A0
  8
LE_ALL
  6
STRICHPUNKT2
 62
     1
 10
178.45181189
 20
-189.66590752
 30
0.0
 11
169.95181189
 21
-189.66590752
 31
0.0
  0
LINE
  5
2A1
  8
LE_ALL
  6
STRICHPUNKT2
 62
     1
 10
178.95181189
 20
-189.66590752
 30
0.0
 11
169.45181189
 21
-189.66590752
 31
0.0
  0
LINE
  5
2A2
  8
LE_ALL
  6
STRICHPUNKT2
 62
     1
 10
179.70181189
 20
-219.66590752
 30
0.0
 11
168.70181189
 21
-219.66590752
 31
0.0
  0
LINE
  5
2A3
  8
LE_ALL
  6
STRICHPUNKT2
 62
     1
 10
179.70181189
 20
-202.66590752
 30
0.0
 11
168.70181189
 21
-202.66590752
 31
0.0
  0
ENDBLK
  8
0
  0
BLOCK
  8
0
  2
_ANS0004_00029
 70
     0
 10
0.0
 20
0.0
 30
0.0
  0
INSERT
  5
2A6
  8
0
  2
_A3D0004_00030
 10
0.0
 20
0.0
 30
0.0
  0
ENDBLK
  8
0
  0
BLOCK
  8
0
  2
_A3D0004_00030
 70
     0
 10
0.0
 20
0.0
 30
0.0
  0
INSERT
  5
2A9
  8
0
  2
PLAATWERK__D___5MM_00031
 10
0.0
 20
0.0
 30
0.0
  0
ENDBLK
  8
0
  0
BLOCK
  8
0
  2
PLAATWERK__D___5MM_00031
 70
     0
 10
0.0
 20
0.0
 30
0.0
  0
INSERT
  5
2AC
  8
0
  2
SHEET_FLANGE_00032
 10
0.0
 20
0.0
 30
0.0
  0
INSERT
  5
2AD
  8
0
  2
BEND_ZONE_00036
 10
0.0
 20
0.0
 30
0.0
  0
INSERT
  5
2AE
  8
0
  2
SHEET_FLANGE_00038
 10
0.0
 20
0.0
 30
0.0
  0
ENDBLK
  8
0
  0
BLOCK
  8
0
  2
SHEET_FLANGE_00032
 70
     0
 10
0.0
 20
0.0
 30
0.0
  0
INSERT
  5
2B1
  8
0
  2
SHEET_FLANGE_00033
 10
389.38279381
 20
-250.16590752
 30
0.0
  0
INSERT
  5
2B2
  8
0
  2
_00034
 10
0.0
 20
0.0
 30
0.0
  0
ENDBLK
  8
0
  0
BLOCK
  8
0
  2
SHEET_FLANGE_00033
 70
     0
 10
389.38279381
 20
-250.16590752
 30
0.0
  0
LINE
  5
2B5
  8
LE_ALL
  6
DOT
 62
     3
 10
389.38279381
 20
-250.16590752
 30
0.0
 11
389.38279381
 21
-250.16590752
 31
0.0
  0
LINE
  5
2B6
  8
LE_ALL
  6
DOT
 62
     3
 10
389.38279381
 20
-245.16590752
 30
0.0
 11
389.38279381
 21
-245.16590752
 31
0.0
  0
LINE
  5
2B7
  8
LE_ALL
  6
DOT
 62
     3
 10
319.78279381
 20
-250.16590752
 30
0.0
 11
319.78279381
 21
-250.16590752
 31
0.0
  0
LINE
  5
2B8
  8
LE_ALL
  6
DOT
 62
     3
 10
317.38279381
 20
-250.16590752
 30
0.0
 11
317.38279381
 21
-250.16590752
 31
0.0
  0
LINE
  5
2B9
  8
LE_ALL
  6
DOT
 62
     3
 10
386.98279381
 20
-250.16590752
 30
0.0
 11
386.98279381
 21
-250.16590752
 31
0.0
  0
LINE
  5
2BA
  8
LE_ALL
  6
DOT
 62
     3
 10
346.88279381
 20
-250.16590752
 30
0.0
 11
346.88279381
 21
-250.16590752
 31
0.0
  0
LINE
  5
2BB
  8
LE_ALL
  6
DOT
 62
     3
 10
359.88279381
 20
-250.16590752
 30
0.0
 11
359.88279381
 21
-250.16590752
 31
0.0
  0
LINE
  5
2BC
  8
LE_ALL
  6
DOT
 62
     3
 10
386.98279381
 20
-245.16590752
 30
0.0
 11
386.98279381
 21
-245.16590752
 31
0.0
  0
LINE
  5
2BD
  8
LE_ALL
  6
DOT
 62
     3
 10
317.38279381
 20
-245.16590752
 30
0.0
 11
317.38279381
 21
-245.16590752
 31
0.0
  0
LINE
  5
2BE
  8
LE_ALL
  6
DOT
 62
     3
 10
319.78279381
 20
-245.16590752
 30
0.0
 11
319.78279381
 21
-245.16590752
 31
0.0
  0
LINE
  5
2BF
  8
LE_ALL
  6
DOT
 62
     3
 10
359.88279381
 20
-245.16590752
 30
0.0
 11
359.88279381
 21
-245.16590752
 31
0.0
  0
LINE
  5
2C0
  8
LE_ALL
  6
DOT
 62
     3
 10
346.88279381
 20
-245.16590752
 30
0.0
 11
346.88279381
 21
-245.16590752
 31
0.0
  0
LINE
  5
2C1
  8
LE_ALL
  6
DOT
 62
     3
 10
359.88279381
 20
-250.16590752
 30
0.0
 11
359.88279381
 21
-245.16590752
 31
0.0
  0
LINE
  5
2C2
  8
LE_ALL
  6
DOT
 62
     3
 10
346.88279381
 20
-250.16590752
 30
0.0
 11
346.88279381
 21
-245.16590752
 31
0.0
  0
LINE
  5
2C3
  8
LE_ALL
 10
389.38279381
 20
-250.16590752
 30
0.0
 11
386.98279381
 21
-250.16590752
 31
0.0
  0
POLYLINE
  5
2C4
  8
LE_ALL
 66
     1
 10
0.0
 20
0.0
 30
0.0
  0
VERTEX
  5
2C5
  8
LE_ALL
 10
386.98279381
 20
-245.16590752
 30
0.0
  0
VERTEX
  5
2C6
  8
LE_ALL
 10
389.38279381
 20
-245.16590752
 30
0.0
  0
VERTEX
  5
2C7
  8
LE_ALL
 10
389.38279381
 20
-250.16590752
 30
0.0
  0
SEQEND
  5
2C8
  8
LE_ALL
  0
LINE
  5
2C9
  8
LE_ALL
 10
319.78279381
 20
-250.16590752
 30
0.0
 11
317.38279381
 21
-250.16590752
 31
0.0
  0
LINE
  5
2CA
  8
LE_ALL
 10
317.38279381
 20
-245.16590752
 30
0.0
 11
317.38279381
 21
-250.16590752
 31
0.0
  0
LINE
  5
2CB
  8
LE_ALL
 10
317.38279381
 20
-245.16590752
 30
0.0
 11
319.78279381
 21
-245.16590752
 31
0.0
  0
LINE
  5
2CC
  8
LE_ALL
  6
DOT
 62
     3
 10
367.38279381
 20
-245.16590752
 30
0.0
 11
367.38279381
 21
-250.16590752
 31
0.0
  0
LINE
  5
2CD
  8
LE_ALL
  6
DOT
 62
     3
 10
374.38279381
 20
-245.16590752
 30
0.0
 11
374.38279381
 21
-250.16590752
 31
0.0
  0
LINE
  5
2CE
  8
LE_ALL
  6
DOT
 62
     3
 10
332.38279381
 20
-245.16590752
 30
0.0
 11
332.38279381
 21
-250.16590752
 31
0.0
  0
LINE
  5
2CF
  8
LE_ALL
  6
DOT
 62
     3
 10
339.38279381
 20
-245.16590752
 30
0.0
 11
339.38279381
 21
-250.16590752
 31
0.0
  0
LINE
  5
2D0
  8
LE_ALL
  6
DOT
 62
     3
 10
331.38279381
 20
-245.16590752
 30
0.0
 11
331.38279381
 21
-250.16590752
 31
0.0
  0
LINE
  5
2D1
  8
LE_ALL
  6
DOT
 62
     3
 10
340.38279381
 20
-245.16590752
 30
0.0
 11
340.38279381
 21
-250.16590752
 31
0.0
  0
LINE
  5
2D2
  8
LE_ALL
  6
DOT
 62
     3
 10
366.38279381
 20
-245.16590752
 30
0.0
 11
366.38279381
 21
-250.16590752
 31
0.0
  0
LINE
  5
2D3
  8
LE_ALL
  6
DOT
 62
     3
 10
375.38279381
 20
-245.16590752
 30
0.0
 11
375.38279381
 21
-250.16590752
 31
0.0
  0
LINE
  5
2D4
  8
LE_ALL
 10
381.18279381
 20
-245.16590752
 30
0.0
 11
325.58279381
 21
-245.16590752
 31
0.0
  0
LINE
  5
2D5
  8
LE_ALL
 10
325.58279381
 20
-250.16590752
 30
0.0
 11
325.58279381
 21
-245.16590752
 31
0.0
  0
POLYLINE
  5
2D6
  8
LE_ALL
 66
     1
 10
0.0
 20
0.0
 30
0.0
  0
VERTEX
  5
2D7
  8
LE_ALL
 10
325.58279381
 20
-250.16590752
 30
0.0
  0
VERTEX
  5
2D8
  8
LE_ALL
 10
381.18279381
 20
-250.16590752
 30
0.0
  0
VERTEX
  5
2D9
  8
LE_ALL
 10
381.18279381
 20
-245.16590752
 30
0.0
  0
VERTEX
  5
2DA
  8
LE_ALL
 10
386.98279381
 20
-245.16590752
 30
0.0
  0
SEQEND
  5
2DB
  8
LE_ALL
  0
LINE
  5
2DC
  8
LE_ALL
 10
386.98279381
 20
-250.16590752
 30
0.0
 11
386.98279381
 21
-245.16590752
 31
0.0
  0
LINE
  5
2DD
  8
LE_ALL
 10
386.98279381
 20
-250.16590752
 30
0.0
 11
381.18279381
 21
-250.16590752
 31
0.0
  0
POLYLINE
  5
2DE
  8
LE_ALL
 66
     1
 10
0.0
 20
0.0
 30
0.0
  0
VERTEX
  5
2DF
  8
LE_ALL
 10
325.58279381
 20
-250.16590752
 30
0.0
  0
VERTEX
  5
2E0
  8
LE_ALL
 10
319.78279381
 20
-250.16590752
 30
0.0
  0
VERTEX
  5
2E1
  8
LE_ALL
 10
319.78279381
 20
-245.16590752
 30
0.0
  0
VERTEX
  5
2E2
  8
LE_ALL
 10
325.58279381
 20
-245.16590752
 30
0.0
  0
SEQEND
  5
2E3
  8
LE_ALL
  0
ENDBLK
  8
0
  0
BLOCK
  8
0
  2
_00034
 70
     0
 10
0.0
 20
0.0
 30
0.0
  0
INSERT
  5
2E6
  8
0
  2
_00035
 10
370.88279381
 20
-242.91590752
 30
0.0
  0
ENDBLK
  8
0
  0
BLOCK
  8
0
  2
_00035
 70
     0
 10
370.88279381
 20
-242.91590752
 30
0.0
  0
LINE
  5
2E9
  8
LE_ALL
  6
STRICHPUNKT2
 62
     1
 10
370.88279381
 20
-242.91590752
 30
0.0
 11
370.88279381
 21
-252.41590752
 31
0.0
  0
LINE
  5
2EA
  8
LE_ALL
  6
STRICHPUNKT2
 62
     1
 10
335.88279381
 20
-243.41590752
 30
0.0
 11
335.88279381
 21
-251.91590752
 31
0.0
  0
LINE
  5
2EB
  8
LE_ALL
  6
STRICHPUNKT2
 62
     1
 10
353.38279381
 20
-242.16590752
 30
0.0
 11
353.38279381
 21
-253.16590752
 31
0.0
  0
LINE
  5
2EC
  8
LE_ALL
  6
STRICHPUNKT2
 62
     1
 10
353.38279381
 20
-242.16590752
 30
0.0
 11
353.38279381
 21
-253.16590752
 31
0.0
  0
LINE
  5
2ED
  8
LE_ALL
  6
STRICHPUNKT2
 62
     1
 10
335.88279381
 20
-242.91590752
 30
0.0
 11
335.88279381
 21
-252.41590752
 31
0.0
  0
LINE
  5
2EE
  8
LE_ALL
  6
STRICHPUNKT2
 62
     1
 10
335.88279381
 20
-243.41590752
 30
0.0
 11
335.88279381
 21
-251.91590752
 31
0.0
  0
LINE
  5
2EF
  8
LE_ALL
  6
STRICHPUNKT2
 62
     1
 10
370.88279381
 20
-243.41590752
 30
0.0
 11
370.88279381
 21
-251.91590752
 31
0.0
  0
LINE
  5
2F0
  8
LE_ALL
  6
STRICHPUNKT2
 62
     1
 10
370.88279381
 20
-242.91590752
 30
0.0
 11
370.88279381
 21
-252.41590752
 31
0.0
  0
ENDBLK
  8
0
  0
BLOCK
  8
0
  2
BEND_ZONE_00036
 70
     0
 10
0.0
 20
0.0
 30
0.0
  0
INSERT
  5
2F3
  8
0
  2
BEND_ZONE_00037
 10
317.38279381
 20
-245.16590752
 30
0.0
  0
ENDBLK
  8
0
  0
BLOCK
  8
0
  2
BEND_ZONE_00037
 70
     0
 10
317.38279381
 20
-245.16590752
 30
0.0
  0
LINE
  5
2F6
  8
LE_ALL
 10
317.38279381
 20
-245.16590752
 30
0.0
 11
389.38279381
 21
-245.16590752
 31
0.0
  0
LINE
  5
2F7
  8
LE_ALL
 10
317.38279381
 20
-240.16590752
 30
0.0
 11
317.38279381
 21
-245.16590752
 31
0.0
  0
LINE
  5
2F8
  8
LE_ALL
 10
317.38279381
 20
-240.16590752
 30
0.0
 11
389.38279381
 21
-240.16590752
 31
0.0
  0
LINE
  5
2F9
  8
LE_ALL
 10
389.38279381
 20
-245.16590752
 30
0.0
 11
389.38279381
 21
-240.16590752
 31
0.0
  0
ENDBLK
  8
0
  0
BLOCK
  8
0
  2
SHEET_FLANGE_00038
 70
     0
 10
0.0
 20
0.0
 30
0.0
  0
INSERT
  5
2FC
  8
0
  2
SHEET_FLANGE_00039
 10
317.38279381
 20
-183.86590752
 30
0.0
  0
INSERT
  5
2FD
  8
0
  2
_00040
 10
0.0
 20
0.0
 30
0.0
  0
ENDBLK
  8
0
  0
BLOCK
  8
0
  2
SHEET_FLANGE_00039
 70
     0
 10
317.38279381
 20
-183.86590752
 30
0.0
  0
LINE
  5
300
  8
LE_ALL
  6
DOT
 62
     3
 10
317.38279381
 20
-183.86590752
 30
0.0
 11
317.38279381
 21
-183.86590752
 31
0.0
  0
LINE
  5
301
  8
LE_ALL
  6
DOT
 62
     3
 10
386.28279381
 20
-183.86590752
 30
0.0
 11
386.28279381
 21
-183.86590752
 31
0.0
  0
LINE
  5
302
  8
LE_ALL
  6
DOT
 62
     3
 10
386.28279381
 20
-180.96590752
 30
0.0
 11
386.28279381
 21
-180.96590752
 31
0.0
  0
LINE
  5
303
  8
LE_ALL
  6
DOT
 62
     3
 10
326.28279381
 20
-175.16590752
 30
0.0
 11
326.28279381
 21
-175.16590752
 31
0.0
  0
LINE
  5
304
  8
LE_ALL
  6
DOT
 62
     3
 10
380.48279381
 20
-175.16590752
 30
0.0
 11
380.48279381
 21
-175.16590752
 31
0.0
  0
LINE
  5
305
  8
LE_ALL
  6
DOT
 62
     3
 10
320.48279381
 20
-180.96590752
 30
0.0
 11
320.48279381
 21
-180.96590752
 31
0.0
  0
LINE
  5
306
  8
LE_ALL
  6
DOT
 62
     3
 10
320.48279381
 20
-183.86590752
 30
0.0
 11
320.48279381
 21
-183.86590752
 31
0.0
  0
LINE
  5
307
  8
LE_ALL
  6
DOT
 62
     3
 10
389.38279381
 20
-183.86590752
 30
0.0
 11
389.38279381
 21
-183.86590752
 31
0.0
  0
LINE
  5
308
  8
LE_ALL
  6
DOT
 62
     3
 10
346.88279381
 20
-219.66590752
 30
0.0
 11
346.88279381
 21
-219.66590752
 31
0.0
  0
LINE
  5
309
  8
LE_ALL
  6
DOT
 62
     3
 10
359.88279381
 20
-219.66590752
 30
0.0
 11
359.88279381
 21
-219.66590752
 31
0.0
  0
LINE
  5
30A
  8
LE_ALL
  6
DOT
 62
     3
 10
346.88279381
 20
-202.66590752
 30
0.0
 11
346.88279381
 21
-202.66590752
 31
0.0
  0
LINE
  5
30B
  8
LE_ALL
  6
DOT
 62
     3
 10
359.88279381
 20
-202.66590752
 30
0.0
 11
359.88279381
 21
-202.66590752
 31
0.0
  0
POLYLINE
  5
30C
  8
LE_ALL
 66
     1
 10
0.0
 20
0.0
 30
0.0
 70
     1
  0
VERTEX
  5
30D
  8
LE_ALL
 10
359.88279381
 20
-219.66590752
 30
0.0
 42
-1.0
  0
VERTEX
  5
30E
  8
LE_ALL
 10
346.88279381
 20
-219.66590752
 30
0.0
  0
VERTEX
  5
30F
  8
LE_ALL
 10
346.88279381
 20
-202.66590752
 30
0.0
 42
-1.0
  0
VERTEX
  5
310
  8
LE_ALL
 10
359.88279381
 20
-202.66590752
 30
0.0
  0
SEQEND
  5
311
  8
LE_ALL
  0
CIRCLE
  5
312
  8
LE_ALL
 10
370.88279381
 20
-209.66590752
 30
0.0
 40
4.5
  0
CIRCLE
  5
313
  8
LE_ALL
 10
335.88279381
 20
-209.66590752
 30
0.0
 40
3.5
  0
CIRCLE
  5
314
  8
LE_ALL
 10
370.88279381
 20
-189.66590752
 30
0.0
 40
3.5
  0
CIRCLE
  5
315
  8
LE_ALL
 10
370.88279381
 20
-229.66590752
 30
0.0
 40
3.5
  0
CIRCLE
  5
316
  8
LE_ALL
 10
335.88279381
 20
-189.66590752
 30
0.0
 40
4.5
  0
CIRCLE
  5
317
  8
LE_ALL
 10
335.88279381
 20
-229.66590752
 30
0.0
 40
4.5
  0
POLYLINE
  5
318
  8
LE_ALL
 66
     1
 10
0.0
 20
0.0
 30
0.0
 70
     1
  0
VERTEX
  5
319
  8
LE_ALL
 10
380.48279381
 20
-175.16590752
 30
0.0
  0
VERTEX
  5
31A
  8
LE_ALL
 10
326.28279381
 20
-175.16590752
 30
0.0
  0
VERTEX
  5
31B
  8
LE_ALL
 10
320.48279381
 20
-180.96590752
 30
0.0
  0
VERTEX
  5
31C
  8
LE_ALL
 10
320.48279381
 20
-183.86590752
 30
0.0
  0
VERTEX
  5
31D
  8
LE_ALL
 10
317.38279381
 20
-183.86590752
 30
0.0
  0
VERTEX
  5
31E
  8
LE_ALL
 10
317.38279381
 20
-240.16590752
 30
0.0
  0
VERTEX
  5
31F
  8
LE_ALL
 10
389.38279381
 20
-240.16590752
 30
0.0
  0
VERTEX
  5
320
  8
LE_ALL
 10
389.38279381
 20
-183.86590752
 30
0.0
  0
VERTEX
  5
321
  8
LE_ALL
 10
386.28279381
 20
-183.86590752
 30
0.0
  0
VERTEX
  5
322
  8
LE_ALL
 10
386.28279381
 20
-180.96590752
 30
0.0
  0
SEQEND
  5
323
  8
LE_ALL
  0
ENDBLK
  8
0
  0
BLOCK
  8
0
  2
_00040
 70
     0
 10
0.0
 20
0.0
 30
0.0
  0
INSERT
  5
326
  8
0
  2
_00041
 10
335.88279381
 20
-229.66590752
 30
0.0
  0
ENDBLK
  8
0
  0
BLOCK
  8
0
  2
_00041
 70
     0
 10
335.88279381
 20
-229.66590752
 30
0.0
  0
LINE
  5
329
  8
LE_ALL
  6
STRICHPUNKT2
 62
     1
 10
335.88279381
 20
-229.66590752
 30
0.0
 11
342.63279381
 21
-229.66590752
 31
0.0
  0
LINE
  5
32A
  8
LE_ALL
  6
STRICHPUNKT2
 62
     1
 10
335.88279381
 20
-229.66590752
 30
0.0
 11
329.13279381
 21
-229.66590752
 31
0.0
  0
LINE
  5
32B
  8
LE_ALL
  6
STRICHPUNKT2
 62
     1
 10
335.88279381
 20
-229.66590752
 30
0.0
 11
335.88279381
 21
-222.91590752
 31
0.0
  0
LINE
  5
32C
  8
LE_ALL
  6
STRICHPUNKT2
 62
     1
 10
335.88279381
 20
-229.66590752
 30
0.0
 11
335.88279381
 21
-236.41590752
 31
0.0
  0
LINE
  5
32D
  8
LE_ALL
  6
STRICHPUNKT2
 62
     1
 10
335.88279381
 20
-229.66590752
 30
0.0
 11
342.63279381
 21
-229.66590752
 31
0.0
  0
LINE
  5
32E
  8
LE_ALL
  6
STRICHPUNKT2
 62
     1
 10
335.88279381
 20
-229.66590752
 30
0.0
 11
329.13279381
 21
-229.66590752
 31
0.0
  0
LINE
  5
32F
  8
LE_ALL
  6
STRICHPUNKT2
 62
     1
 10
335.88279381
 20
-229.66590752
 30
0.0
 11
335.88279381
 21
-222.91590752
 31
0.0
  0
LINE
  5
330
  8
LE_ALL
  6
STRICHPUNKT2
 62
     1
 10
335.88279381
 20
-229.66590752
 30
0.0
 11
335.88279381
 21
-236.41590752
 31
0.0
  0
LINE
  5
331
  8
LE_ALL
  6
STRICHPUNKT2
 62
     1
 10
335.88279381
 20
-189.66590752
 30
0.0
 11
342.63279381
 21
-189.66590752
 31
0.0
  0
LINE
  5
332
  8
LE_ALL
  6
STRICHPUNKT2
 62
     1
 10
335.88279381
 20
-189.66590752
 30
0.0
 11
329.13279381
 21
-189.66590752
 31
0.0
  0
LINE
  5
333
  8
LE_ALL
  6
STRICHPUNKT2
 62
     1
 10
335.88279381
 20
-189.66590752
 30
0.0
 11
335.88279381
 21
-182.91590752
 31
0.0
  0
LINE
  5
334
  8
LE_ALL
  6
STRICHPUNKT2
 62
     1
 10
335.88279381
 20
-189.66590752
 30
0.0
 11
335.88279381
 21
-196.41590752
 31
0.0
  0
LINE
  5
335
  8
LE_ALL
  6
STRICHPUNKT2
 62
     1
 10
335.88279381
 20
-189.66590752
 30
0.0
 11
342.63279381
 21
-189.66590752
 31
0.0
  0
LINE
  5
336
  8
LE_ALL
  6
STRICHPUNKT2
 62
     1
 10
335.88279381
 20
-189.66590752
 30
0.0
 11
329.13279381
 21
-189.66590752
 31
0.0
  0
LINE
  5
337
  8
LE_ALL
  6
STRICHPUNKT2
 62
     1
 10
335.88279381
 20
-189.66590752
 30
0.0
 11
335.88279381
 21
-182.91590752
 31
0.0
  0
LINE
  5
338
  8
LE_ALL
  6
STRICHPUNKT2
 62
     1
 10
335.88279381
 20
-189.66590752
 30
0.0
 11
335.88279381
 21
-196.41590752
 31
0.0
  0
LINE
  5
339
  8
LE_ALL
  6
STRICHPUNKT2
 62
     1
 10
370.88279381
 20
-229.66590752
 30
0.0
 11
376.13279381
 21
-229.66590752
 31
0.0
  0
LINE
  5
33A
  8
LE_ALL
  6
STRICHPUNKT2
 62
     1
 10
370.88279381
 20
-229.66590752
 30
0.0
 11
365.63279381
 21
-229.66590752
 31
0.0
  0
LINE
  5
33B
  8
LE_ALL
  6
STRICHPUNKT2
 62
     1
 10
370.88279381
 20
-229.66590752
 30
0.0
 11
370.88279381
 21
-224.41590752
 31
0.0
  0
LINE
  5
33C
  8
LE_ALL
  6
STRICHPUNKT2
 62
     1
 10
370.88279381
 20
-229.66590752
 30
0.0
 11
370.88279381
 21
-234.91590752
 31
0.0
  0
LINE
  5
33D
  8
LE_ALL
  6
STRICHPUNKT2
 62
     1
 10
370.88279381
 20
-229.66590752
 30
0.0
 11
376.13279381
 21
-229.66590752
 31
0.0
  0
LINE
  5
33E
  8
LE_ALL
  6
STRICHPUNKT2
 62
     1
 10
370.88279381
 20
-229.66590752
 30
0.0
 11
365.63279381
 21
-229.66590752
 31
0.0
  0
LINE
  5
33F
  8
LE_ALL
  6
STRICHPUNKT2
 62
     1
 10
370.88279381
 20
-229.66590752
 30
0.0
 11
370.88279381
 21
-224.41590752
 31
0.0
  0
LINE
  5
340
  8
LE_ALL
  6
STRICHPUNKT2
 62
     1
 10
370.88279381
 20
-229.66590752
 30
0.0
 11
370.88279381
 21
-234.91590752
 31
0.0
  0
LINE
  5
341
  8
LE_ALL
  6
STRICHPUNKT2
 62
     1
 10
370.88279381
 20
-189.66590752
 30
0.0
 11
376.13279381
 21
-189.66590752
 31
0.0
  0
LINE
  5
342
  8
LE_ALL
  6
STRICHPUNKT2
 62
     1
 10
370.88279381
 20
-189.66590752
 30
0.0
 11
365.63279381
 21
-189.66590752
 31
0.0
  0
LINE
  5
343
  8
LE_ALL
  6
STRICHPUNKT2
 62
     1
 10
370.88279381
 20
-189.66590752
 30
0.0
 11
370.88279381
 21
-184.41590752
 31
0.0
  0
LINE
  5
344
  8
LE_ALL
  6
STRICHPUNKT2
 62
     1
 10
370.88279381
 20
-189.66590752
 30
0.0
 11
370.88279381
 21
-194.91590752
 31
0.0
  0
LINE
  5
345
  8
LE_ALL
  6
STRICHPUNKT2
 62
     1
 10
370.88279381
 20
-189.66590752
 30
0.0
 11
376.13279381
 21
-189.66590752
 31
0.0
  0
LINE
  5
346
  8
LE_ALL
  6
STRICHPUNKT2
 62
     1
 10
370.88279381
 20
-189.66590752
 30
0.0
 11
365.63279381
 21
-189.66590752
 31
0.0
  0
LINE
  5
347
  8
LE_ALL
  6
STRICHPUNKT2
 62
     1
 10
370.88279381
 20
-189.66590752
 30
0.0
 11
370.88279381
 21
-184.41590752
 31
0.0
  0
LINE
  5
348
  8
LE_ALL
  6
STRICHPUNKT2
 62
     1
 10
370.88279381
 20
-189.66590752
 30
0.0
 11
370.88279381
 21
-194.91590752
 31
0.0
  0
LINE
  5
349
  8
LE_ALL
  6
STRICHPUNKT2
 62
     1
 10
335.88279381
 20
-209.66590752
 30
0.0
 11
341.13279381
 21
-209.66590752
 31
0.0
  0
LINE
  5
34A
  8
LE_ALL
  6
STRICHPUNKT2
 62
     1
 10
335.88279381
 20
-209.66590752
 30
0.0
 11
330.63279381
 21
-209.66590752
 31
0.0
  0
LINE
  5
34B
  8
LE_ALL
  6
STRICHPUNKT2
 62
     1
 10
335.88279381
 20
-209.66590752
 30
0.0
 11
335.88279381
 21
-204.41590752
 31
0.0
  0
LINE
  5
34C
  8
LE_ALL
  6
STRICHPUNKT2
 62
     1
 10
335.88279381
 20
-209.66590752
 30
0.0
 11
335.88279381
 21
-214.91590752
 31
0.0
  0
LINE
  5
34D
  8
LE_ALL
  6
STRICHPUNKT2
 62
     1
 10
335.88279381
 20
-209.66590752
 30
0.0
 11
341.13279381
 21
-209.66590752
 31
0.0
  0
LINE
  5
34E
  8
LE_ALL
  6
STRICHPUNKT2
 62
     1
 10
335.88279381
 20
-209.66590752
 30
0.0
 11
330.63279381
 21
-209.66590752
 31
0.0
  0
LINE
  5
34F
  8
LE_ALL
  6
STRICHPUNKT2
 62
     1
 10
335.88279381
 20
-209.66590752
 30
0.0
 11
335.88279381
 21
-204.41590752
 31
0.0
  0
LINE
  5
350
  8
LE_ALL
  6
STRICHPUNKT2
 62
     1
 10
335.88279381
 20
-209.66590752
 30
0.0
 11
335.88279381
 21
-214.91590752
 31
0.0
  0
LINE
  5
351
  8
LE_ALL
  6
STRICHPUNKT2
 62
     1
 10
370.88279381
 20
-209.66590752
 30
0.0
 11
377.63279381
 21
-209.66590752
 31
0.0
  0
LINE
  5
352
  8
LE_ALL
  6
STRICHPUNKT2
 62
     1
 10
370.88279381
 20
-209.66590752
 30
0.0
 11
364.13279381
 21
-209.66590752
 31
0.0
  0
LINE
  5
353
  8
LE_ALL
  6
STRICHPUNKT2
 62
     1
 10
370.88279381
 20
-209.66590752
 30
0.0
 11
370.88279381
 21
-202.91590752
 31
0.0
  0
LINE
  5
354
  8
LE_ALL
  6
STRICHPUNKT2
 62
     1
 10
370.88279381
 20
-209.66590752
 30
0.0
 11
370.88279381
 21
-216.41590752
 31
0.0
  0
LINE
  5
355
  8
LE_ALL
  6
STRICHPUNKT2
 62
     1
 10
370.88279381
 20
-209.66590752
 30
0.0
 11
377.63279381
 21
-209.66590752
 31
0.0
  0
LINE
  5
356
  8
LE_ALL
  6
STRICHPUNKT2
 62
     1
 10
370.88279381
 20
-209.66590752
 30
0.0
 11
364.13279381
 21
-209.66590752
 31
0.0
  0
LINE
  5
357
  8
LE_ALL
  6
STRICHPUNKT2
 62
     1
 10
370.88279381
 20
-209.66590752
 30
0.0
 11
370.88279381
 21
-202.91590752
 31
0.0
  0
LINE
  5
358
  8
LE_ALL
  6
STRICHPUNKT2
 62
     1
 10
370.88279381
 20
-209.66590752
 30
0.0
 11
370.88279381
 21
-216.41590752
 31
0.0
  0
LINE
  5
359
  8
LE_ALL
  6
STRICHPUNKT2
 62
     1
 10
353.38279381
 20
-229.16590752
 30
0.0
 11
353.38279381
 21
-193.16590752
 31
0.0
  0
LINE
  5
35A
  8
LE_ALL
  6
STRICHPUNKT2
 62
     1
 10
362.88279381
 20
-219.66590752
 30
0.0
 11
343.88279381
 21
-219.66590752
 31
0.0
  0
LINE
  5
35B
  8
LE_ALL
  6
STRICHPUNKT2
 62
     1
 10
362.88279381
 20
-202.66590752
 30
0.0
 11
343.88279381
 21
-202.66590752
 31
0.0
  0
LINE
  5
35C
  8
LE_ALL
  6
STRICHPUNKT2
 62
     1
 10
353.38279381
 20
-229.16590752
 30
0.0
 11
353.38279381
 21
-193.16590752
 31
0.0
  0
LINE
  5
35D
  8
LE_ALL
  6
STRICHPUNKT2
 62
     1
 10
362.88279381
 20
-219.66590752
 30
0.0
 11
343.88279381
 21
-219.66590752
 31
0.0
  0
LINE
  5
35E
  8
LE_ALL
  6
STRICHPUNKT2
 62
     1
 10
362.88279381
 20
-202.66590752
 30
0.0
 11
343.88279381
 21
-202.66590752
 31
0.0
  0
ENDBLK
  8
0
  0
BLOCK
  8
0
  2
_ANS0005_00042
 70
     0
 10
0.0
 20
0.0
 30
0.0
  0
INSERT
  5
361
  8
0
  2
_A3D0005_00043
 10
0.0
 20
0.0
 30
0.0
  0
ENDBLK
  8
0
  0
BLOCK
  8
0
  2
_A3D0005_00043
 70
     0
 10
0.0
 20
0.0
 30
0.0
  0
INSERT
  5
364
  8
0
  2
PLAATWERK__D___5MM_00044
 10
0.0
 20
0.0
 30
0.0
  0
ENDBLK
  8
0
  0
BLOCK
  8
0
  2
PLAATWERK__D___5MM_00044
 70
     0
 10
0.0
 20
0.0
 30
0.0
  0
INSERT
  5
367
  8
0
  2
SHEET_FLANGE_00045
 10
0.0
 20
0.0
 30
0.0
  0
INSERT
  5
368
  8
0
  2
BEND_ZONE_00049
 10
0.0
 20
0.0
 30
0.0
  0
INSERT
  5
369
  8
0
  2
SHEET_FLANGE_00051
 10
0.0
 20
0.0
 30
0.0
  0
ENDBLK
  8
0
  0
BLOCK
  8
0
  2
SHEET_FLANGE_00045
 70
     0
 10
0.0
 20
0.0
 30
0.0
  0
INSERT
  5
36C
  8
0
  2
SHEET_FLANGE_00046
 10
256.37695347
 20
-74.17601346
 30
0.0
  0
INSERT
  5
36D
  8
0
  2
_00047
 10
0.0
 20
0.0
 30
0.0
  0
ENDBLK
  8
0
  0
BLOCK
  8
0
  2
SHEET_FLANGE_00046
 70
     0
 10
256.37695347
 20
-74.17601346
 30
0.0
  0
LINE
  5
370
  8
LE_ALL
  6
DOT
 62
     3
 10
256.37695347
 20
-74.17601346
 30
0.0
 11
256.37695347
 21
-74.17601346
 31
0.0
  0
LINE
  5
371
  8
LE_ALL
  6
DOT
 62
     3
 10
265.17695347
 20
-137.97601346
 30
0.0
 11
265.17695347
 21
-137.97601346
 31
0.0
  0
LINE
  5
372
  8
LE_ALL
  6
DOT
 62
     3
 10
265.17695347
 20
-82.37601346
 30
0.0
 11
265.17695347
 21
-82.37601346
 31
0.0
  0
LINE
  5
373
  8
LE_ALL
  6
DOT
 62
     3
 10
256.37695347
 20
-76.57601346
 30
0.0
 11
256.37695347
 21
-76.57601346
 31
0.0
  0
LINE
  5
374
  8
LE_ALL
  6
DOT
 62
     3
 10
259.37695347
 20
-76.57601346
 30
0.0
 11
259.37695347
 21
-76.57601346
 31
0.0
  0
LINE
  5
375
  8
LE_ALL
  6
DOT
 62
     3
 10
256.37695347
 20
-146.17601346
 30
0.0
 11
256.37695347
 21
-146.17601346
 31
0.0
  0
LINE
  5
376
  8
LE_ALL
  6
DOT
 62
     3
 10
256.37695347
 20
-143.77601346
 30
0.0
 11
256.37695347
 21
-143.77601346
 31
0.0
  0
LINE
  5
377
  8
LE_ALL
  6
DOT
 62
     3
 10
259.37695347
 20
-143.77601346
 30
0.0
 11
259.37695347
 21
-143.77601346
 31
0.0
  0
LINE
  5
378
  8
LE_ALL
  6
DOT
 62
     3
 10
200.17695347
 20
-103.67601346
 30
0.0
 11
200.17695347
 21
-103.67601346
 31
0.0
  0
LINE
  5
379
  8
LE_ALL
  6
DOT
 62
     3
 10
200.17695347
 20
-116.67601346
 30
0.0
 11
200.17695347
 21
-116.67601346
 31
0.0
  0
LINE
  5
37A
  8
LE_ALL
  6
DOT
 62
     3
 10
247.17695347
 20
-103.67601346
 30
0.0
 11
247.17695347
 21
-103.67601346
 31
0.0
  0
LINE
  5
37B
  8
LE_ALL
  6
DOT
 62
     3
 10
247.17695347
 20
-116.67601346
 30
0.0
 11
247.17695347
 21
-116.67601346
 31
0.0
  0
POLYLINE
  5
37C
  8
LE_ALL
 66
     1
 10
0.0
 20
0.0
 30
0.0
 70
     1
  0
VERTEX
  5
37D
  8
LE_ALL
 10
200.17695347
 20
-116.67601346
 30
0.0
 42
-1.0
  0
VERTEX
  5
37E
  8
LE_ALL
 10
200.17695347
 20
-103.67601346
 30
0.0
  0
VERTEX
  5
37F
  8
LE_ALL
 10
247.17695347
 20
-103.67601346
 30
0.0
 42
-1.0
  0
VERTEX
  5
380
  8
LE_ALL
 10
247.17695347
 20
-116.67601346
 30
0.0
  0
SEQEND
  5
381
  8
LE_ALL
  0
CIRCLE
  5
382
  8
LE_ALL
 10
221.17695347
 20
-127.67601346
 30
0.0
 40
4.5
  0
CIRCLE
  5
383
  8
LE_ALL
 10
221.17695347
 20
-92.67601346
 30
0.0
 40
3.5
  0
CIRCLE
  5
384
  8
LE_ALL
 10
241.17695347
 20
-127.67601346
 30
0.0
 40
3.5
  0
CIRCLE
  5
385
  8
LE_ALL
 10
201.17695347
 20
-127.67601346
 30
0.0
 40
3.5
  0
CIRCLE
  5
386
  8
LE_ALL
 10
241.17695347
 20
-92.67601346
 30
0.0
 40
4.5
  0
CIRCLE
  5
387
  8
LE_ALL
 10
201.17695347
 20
-92.67601346
 30
0.0
 40
4.5
  0
POLYLINE
  5
388
  8
LE_ALL
 66
     1
 10
0.0
 20
0.0
 30
0.0
  0
VERTEX
  5
389
  8
LE_ALL
 10
259.37695347
 20
-76.57601346
 30
0.0
  0
VERTEX
  5
38A
  8
LE_ALL
 10
256.37695347
 20
-76.57601346
 30
0.0
  0
VERTEX
  5
38B
  8
LE_ALL
 10
256.37695347
 20
-74.17601346
 30
0.0
  0
SEQEND
  5
38C
  8
LE_ALL
  0
LINE
  5
38D
  8
LE_ALL
 10
175.17695347
 20
-74.17601346
 30
0.0
 11
256.37695347
 21
-74.17601346
 31
0.0
  0
LINE
  5
38E
  8
LE_ALL
 10
175.17695347
 20
-146.17601346
 30
0.0
 11
175.17695347
 21
-74.17601346
 31
0.0
  0
LINE
  5
38F
  8
LE_ALL
 10
256.37695347
 20
-146.17601346
 30
0.0
 11
175.17695347
 21
-146.17601346
 31
0.0
  0
POLYLINE
  5
390
  8
LE_ALL
 66
     1
 10
0.0
 20
0.0
 30
0.0
  0
VERTEX
  5
391
  8
LE_ALL
 10
256.37695347
 20
-146.17601346
 30
0.0
  0
VERTEX
  5
392
  8
LE_ALL
 10
256.37695347
 20
-143.77601346
 30
0.0
  0
VERTEX
  5
393
  8
LE_ALL
 10
259.37695347
 20
-143.77601346
 30
0.0
  0
VERTEX
  5
394
  8
LE_ALL
 10
265.17695347
 20
-137.97601346
 30
0.0
  0
SEQEND
  5
395
  8
LE_ALL
  0
LINE
  5
396
  8
LE_ALL
 10
265.17695347
 20
-82.37601346
 30
0.0
 11
265.17695347
 21
-137.97601346
 31
0.0
  0
LINE
  5
397
  8
LE_ALL
 10
265.17695347
 20
-82.37601346
 30
0.0
 11
259.37695347
 21
-76.57601346
 31
0.0
  0
ENDBLK
  8
0
  0
BLOCK
  8
0
  2
_00047
 70
     0
 10
0.0
 20
0.0
 30
0.0
  0
INSERT
  5
39A
  8
0
  2
_00048
 10
201.17695347
 20
-92.67601346
 30
0.0
  0
ENDBLK
  8
0
  0
BLOCK
  8
0
  2
_00048
 70
     0
 10
201.17695347
 20
-92.67601346
 30
0.0
  0
LINE
  5
39D
  8
LE_ALL
  6
STRICHPUNKT2
 62
     1
 10
201.17695347
 20
-92.67601346
 30
0.0
 11
207.92695347
 21
-92.67601346
 31
0.0
  0
LINE
  5
39E
  8
LE_ALL
  6
STRICHPUNKT2
 62
     1
 10
201.17695347
 20
-92.67601346
 30
0.0
 11
194.42695347
 21
-92.67601346
 31
0.0
  0
LINE
  5
39F
  8
LE_ALL
  6
STRICHPUNKT2
 62
     1
 10
201.17695347
 20
-92.67601346
 30
0.0
 11
201.17695347
 21
-85.92601346
 31
0.0
  0
LINE
  5
3A0
  8
LE_ALL
  6
STRICHPUNKT2
 62
     1
 10
201.17695347
 20
-92.67601346
 30
0.0
 11
201.17695347
 21
-99.42601346
 31
0.0
  0
LINE
  5
3A1
  8
LE_ALL
  6
STRICHPUNKT2
 62
     1
 10
201.17695347
 20
-92.67601346
 30
0.0
 11
207.92695347
 21
-92.67601346
 31
0.0
  0
LINE
  5
3A2
  8
LE_ALL
  6
STRICHPUNKT2
 62
     1
 10
201.17695347
 20
-92.67601346
 30
0.0
 11
194.42695347
 21
-92.67601346
 31
0.0
  0
LINE
  5
3A3
  8
LE_ALL
  6
STRICHPUNKT2
 62
     1
 10
201.17695347
 20
-92.67601346
 30
0.0
 11
201.17695347
 21
-85.92601346
 31
0.0
  0
LINE
  5
3A4
  8
LE_ALL
  6
STRICHPUNKT2
 62
     1
 10
201.17695347
 20
-92.67601346
 30
0.0
 11
201.17695347
 21
-99.42601346
 31
0.0
  0
LINE
  5
3A5
  8
LE_ALL
  6
STRICHPUNKT2
 62
     1
 10
241.17695347
 20
-92.67601346
 30
0.0
 11
247.92695347
 21
-92.67601346
 31
0.0
  0
LINE
  5
3A6
  8
LE_ALL
  6
STRICHPUNKT2
 62
     1
 10
241.17695347
 20
-92.67601346
 30
0.0
 11
234.42695347
 21
-92.67601346
 31
0.0
  0
LINE
  5
3A7
  8
LE_ALL
  6
STRICHPUNKT2
 62
     1
 10
241.17695347
 20
-92.67601346
 30
0.0
 11
241.17695347
 21
-85.92601346
 31
0.0
  0
LINE
  5
3A8
  8
LE_ALL
  6
STRICHPUNKT2
 62
     1
 10
241.17695347
 20
-92.67601346
 30
0.0
 11
241.17695347
 21
-99.42601346
 31
0.0
  0
LINE
  5
3A9
  8
LE_ALL
  6
STRICHPUNKT2
 62
     1
 10
241.17695347
 20
-92.67601346
 30
0.0
 11
247.92695347
 21
-92.67601346
 31
0.0
  0
LINE
  5
3AA
  8
LE_ALL
  6
STRICHPUNKT2
 62
     1
 10
241.17695347
 20
-92.67601346
 30
0.0
 11
234.42695347
 21
-92.67601346
 31
0.0
  0
LINE
  5
3AB
  8
LE_ALL
  6
STRICHPUNKT2
 62
     1
 10
241.17695347
 20
-92.67601346
 30
0.0
 11
241.17695347
 21
-85.92601346
 31
0.0
  0
LINE
  5
3AC
  8
LE_ALL
  6
STRICHPUNKT2
 62
     1
 10
241.17695347
 20
-92.67601346
 30
0.0
 11
241.17695347
 21
-99.42601346
 31
0.0
  0
LINE
  5
3AD
  8
LE_ALL
  6
STRICHPUNKT2
 62
     1
 10
201.17695347
 20
-127.67601346
 30
0.0
 11
206.42695347
 21
-127.67601346
 31
0.0
  0
LINE
  5
3AE
  8
LE_ALL
  6
STRICHPUNKT2
 62
     1
 10
201.17695347
 20
-127.67601346
 30
0.0
 11
195.92695347
 21
-127.67601346
 31
0.0
  0
LINE
  5
3AF
  8
LE_ALL
  6
STRICHPUNKT2
 62
     1
 10
201.17695347
 20
-127.67601346
 30
0.0
 11
201.17695347
 21
-122.42601346
 31
0.0
  0
LINE
  5
3B0
  8
LE_ALL
  6
STRICHPUNKT2
 62
     1
 10
201.17695347
 20
-127.67601346
 30
0.0
 11
201.17695347
 21
-132.92601346
 31
0.0
  0
LINE
  5
3B1
  8
LE_ALL
  6
STRICHPUNKT2
 62
     1
 10
201.17695347
 20
-127.67601346
 30
0.0
 11
206.42695347
 21
-127.67601346
 31
0.0
  0
LINE
  5
3B2
  8
LE_ALL
  6
STRICHPUNKT2
 62
     1
 10
201.17695347
 20
-127.67601346
 30
0.0
 11
195.92695347
 21
-127.67601346
 31
0.0
  0
LINE
  5
3B3
  8
LE_ALL
  6
STRICHPUNKT2
 62
     1
 10
201.17695347
 20
-127.67601346
 30
0.0
 11
201.17695347
 21
-122.42601346
 31
0.0
  0
LINE
  5
3B4
  8
LE_ALL
  6
STRICHPUNKT2
 62
     1
 10
201.17695347
 20
-127.67601346
 30
0.0
 11
201.17695347
 21
-132.92601346
 31
0.0
  0
LINE
  5
3B5
  8
LE_ALL
  6
STRICHPUNKT2
 62
     1
 10
241.17695347
 20
-127.67601346
 30
0.0
 11
246.42695347
 21
-127.67601346
 31
0.0
  0
LINE
  5
3B6
  8
LE_ALL
  6
STRICHPUNKT2
 62
     1
 10
241.17695347
 20
-127.67601346
 30
0.0
 11
235.92695347
 21
-127.67601346
 31
0.0
  0
LINE
  5
3B7
  8
LE_ALL
  6
STRICHPUNKT2
 62
     1
 10
241.17695347
 20
-127.67601346
 30
0.0
 11
241.17695347
 21
-122.42601346
 31
0.0
  0
LINE
  5
3B8
  8
LE_ALL
  6
STRICHPUNKT2
 62
     1
 10
241.17695347
 20
-127.67601346
 30
0.0
 11
241.17695347
 21
-132.92601346
 31
0.0
  0
LINE
  5
3B9
  8
LE_ALL
  6
STRICHPUNKT2
 62
     1
 10
241.17695347
 20
-127.67601346
 30
0.0
 11
246.42695347
 21
-127.67601346
 31
0.0
  0
LINE
  5
3BA
  8
LE_ALL
  6
STRICHPUNKT2
 62
     1
 10
241.17695347
 20
-127.67601346
 30
0.0
 11
235.92695347
 21
-127.67601346
 31
0.0
  0
LINE
  5
3BB
  8
LE_ALL
  6
STRICHPUNKT2
 62
     1
 10
241.17695347
 20
-127.67601346
 30
0.0
 11
241.17695347
 21
-122.42601346
 31
0.0
  0
LINE
  5
3BC
  8
LE_ALL
  6
STRICHPUNKT2
 62
     1
 10
241.17695347
 20
-127.67601346
 30
0.0
 11
241.17695347
 21
-132.92601346
 31
0.0
  0
LINE
  5
3BD
  8
LE_ALL
  6
STRICHPUNKT2
 62
     1
 10
221.17695347
 20
-92.67601346
 30
0.0
 11
226.42695347
 21
-92.67601346
 31
0.0
  0
LINE
  5
3BE
  8
LE_ALL
  6
STRICHPUNKT2
 62
     1
 10
221.17695347
 20
-92.67601346
 30
0.0
 11
215.92695347
 21
-92.67601346
 31
0.0
  0
LINE
  5
3BF
  8
LE_ALL
  6
STRICHPUNKT2
 62
     1
 10
221.17695347
 20
-92.67601346
 30
0.0
 11
221.17695347
 21
-87.42601346
 31
0.0
  0
LINE
  5
3C0
  8
LE_ALL
  6
STRICHPUNKT2
 62
     1
 10
221.17695347
 20
-92.67601346
 30
0.0
 11
221.17695347
 21
-97.92601346
 31
0.0
  0
LINE
  5
3C1
  8
LE_ALL
  6
STRICHPUNKT2
 62
     1
 10
221.17695347
 20
-92.67601346
 30
0.0
 11
226.42695347
 21
-92.67601346
 31
0.0
  0
LINE
  5
3C2
  8
LE_ALL
  6
STRICHPUNKT2
 62
     1
 10
221.17695347
 20
-92.67601346
 30
0.0
 11
215.92695347
 21
-92.67601346
 31
0.0
  0
LINE
  5
3C3
  8
LE_ALL
  6
STRICHPUNKT2
 62
     1
 10
221.17695347
 20
-92.67601346
 30
0.0
 11
221.17695347
 21
-87.42601346
 31
0.0
  0
LINE
  5
3C4
  8
LE_ALL
  6
STRICHPUNKT2
 62
     1
 10
221.17695347
 20
-92.67601346
 30
0.0
 11
221.17695347
 21
-97.92601346
 31
0.0
  0
LINE
  5
3C5
  8
LE_ALL
  6
STRICHPUNKT2
 62
     1
 10
221.17695347
 20
-127.67601346
 30
0.0
 11
227.92695347
 21
-127.67601346
 31
0.0
  0
LINE
  5
3C6
  8
LE_ALL
  6
STRICHPUNKT2
 62
     1
 10
221.17695347
 20
-127.67601346
 30
0.0
 11
214.42695347
 21
-127.67601346
 31
0.0
  0
LINE
  5
3C7
  8
LE_ALL
  6
STRICHPUNKT2
 62
     1
 10
221.17695347
 20
-127.67601346
 30
0.0
 11
221.17695347
 21
-120.92601346
 31
0.0
  0
LINE
  5
3C8
  8
LE_ALL
  6
STRICHPUNKT2
 62
     1
 10
221.17695347
 20
-127.67601346
 30
0.0
 11
221.17695347
 21
-134.42601346
 31
0.0
  0
LINE
  5
3C9
  8
LE_ALL
  6
STRICHPUNKT2
 62
     1
 10
221.17695347
 20
-127.67601346
 30
0.0
 11
227.92695347
 21
-127.67601346
 31
0.0
  0
LINE
  5
3CA
  8
LE_ALL
  6
STRICHPUNKT2
 62
     1
 10
221.17695347
 20
-127.67601346
 30
0.0
 11
214.42695347
 21
-127.67601346
 31
0.0
  0
LINE
  5
3CB
  8
LE_ALL
  6
STRICHPUNKT2
 62
     1
 10
221.17695347
 20
-127.67601346
 30
0.0
 11
221.17695347
 21
-120.92601346
 31
0.0
  0
LINE
  5
3CC
  8
LE_ALL
  6
STRICHPUNKT2
 62
     1
 10
221.17695347
 20
-127.67601346
 30
0.0
 11
221.17695347
 21
-134.42601346
 31
0.0
  0
LINE
  5
3CD
  8
LE_ALL
  6
STRICHPUNKT2
 62
     1
 10
190.67695347
 20
-110.17601346
 30
0.0
 11
256.67695347
 21
-110.17601346
 31
0.0
  0
LINE
  5
3CE
  8
LE_ALL
  6
STRICHPUNKT2
 62
     1
 10
200.17695347
 20
-119.67601346
 30
0.0
 11
200.17695347
 21
-100.67601346
 31
0.0
  0
LINE
  5
3CF
  8
LE_ALL
  6
STRICHPUNKT2
 62
     1
 10
247.17695347
 20
-119.67601346
 30
0.0
 11
247.17695347
 21
-100.67601346
 31
0.0
  0
LINE
  5
3D0
  8
LE_ALL
  6
STRICHPUNKT2
 62
     1
 10
190.67695347
 20
-110.17601346
 30
0.0
 11
256.67695347
 21
-110.17601346
 31
0.0
  0
LINE
  5
3D1
  8
LE_ALL
  6
STRICHPUNKT2
 62
     1
 10
200.17695347
 20
-119.67601346
 30
0.0
 11
200.17695347
 21
-100.67601346
 31
0.0
  0
LINE
  5
3D2
  8
LE_ALL
  6
STRICHPUNKT2
 62
     1
 10
247.17695347
 20
-119.67601346
 30
0.0
 11
247.17695347
 21
-100.67601346
 31
0.0
  0
ENDBLK
  8
0
  0
BLOCK
  8
0
  2
BEND_ZONE_00049
 70
     0
 10
0.0
 20
0.0
 30
0.0
  0
INSERT
  5
3D5
  8
0
  2
BEND_ZONE_00050
 10
170.17695347
 20
-146.17601346
 30
0.0
  0
ENDBLK
  8
0
  0
BLOCK
  8
0
  2
BEND_ZONE_00050
 70
     0
 10
170.17695347
 20
-146.17601346
 30
0.0
  0
LINE
  5
3D8
  8
LE_ALL
 10
170.17695347
 20
-146.17601346
 30
0.0
 11
170.17695347
 21
-74.17601346
 31
0.0
  0
POLYLINE
  5
3D9
  8
LE_ALL
 66
     1
 10
0.0
 20
0.0
 30
0.0
  0
VERTEX
  5
3DA
  8
LE_ALL
 10
170.17695347
 20
-146.17601346
 30
0.0
  0
VERTEX
  5
3DB
  8
LE_ALL
 10
175.17695347
 20
-146.17601346
 30
0.0
  0
VERTEX
  5
3DC
  8
LE_ALL
 10
175.17695347
 20
-74.17601346
 30
0.0
  0
VERTEX
  5
3DD
  8
LE_ALL
 10
170.17695347
 20
-74.17601346
 30
0.0
  0
SEQEND
  5
3DE
  8
LE_ALL
  0
ENDBLK
  8
0
  0
BLOCK
  8
0
  2
SHEET_FLANGE_00051
 70
     0
 10
0.0
 20
0.0
 30
0.0
  0
INSERT
  5
3E1
  8
0
  2
SHEET_FLANGE_00052
 10
165.17695347
 20
-146.17601346
 30
0.0
  0
INSERT
  5
3E2
  8
0
  2
_00053
 10
0.0
 20
0.0
 30
0.0
  0
ENDBLK
  8
0
  0
BLOCK
  8
0
  2
SHEET_FLANGE_00052
 70
     0
 10
165.17695347
 20
-146.17601346
 30
0.0
  0
LINE
  5
3E5
  8
LE_ALL
  6
DOT
 62
     3
 10
165.17695347
 20
-146.17601346
 30
0.0
 11
165.17695347
 21
-146.17601346
 31
0.0
  0
LINE
  5
3E6
  8
LE_ALL
  6
DOT
 62
     3
 10
170.17695347
 20
-146.17601346
 30
0.0
 11
170.17695347
 21
-146.17601346
 31
0.0
  0
LINE
  5
3E7
  8
LE_ALL
  6
DOT
 62
     3
 10
165.17695347
 20
-77.27601346
 30
0.0
 11
165.17695347
 21
-77.27601346
 31
0.0
  0
LINE
  5
3E8
  8
LE_ALL
  6
DOT
 62
     3
 10
165.17695347
 20
-74.17601346
 30
0.0
 11
165.17695347
 21
-74.17601346
 31
0.0
  0
LINE
  5
3E9
  8
LE_ALL
  6
DOT
 62
     3
 10
165.17695347
 20
-143.07601346
 30
0.0
 11
165.17695347
 21
-143.07601346
 31
0.0
  0
LINE
  5
3EA
  8
LE_ALL
  6
DOT
 62
     3
 10
165.17695347
 20
-103.67601346
 30
0.0
 11
165.17695347
 21
-103.67601346
 31
0.0
  0
LINE
  5
3EB
  8
LE_ALL
  6
DOT
 62
     3
 10
165.17695347
 20
-116.67601346
 30
0.0
 11
165.17695347
 21
-116.67601346
 31
0.0
  0
LINE
  5
3EC
  8
LE_ALL
  6
DOT
 62
     3
 10
170.17695347
 20
-77.27601346
 30
0.0
 11
170.17695347
 21
-77.27601346
 31
0.0
  0
LINE
  5
3ED
  8
LE_ALL
  6
DOT
 62
     3
 10
170.17695347
 20
-143.07601346
 30
0.0
 11
170.17695347
 21
-143.07601346
 31
0.0
  0
LINE
  5
3EE
  8
LE_ALL
  6
DOT
 62
     3
 10
170.17695347
 20
-74.17601346
 30
0.0
 11
170.17695347
 21
-74.17601346
 31
0.0
  0
LINE
  5
3EF
  8
LE_ALL
  6
DOT
 62
     3
 10
170.17695347
 20
-116.67601346
 30
0.0
 11
170.17695347
 21
-116.67601346
 31
0.0
  0
LINE
  5
3F0
  8
LE_ALL
  6
DOT
 62
     3
 10
170.17695347
 20
-103.67601346
 30
0.0
 11
170.17695347
 21
-103.67601346
 31
0.0
  0
LINE
  5
3F1
  8
LE_ALL
  6
DOT
 62
     3
 10
165.17695347
 20
-116.67601346
 30
0.0
 11
170.17695347
 21
-116.67601346
 31
0.0
  0
LINE
  5
3F2
  8
LE_ALL
  6
DOT
 62
     3
 10
165.17695347
 20
-103.67601346
 30
0.0
 11
170.17695347
 21
-103.67601346
 31
0.0
  0
LINE
  5
3F3
  8
LE_ALL
 10
165.17695347
 20
-146.17601346
 30
0.0
 11
165.17695347
 21
-143.07601346
 31
0.0
  0
POLYLINE
  5
3F4
  8
LE_ALL
 66
     1
 10
0.0
 20
0.0
 30
0.0
  0
VERTEX
  5
3F5
  8
LE_ALL
 10
170.17695347
 20
-143.07601346
 30
0.0
  0
VERTEX
  5
3F6
  8
LE_ALL
 10
170.17695347
 20
-146.17601346
 30
0.0
  0
VERTEX
  5
3F7
  8
LE_ALL
 10
165.17695347
 20
-146.17601346
 30
0.0
  0
SEQEND
  5
3F8
  8
LE_ALL
  0
LINE
  5
3F9
  8
LE_ALL
 10
165.17695347
 20
-77.27601346
 30
0.0
 11
165.17695347
 21
-74.17601346
 31
0.0
  0
LINE
  5
3FA
  8
LE_ALL
 10
170.17695347
 20
-74.17601346
 30
0.0
 11
165.17695347
 21
-74.17601346
 31
0.0
  0
LINE
  5
3FB
  8
LE_ALL
 10
170.17695347
 20
-74.17601346
 30
0.0
 11
170.17695347
 21
-77.27601346
 31
0.0
  0
LINE
  5
3FC
  8
LE_ALL
  6
DOT
 62
     3
 10
170.17695347
 20
-124.17601346
 30
0.0
 11
165.17695347
 21
-124.17601346
 31
0.0
  0
LINE
  5
3FD
  8
LE_ALL
  6
DOT
 62
     3
 10
170.17695347
 20
-131.17601346
 30
0.0
 11
165.17695347
 21
-131.17601346
 31
0.0
  0
LINE
  5
3FE
  8
LE_ALL
  6
DOT
 62
     3
 10
170.17695347
 20
-89.17601346
 30
0.0
 11
165.17695347
 21
-89.17601346
 31
0.0
  0
LINE
  5
3FF
  8
LE_ALL
  6
DOT
 62
     3
 10
170.17695347
 20
-96.17601346
 30
0.0
 11
165.17695347
 21
-96.17601346
 31
0.0
  0
LINE
  5
400
  8
LE_ALL
  6
DOT
 62
     3
 10
170.17695347
 20
-88.17601346
 30
0.0
 11
165.17695347
 21
-88.17601346
 31
0.0
  0
LINE
  5
401
  8
LE_ALL
  6
DOT
 62
     3
 10
170.17695347
 20
-97.17601346
 30
0.0
 11
165.17695347
 21
-97.17601346
 31
0.0
  0
LINE
  5
402
  8
LE_ALL
  6
DOT
 62
     3
 10
170.17695347
 20
-123.17601346
 30
0.0
 11
165.17695347
 21
-123.17601346
 31
0.0
  0
LINE
  5
403
  8
LE_ALL
  6
DOT
 62
     3
 10
170.17695347
 20
-132.17601346
 30
0.0
 11
165.17695347
 21
-132.17601346
 31
0.0
  0
POLYLINE
  5
404
  8
LE_ALL
 66
     1
 10
0.0
 20
0.0
 30
0.0
  0
VERTEX
  5
405
  8
LE_ALL
 10
165.17695347
 20
-137.27601346
 30
0.0
  0
VERTEX
  5
406
  8
LE_ALL
 10
165.17695347
 20
-83.07601346
 30
0.0
  0
VERTEX
  5
407
  8
LE_ALL
 10
170.17695347
 20
-83.07601346
 30
0.0
  0
VERTEX
  5
408
  8
LE_ALL
 10
170.17695347
 20
-137.27601346
 30
0.0
  0
SEQEND
  5
409
  8
LE_ALL
  0
LINE
  5
40A
  8
LE_ALL
 10
165.17695347
 20
-137.27601346
 30
0.0
 11
170.17695347
 21
-137.27601346
 31
0.0
  0
LINE
  5
40B
  8
LE_ALL
 10
165.17695347
 20
-143.07601346
 30
0.0
 11
165.17695347
 21
-137.27601346
 31
0.0
  0
LINE
  5
40C
  8
LE_ALL
 10
165.17695347
 20
-143.07601346
 30
0.0
 11
170.17695347
 21
-143.07601346
 31
0.0
  0
LINE
  5
40D
  8
LE_ALL
 10
170.17695347
 20
-137.27601346
 30
0.0
 11
170.17695347
 21
-143.07601346
 31
0.0
  0
LINE
  5
40E
  8
LE_ALL
 10
170.17695347
 20
-77.27601346
 30
0.0
 11
170.17695347
 21
-83.07601346
 31
0.0
  0
LINE
  5
40F
  8
LE_ALL
 10
165.17695347
 20
-77.27601346
 30
0.0
 11
170.17695347
 21
-77.27601346
 31
0.0
  0
LINE
  5
410
  8
LE_ALL
 10
165.17695347
 20
-83.07601346
 30
0.0
 11
165.17695347
 21
-77.27601346
 31
0.0
  0
ENDBLK
  8
0
  0
BLOCK
  8
0
  2
_00053
 70
     0
 10
0.0
 20
0.0
 30
0.0
  0
INSERT
  5
413
  8
0
  2
_00054
 10
172.42695347
 20
-127.67601346
 30
0.0
  0
ENDBLK
  8
0
  0
BLOCK
  8
0
  2
_00054
 70
     0
 10
172.42695347
 20
-127.67601346
 30
0.0
  0
LINE
  5
416
  8
LE_ALL
  6
STRICHPUNKT2
 62
     1
 10
172.42695347
 20
-127.67601346
 30
0.0
 11
162.92695347
 21
-127.67601346
 31
0.0
  0
LINE
  5
417
  8
LE_ALL
  6
STRICHPUNKT2
 62
     1
 10
173.17695347
 20
-110.17601346
 30
0.0
 11
162.17695347
 21
-110.17601346
 31
0.0
  0
LINE
  5
418
  8
LE_ALL
  6
STRICHPUNKT2
 62
     1
 10
173.17695347
 20
-110.17601346
 30
0.0
 11
162.17695347
 21
-110.17601346
 31
0.0
  0
LINE
  5
419
  8
LE_ALL
  6
STRICHPUNKT2
 62
     1
 10
172.42695347
 20
-92.67601346
 30
0.0
 11
162.92695347
 21
-92.67601346
 31
0.0
  0
LINE
  5
41A
  8
LE_ALL
  6
STRICHPUNKT2
 62
     1
 10
171.92695347
 20
-92.67601346
 30
0.0
 11
163.42695347
 21
-92.67601346
 31
0.0
  0
LINE
  5
41B
  8
LE_ALL
  6
STRICHPUNKT2
 62
     1
 10
171.92695347
 20
-92.67601346
 30
0.0
 11
163.42695347
 21
-92.67601346
 31
0.0
  0
LINE
  5
41C
  8
LE_ALL
  6
STRICHPUNKT2
 62
     1
 10
171.92695347
 20
-127.67601346
 30
0.0
 11
163.42695347
 21
-127.67601346
 31
0.0
  0
LINE
  5
41D
  8
LE_ALL
  6
STRICHPUNKT2
 62
     1
 10
172.42695347
 20
-127.67601346
 30
0.0
 11
162.92695347
 21
-127.67601346
 31
0.0
  0
ENDBLK
  8
0
  0
BLOCK
  8
0
  2
_ANS0006_00055
 70
     0
 10
0.0
 20
0.0
 30
0.0
  0
INSERT
  5
420
  8
0
  2
_A3D0006_00056
 10
0.0
 20
0.0
 30
0.0
  0
ENDBLK
  8
0
  0
BLOCK
  8
0
  2
_A3D0006_00056
 70
     0
 10
0.0
 20
0.0
 30
0.0
  0
INSERT
  5
423
  8
0
  2
PLAATWERK__D___5MM_00057
 10
0.0
 20
0.0
 30
0.0
  0
ENDBLK
  8
0
  0
BLOCK
  8
0
  2
PLAATWERK__D___5MM_00057
 70
     0
 10
0.0
 20
0.0
 30
0.0
  0
INSERT
  5
426
  8
0
  2
SHEET_FLANGE_00058
 10
0.0
 20
0.0
 30
0.0
  0
INSERT
  5
427
  8
0
  2
BEND_ZONE_00062
 10
0.0
 20
0.0
 30
0.0
  0
INSERT
  5
428
  8
0
  2
SHEET_FLANGE_00064
 10
0.0
 20
0.0
 30
0.0
  0
ENDBLK
  8
0
  0
BLOCK
  8
0
  2
SHEET_FLANGE_00058
 70
     0
 10
0.0
 20
0.0
 30
0.0
  0
INSERT
  5
42B
  8
0
  2
SHEET_FLANGE_00059
 10
459.94679976
 20
-135.95316354
 30
0.0
  0
INSERT
  5
42C
  8
0
  2
_00060
 10
0.0
 20
0.0
 30
0.0
  0
ENDBLK
  8
0
  0
BLOCK
  8
0
  2
SHEET_FLANGE_00059
 70
     0
 10
459.94679976
 20
-135.95316354
 30
0.0
  0
POLYLINE
  5
42F
  8
LE_ALL
 66
     1
 10
0.0
 20
0.0
 30
0.0
  0
VERTEX
  5
7E5
  8
LE_ALL
 10
455.7448968
 20
-133.9264324422221
 30
0.0
  0
VERTEX
  5
7E6
  8
LE_ALL
 10
455.8765013078672
 20
-134.3602192411916
 30
0.0
  0
VERTEX
  5
7E7
  8
LE_ALL
 10
456.2659856878562
 20
-134.7764404096379
 30
0.0
  0
VERTEX
  5
7E8
  8
LE_ALL
 10
456.8975782778225
 20
-135.1582416140282
 30
0.0
  0
VERTEX
  5
7E9
  8
LE_ALL
 10
457.7457035593275
 20
-135.490162312396
 30
0.0
  0
VERTEX
  5
7EA
  8
LE_ALL
 10
458.7760178049114
 20
-135.7587618088307
 30
0.0
  0
VERTEX
  5
7EB
  8
LE_ALL
 10
459.9467997825583
 20
-135.9531635169332
 30
0.0
  0
SEQEND
  5
9E0
  8
LE_ALL
  0
POLYLINE
  5
430
  8
LE_ALL
 66
     1
 10
0.0
 20
0.0
 30
0.0
  0
VERTEX
  5
7EC
  8
LE_ALL
 10
464.542993856417
 20
-131.8997013879772
 30
0.0
  0
VERTEX
  5
7ED
  8
LE_ALL
 10
463.3327335470329
 20
-131.7903246086089
 30
0.0
  0
VERTEX
  5
7EE
  8
LE_ALL
 10
462.0819876992391
 20
-131.7604464086882
 30
0.0
  0
VERTEX
  5
7EF
  8
LE_ALL
 10
460.8373047672955
 20
-131.8111787519483
 30
0.0
  0
VERTEX
  5
7F0
  8
LE_ALL
 10
459.6450075646084
 20
-131.9406335552396
 30
0.0
  0
VERTEX
  5
7F1
  8
LE_ALL
 10
458.5494692880999
 20
-132.1439929564838
 30
0.0
  0
VERTEX
  5
7F2
  8
LE_ALL
 10
457.5914621005911
 20
-132.413688618913
 30
0.0
  0
VERTEX
  5
7F3
  8
LE_ALL
 10
456.8066397312767
 20
-132.7396833985071
 30
0.0
  0
VERTEX
  5
7F4
  8
LE_ALL
 10
456.2242105666764
 20
-133.1098448919376
 30
0.0
  0
VERTEX
  5
7F5
  8
LE_ALL
 10
455.8658506150504
 20
-133.5103969628486
 30
0.0
  0
VERTEX
  5
7F6
  8
LE_ALL
 10
455.7448968
 20
-133.9264324422221
 30
0.0
  0
SEQEND
  5
9E1
  8
LE_ALL
  0
POLYLINE
  5
431
  8
LE_ALL
 66
     1
 10
0.0
 20
0.0
 30
0.0
  0
VERTEX
  5
432
  8
LE_ALL
 10
464.54299383
 20
-131.89970137
 30
0.0
  0
VERTEX
  5
433
  8
LE_ALL
 10
508.50746813
 20
-137.43870449
 30
0.0
  0
SEQEND
  5
434
  8
LE_ALL
  0
POLYLINE
  5
435
  8
LE_ALL
 66
     1
 10
0.0
 20
0.0
 30
0.0
  0
VERTEX
  5
7F7
  8
LE_ALL
 10
512.70937109
 20
-139.46543557
 30
0.0
  0
VERTEX
  5
7F8
  8
LE_ALL
 10
512.5777665796302
 20
-139.0316487747259
 30
0.0
  0
VERTEX
  5
7F9
  8
LE_ALL
 10
512.1882822014899
 20
-138.6154276098509
 30
0.0
  0
VERTEX
  5
7FA
  8
LE_ALL
 10
511.5566896173888
 20
-138.2336264084854
 30
0.0
  0
VERTEX
  5
7FB
  8
LE_ALL
 10
510.7085643451067
 20
-137.9017057122185
 30
0.0
  0
VERTEX
  5
7FC
  8
LE_ALL
 10
509.6782501111637
 20
-137.6331062166543
 30
0.0
  0
VERTEX
  5
7FD
  8
LE_ALL
 10
508.507468146417
 20
-137.4387045079772
 30
0.0
  0
SEQEND
  5
9E2
  8
LE_ALL
  0
POLYLINE
  5
436
  8
LE_ALL
 66
     1
 10
0.0
 20
0.0
 30
0.0
  0
VERTEX
  5
7FE
  8
LE_ALL
 10
503.9112740725583
 20
-141.4921666369332
 30
0.0
  0
VERTEX
  5
7FF
  8
LE_ALL
 10
505.1215343822383
 20
-141.6015434136133
 30
0.0
  0
VERTEX
  5
800
  8
LE_ALL
 10
506.3722802287488
 20
-141.6314216109944
 30
0.0
  0
VERTEX
  5
801
  8
LE_ALL
 10
507.6169631580128
 20
-141.5806892654411
 30
0.0
  0
VERTEX
  5
802
  8
LE_ALL
 10
508.8092603568588
 20
-141.4512344601828
 30
0.0
  0
VERTEX
  5
803
  8
LE_ALL
 10
509.9047986286367
 20
-141.2478750573571
 30
0.0
  0
VERTEX
  5
804
  8
LE_ALL
 10
510.8628058108201
 20
-140.9781793937688
 30
0.0
  0
VERTEX
  5
805
  8
LE_ALL
 10
511.6476281745162
 20
-140.6521846134517
 30
0.0
  0
VERTEX
  5
806
  8
LE_ALL
 10
512.2300573334995
 20
-140.282023119726
 30
0.0
  0
VERTEX
  5
807
  8
LE_ALL
 10
512.5884172797821
 20
-139.8814710489186
 30
0.0
  0
VERTEX
  5
808
  8
LE_ALL
 10
512.70937109
 20
-139.46543557
 30
0.0
  0
SEQEND
  5
9E3
  8
LE_ALL
  0
LINE
  5
437
  8
LE_ALL
 10
503.91127405
 20
-141.49216666
 30
0.0
 11
459.94679976
 21
-135.95316354
 31
0.0
  0
LINE
  5
438
  8
LE_ALL
 10
464.54299383
 20
-136.53222956
 30
0.0
 11
464.54299383
 21
-131.89970137
 31
0.0
  0
LINE
  5
439
  8
LE_ALL
 10
508.50746813
 20
-141.49216666
 30
0.0
 11
508.50746813
 21
-137.43870449
 31
0.0
  0
POLYLINE
  5
43A
  8
LE_ALL
 66
     1
 10
0.0
 20
0.0
 30
0.0
  0
VERTEX
  5
809
  8
LE_ALL
 10
480.20141374
 20
-141.85788987
 30
0.0
  0
VERTEX
  5
80A
  8
LE_ALL
 10
480.1149475020115
 20
-141.5652543902322
 30
0.0
  0
VERTEX
  5
80B
  8
LE_ALL
 10
479.8588716370735
 20
-141.2838647278145
 30
0.0
  0
VERTEX
  5
80C
  8
LE_ALL
 10
479.4430269970442
 20
-141.0245345296436
 30
0.0
  0
VERTEX
  5
80D
  8
LE_ALL
 10
478.8833942581952
 20
-140.7972297097787
 30
0.0
  0
VERTEX
  5
80E
  8
LE_ALL
 10
478.2014797927856
 20
-140.6106854649531
 30
0.0
  0
VERTEX
  5
80F
  8
LE_ALL
 10
477.4234891912396
 20
-140.472070585864
 30
0.0
  0
VERTEX
  5
810
  8
LE_ALL
 10
476.5793201960042
 20
-140.3867119645665
 30
0.0
  0
VERTEX
  5
811
  8
LE_ALL
 10
475.7014137480771
 20
-140.357889885
 30
0.0
  0
VERTEX
  5
812
  8
LE_ALL
 10
474.8235072998395
 20
-140.386711963516
 30
0.0
  0
VERTEX
  5
813
  8
LE_ALL
 10
473.9793383036849
 20
-140.4720705838034
 30
0.0
  0
VERTEX
  5
814
  8
LE_ALL
 10
473.2013477006461
 20
-140.6106854619615
 30
0.0
  0
VERTEX
  5
815
  8
LE_ALL
 10
472.5194332332276
 20
-140.7972297059711
 30
0.0
  0
VERTEX
  5
816
  8
LE_ALL
 10
471.9598004919305
 20
-141.0245345251664
 30
0.0
  0
VERTEX
  5
817
  8
LE_ALL
 10
471.5439558491084
 20
-141.2838647228397
 30
0.0
  0
VERTEX
  5
818
  8
LE_ALL
 10
471.28787998114
 20
-141.565254384951
 30
0.0
  0
VERTEX
  5
819
  8
LE_ALL
 10
471.20141374
 20
-141.8578898646153
 30
0.0
  0
SEQEND
  5
9E4
  8
LE_ALL
  0
POLYLINE
  5
43B
  8
LE_ALL
 66
     1
 10
0.0
 20
0.0
 30
0.0
  0
VERTEX
  5
81A
  8
LE_ALL
 10
471.20141374
 20
-141.8578898646153
 30
0.0
  0
VERTEX
  5
81B
  8
LE_ALL
 10
471.287879975231
 20
-142.1505253451467
 30
0.0
  0
VERTEX
  5
81C
  8
LE_ALL
 10
471.5439558382901
 20
-142.4319150084544
 30
0.0
  0
VERTEX
  5
81D
  8
LE_ALL
 10
471.9598004773466
 20
-142.6912452075581
 30
0.0
  0
VERTEX
  5
81E
  8
LE_ALL
 10
472.5194332160935
 20
-142.9185500283176
 30
0.0
  0
VERTEX
  5
81F
  8
LE_ALL
 10
473.2013476821776
 20
-143.1050942739251
 30
0.0
  0
VERTEX
  5
820
  8
LE_ALL
 10
473.9793382850294
 20
-143.2437091536208
 30
0.0
  0
VERTEX
  5
821
  8
LE_ALL
 10
474.8235072820154
 20
-143.3290677753022
 30
0.0
  0
VERTEX
  5
822
  8
LE_ALL
 10
475.701413731923
 20
-143.357889855
 30
0.0
  0
VERTEX
  5
823
  8
LE_ALL
 10
476.579320182141
 20
-143.3290677763527
 30
0.0
  0
VERTEX
  5
824
  8
LE_ALL
 10
477.4234891800463
 20
-143.2437091556815
 30
0.0
  0
VERTEX
  5
825
  8
LE_ALL
 10
478.2014797843909
 20
-143.1050942769166
 30
0.0
  0
VERTEX
  5
826
  8
LE_ALL
 10
478.8833942524838
 20
-142.9185500321251
 30
0.0
  0
VERTEX
  5
827
  8
LE_ALL
 10
479.4430269936787
 20
-142.6912452120353
 30
0.0
  0
VERTEX
  5
828
  8
LE_ALL
 10
479.8588716355281
 20
-142.4319150134292
 30
0.0
  0
VERTEX
  5
829
  8
LE_ALL
 10
480.1149475016176
 20
-142.1505253504279
 30
0.0
  0
VERTEX
  5
82A
  8
LE_ALL
 10
480.20141374
 20
-141.85788987
 30
0.0
  0
SEQEND
  5
9E5
  8
LE_ALL
  0
POLYLINE
  5
43C
  8
LE_ALL
 66
     1
 10
0.0
 20
0.0
 30
0.0
  0
VERTEX
  5
82B
  8
LE_ALL
 10
491.57578241
 20
-130.9447225
 30
0.0
  0
VERTEX
  5
82C
  8
LE_ALL
 10
491.5085308915645
 20
-130.7171171268473
 30
0.0
  0
VERTEX
  5
82D
  8
LE_ALL
 10
491.3093607743905
 20
-130.4982585005224
 30
0.0
  0
VERTEX
  5
82E
  8
LE_ALL
 10
490.9859260543677
 20
-130.2965572352784
 30
0.0
  0
VERTEX
  5
82F
  8
LE_ALL
 10
490.550656146374
 20
-130.1197645976056
 30
0.0
  0
VERTEX
  5
830
  8
LE_ALL
 10
490.0202782288332
 20
-129.974674629408
 30
0.0
  0
VERTEX
  5
831
  8
LE_ALL
 10
489.4151744276307
 20
-129.8668630567831
 30
0.0
  0
VERTEX
  5
832
  8
LE_ALL
 10
488.7585985424477
 20
-129.8004730179962
 30
0.0
  0
VERTEX
  5
833
  8
LE_ALL
 10
488.0757824162822
 20
-129.778055845
 30
0.0
  0
VERTEX
  5
834
  8
LE_ALL
 10
487.3929662898751
 20
-129.8004730171791
 30
0.0
  0
VERTEX
  5
835
  8
LE_ALL
 10
486.7363904039771
 20
-129.8668630551804
 30
0.0
  0
VERTEX
  5
836
  8
LE_ALL
 10
486.1312866016136
 20
-129.9746746270812
 30
0.0
  0
VERTEX
  5
837
  8
LE_ALL
 10
485.6009086825103
 20
-130.1197645946442
 30
0.0
  0
VERTEX
  5
838
  8
LE_ALL
 10
485.1656387726126
 20
-130.2965572317961
 30
0.0
  0
VERTEX
  5
839
  8
LE_ALL
 10
484.8422040504176
 20
-130.4982584966531
 30
0.0
  0
VERTEX
  5
83A
  8
LE_ALL
 10
484.6430339308866
 20
-130.7171171227397
 30
0.0
  0
VERTEX
  5
83B
  8
LE_ALL
 10
484.57578241
 20
-130.9447224958119
 30
0.0
  0
SEQEND
  5
9E6
  8
LE_ALL
  0
POLYLINE
  5
43D
  8
LE_ALL
 66
     1
 10
0.0
 20
0.0
 30
0.0
  0
VERTEX
  5
83C
  8
LE_ALL
 10
484.57578241
 20
-130.9447224958119
 30
0.0
  0
VERTEX
  5
83D
  8
LE_ALL
 10
484.6430339262907
 20
-131.1723278695586
 30
0.0
  0
VERTEX
  5
83E
  8
LE_ALL
 10
484.8422040420033
 20
-131.3911864965757
 30
0.0
  0
VERTEX
  5
83F
  8
LE_ALL
 10
485.1656387612696
 20
-131.5928877625452
 30
0.0
  0
VERTEX
  5
840
  8
LE_ALL
 10
485.6009086691839
 20
-131.7696804009137
 30
0.0
  0
VERTEX
  5
841
  8
LE_ALL
 10
486.1312865872492
 20
-131.9147703697195
 30
0.0
  0
VERTEX
  5
842
  8
LE_ALL
 10
486.7363903894673
 20
-132.0225819428162
 30
0.0
  0
VERTEX
  5
843
  8
LE_ALL
 10
487.3929662760119
 20
-132.0889719819017
 30
0.0
  0
VERTEX
  5
844
  8
LE_ALL
 10
488.0757824037178
 20
-132.111389155
 30
0.0
  0
VERTEX
  5
845
  8
LE_ALL
 10
488.7585985316652
 20
-132.0889719827188
 30
0.0
  0
VERTEX
  5
846
  8
LE_ALL
 10
489.4151744189248
 20
-132.0225819444189
 30
0.0
  0
VERTEX
  5
847
  8
LE_ALL
 10
490.0202782223039
 20
-131.9147703720463
 30
0.0
  0
VERTEX
  5
848
  8
LE_ALL
 10
490.5506561419318
 20
-131.7696804038751
 30
0.0
  0
VERTEX
  5
849
  8
LE_ALL
 10
490.9859260517501
 20
-131.5928877660275
 30
0.0
  0
VERTEX
  5
84A
  8
LE_ALL
 10
491.3093607731885
 20
-131.391186500445
 30
0.0
  0
VERTEX
  5
84B
  8
LE_ALL
 10
491.5085308912581
 20
-131.1723278736662
 30
0.0
  0
VERTEX
  5
84C
  8
LE_ALL
 10
491.57578241
 20
-130.9447225
 30
0.0
  0
SEQEND
  5
9E7
  8
LE_ALL
  0
POLYLINE
  5
43E
  8
LE_ALL
 66
     1
 10
0.0
 20
0.0
 30
0.0
  0
VERTEX
  5
84D
  8
LE_ALL
 10
497.90970067
 20
-144.21491248
 30
0.0
  0
VERTEX
  5
84E
  8
LE_ALL
 10
497.8424491515645
 20
-143.9873071068473
 30
0.0
  0
VERTEX
  5
84F
  8
LE_ALL
 10
497.6432790343905
 20
-143.7684484805224
 30
0.0
  0
VERTEX
  5
850
  8
LE_ALL
 10
497.3198443143677
 20
-143.5667472152784
 30
0.0
  0
VERTEX
  5
851
  8
LE_ALL
 10
496.884574406374
 20
-143.3899545776056
 30
0.0
  0
VERTEX
  5
852
  8
LE_ALL
 10
496.3541964888332
 20
-143.244864609408
 30
0.0
  0
VERTEX
  5
853
  8
LE_ALL
 10
495.7490926876308
 20
-143.1370530367831
 30
0.0
  0
VERTEX
  5
854
  8
LE_ALL
 10
495.0925168024477
 20
-143.0706629979962
 30
0.0
  0
VERTEX
  5
855
  8
LE_ALL
 10
494.4097006762822
 20
-143.048245825
 30
0.0
  0
VERTEX
  5
856
  8
LE_ALL
 10
493.7268845498751
 20
-143.0706629971791
 30
0.0
  0
VERTEX
  5
857
  8
LE_ALL
 10
493.0703086639771
 20
-143.1370530351804
 30
0.0
  0
VERTEX
  5
858
  8
LE_ALL
 10
492.4652048616136
 20
-143.2448646070812
 30
0.0
  0
VERTEX
  5
859
  8
LE_ALL
 10
491.9348269425103
 20
-143.3899545746442
 30
0.0
  0
VERTEX
  5
85A
  8
LE_ALL
 10
491.4995570326126
 20
-143.5667472117961
 30
0.0
  0
VERTEX
  5
85B
  8
LE_ALL
 10
491.1761223104176
 20
-143.7684484766531
 30
0.0
  0
VERTEX
  5
85C
  8
LE_ALL
 10
490.9769521908867
 20
-143.9873071027397
 30
0.0
  0
VERTEX
  5
85D
  8
LE_ALL
 10
490.90970067
 20
-144.2149124758119
 30
0.0
  0
SEQEND
  5
9E8
  8
LE_ALL
  0
POLYLINE
  5
43F
  8
LE_ALL
 66
     1
 10
0.0
 20
0.0
 30
0.0
  0
VERTEX
  5
85E
  8
LE_ALL
 10
490.90970067
 20
-144.2149124758119
 30
0.0
  0
VERTEX
  5
85F
  8
LE_ALL
 10
490.9769521862907
 20
-144.4425178495586
 30
0.0
  0
VERTEX
  5
860
  8
LE_ALL
 10
491.1761223020034
 20
-144.6613764765757
 30
0.0
  0
VERTEX
  5
861
  8
LE_ALL
 10
491.4995570212696
 20
-144.8630777425452
 30
0.0
  0
VERTEX
  5
862
  8
LE_ALL
 10
491.9348269291839
 20
-145.0398703809137
 30
0.0
  0
VERTEX
  5
863
  8
LE_ALL
 10
492.4652048472492
 20
-145.1849603497195
 30
0.0
  0
VERTEX
  5
864
  8
LE_ALL
 10
493.0703086494673
 20
-145.2927719228162
 30
0.0
  0
VERTEX
  5
865
  8
LE_ALL
 10
493.7268845360119
 20
-145.3591619619017
 30
0.0
  0
VERTEX
  5
866
  8
LE_ALL
 10
494.4097006637178
 20
-145.381579135
 30
0.0
  0
VERTEX
  5
867
  8
LE_ALL
 10
495.0925167916652
 20
-145.3591619627188
 30
0.0
  0
VERTEX
  5
868
  8
LE_ALL
 10
495.7490926789249
 20
-145.2927719244189
 30
0.0
  0
VERTEX
  5
869
  8
LE_ALL
 10
496.354196482304
 20
-145.1849603520463
 30
0.0
  0
VERTEX
  5
86A
  8
LE_ALL
 10
496.8845744019318
 20
-145.0398703838751
 30
0.0
  0
VERTEX
  5
86B
  8
LE_ALL
 10
497.3198443117501
 20
-144.8630777460275
 30
0.0
  0
VERTEX
  5
86C
  8
LE_ALL
 10
497.6432790331885
 20
-144.661376480445
 30
0.0
  0
VERTEX
  5
86D
  8
LE_ALL
 10
497.8424491512581
 20
-144.4425178536662
 30
0.0
  0
VERTEX
  5
86E
  8
LE_ALL
 10
497.90970067
 20
-144.21491248
 30
0.0
  0
SEQEND
  5
9E9
  8
LE_ALL
  0
POLYLINE
  5
440
  8
LE_ALL
 66
     1
 10
0.0
 20
0.0
 30
0.0
  0
VERTEX
  5
86F
  8
LE_ALL
 10
460.49312681
 20
-139.50086727
 30
0.0
  0
VERTEX
  5
870
  8
LE_ALL
 10
460.4258752915645
 20
-139.2732618968473
 30
0.0
  0
VERTEX
  5
871
  8
LE_ALL
 10
460.2267051743905
 20
-139.0544032705224
 30
0.0
  0
VERTEX
  5
872
  8
LE_ALL
 10
459.9032704543677
 20
-138.8527020052784
 30
0.0
  0
VERTEX
  5
873
  8
LE_ALL
 10
459.468000546374
 20
-138.6759093676056
 30
0.0
  0
VERTEX
  5
874
  8
LE_ALL
 10
458.9376226288332
 20
-138.530819399408
 30
0.0
  0
VERTEX
  5
875
  8
LE_ALL
 10
458.3325188276307
 20
-138.4230078267831
 30
0.0
  0
VERTEX
  5
876
  8
LE_ALL
 10
457.6759429424477
 20
-138.3566177879962
 30
0.0
  0
VERTEX
  5
877
  8
LE_ALL
 10
456.9931268162821
 20
-138.334200615
 30
0.0
  0
VERTEX
  5
878
  8
LE_ALL
 10
456.3103106898751
 20
-138.3566177871791
 30
0.0
  0
VERTEX
  5
879
  8
LE_ALL
 10
455.6537348039771
 20
-138.4230078251804
 30
0.0
  0
VERTEX
  5
87A
  8
LE_ALL
 10
455.0486310016136
 20
-138.5308193970812
 30
0.0
  0
VERTEX
  5
87B
  8
LE_ALL
 10
454.5182530825103
 20
-138.6759093646442
 30
0.0
  0
VERTEX
  5
87C
  8
LE_ALL
 10
454.0829831726126
 20
-138.8527020017961
 30
0.0
  0
VERTEX
  5
87D
  8
LE_ALL
 10
453.7595484504176
 20
-139.0544032666531
 30
0.0
  0
VERTEX
  5
87E
  8
LE_ALL
 10
453.5603783308866
 20
-139.2732618927397
 30
0.0
  0
VERTEX
  5
87F
  8
LE_ALL
 10
453.49312681
 20
-139.5008672658119
 30
0.0
  0
SEQEND
  5
9EA
  8
LE_ALL
  0
POLYLINE
  5
441
  8
LE_ALL
 66
     1
 10
0.0
 20
0.0
 30
0.0
  0
VERTEX
  5
880
  8
LE_ALL
 10
453.49312681
 20
-139.5008672658119
 30
0.0
  0
VERTEX
  5
881
  8
LE_ALL
 10
453.5603783262907
 20
-139.7284726395585
 30
0.0
  0
VERTEX
  5
882
  8
LE_ALL
 10
453.7595484420033
 20
-139.9473312665756
 30
0.0
  0
VERTEX
  5
883
  8
LE_ALL
 10
454.0829831612696
 20
-140.1490325325452
 30
0.0
  0
VERTEX
  5
884
  8
LE_ALL
 10
454.5182530691839
 20
-140.3258251709136
 30
0.0
  0
VERTEX
  5
885
  8
LE_ALL
 10
455.0486309872492
 20
-140.4709151397195
 30
0.0
  0
VERTEX
  5
886
  8
LE_ALL
 10
455.6537347894673
 20
-140.5787267128162
 30
0.0
  0
VERTEX
  5
887
  8
LE_ALL
 10
456.3103106760119
 20
-140.6451167519017
 30
0.0
  0
VERTEX
  5
888
  8
LE_ALL
 10
456.9931268037178
 20
-140.667533925
 30
0.0
  0
VERTEX
  5
889
  8
LE_ALL
 10
457.6759429316652
 20
-140.6451167527187
 30
0.0
  0
VERTEX
  5
88A
  8
LE_ALL
 10
458.3325188189248
 20
-140.5787267144189
 30
0.0
  0
VERTEX
  5
88B
  8
LE_ALL
 10
458.9376226223039
 20
-140.4709151420463
 30
0.0
  0
VERTEX
  5
88C
  8
LE_ALL
 10
459.4680005419318
 20
-140.3258251738751
 30
0.0
  0
VERTEX
  5
88D
  8
LE_ALL
 10
459.9032704517501
 20
-140.1490325360274
 30
0.0
  0
VERTEX
  5
88E
  8
LE_ALL
 10
460.2267051731885
 20
-139.9473312704449
 30
0.0
  0
VERTEX
  5
88F
  8
LE_ALL
 10
460.4258752912581
 20
-139.7284726436662
 30
0.0
  0
VERTEX
  5
890
  8
LE_ALL
 10
460.49312681
 20
-139.50086727
 30
0.0
  0
SEQEND
  5
9EB
  8
LE_ALL
  0
POLYLINE
  5
442
  8
LE_ALL
 66
     1
 10
0.0
 20
0.0
 30
0.0
  0
VERTEX
  5
891
  8
LE_ALL
 10
511.28406935
 20
-133.3017451
 30
0.0
  0
VERTEX
  5
892
  8
LE_ALL
 10
511.1976031120115
 20
-133.0091096202322
 30
0.0
  0
VERTEX
  5
893
  8
LE_ALL
 10
510.9415272470735
 20
-132.7277199578145
 30
0.0
  0
VERTEX
  5
894
  8
LE_ALL
 10
510.5256826070442
 20
-132.4683897596436
 30
0.0
  0
VERTEX
  5
895
  8
LE_ALL
 10
509.9660498681951
 20
-132.2410849397787
 30
0.0
  0
VERTEX
  5
896
  8
LE_ALL
 10
509.2841354027856
 20
-132.0545406949531
 30
0.0
  0
VERTEX
  5
897
  8
LE_ALL
 10
508.5061448012395
 20
-131.915925815864
 30
0.0
  0
VERTEX
  5
898
  8
LE_ALL
 10
507.6619758060042
 20
-131.8305671945665
 30
0.0
  0
VERTEX
  5
899
  8
LE_ALL
 10
506.784069358077
 20
-131.801745115
 30
0.0
  0
VERTEX
  5
89A
  8
LE_ALL
 10
505.9061629098395
 20
-131.830567193516
 30
0.0
  0
VERTEX
  5
89B
  8
LE_ALL
 10
505.0619939136848
 20
-131.9159258138034
 30
0.0
  0
VERTEX
  5
89C
  8
LE_ALL
 10
504.284003310646
 20
-132.0545406919615
 30
0.0
  0
VERTEX
  5
89D
  8
LE_ALL
 10
503.6020888432275
 20
-132.2410849359711
 30
0.0
  0
VERTEX
  5
89E
  8
LE_ALL
 10
503.0424561019305
 20
-132.4683897551664
 30
0.0
  0
VERTEX
  5
89F
  8
LE_ALL
 10
502.6266114591083
 20
-132.7277199528397
 30
0.0
  0
VERTEX
  5
8A0
  8
LE_ALL
 10
502.37053559114
 20
-133.009109614951
 30
0.0
  0
VERTEX
  5
8A1
  8
LE_ALL
 10
502.28406935
 20
-133.3017450946153
 30
0.0
  0
SEQEND
  5
9EC
  8
LE_ALL
  0
POLYLINE
  5
443
  8
LE_ALL
 66
     1
 10
0.0
 20
0.0
 30
0.0
  0
VERTEX
  5
8A2
  8
LE_ALL
 10
502.28406935
 20
-133.3017450946153
 30
0.0
  0
VERTEX
  5
8A3
  8
LE_ALL
 10
502.3705355852309
 20
-133.5943805751467
 30
0.0
  0
VERTEX
  5
8A4
  8
LE_ALL
 10
502.62661144829
 20
-133.8757702384544
 30
0.0
  0
VERTEX
  5
8A5
  8
LE_ALL
 10
503.0424560873466
 20
-134.1351004375581
 30
0.0
  0
VERTEX
  5
8A6
  8
LE_ALL
 10
503.6020888260935
 20
-134.3624052583176
 30
0.0
  0
VERTEX
  5
8A7
  8
LE_ALL
 10
504.2840032921775
 20
-134.5489495039251
 30
0.0
  0
VERTEX
  5
8A8
  8
LE_ALL
 10
505.0619938950293
 20
-134.6875643836208
 30
0.0
  0
VERTEX
  5
8A9
  8
LE_ALL
 10
505.9061628920153
 20
-134.7729230053022
 30
0.0
  0
VERTEX
  5
8AA
  8
LE_ALL
 10
506.7840693419229
 20
-134.801745085
 30
0.0
  0
VERTEX
  5
8AB
  8
LE_ALL
 10
507.6619757921409
 20
-134.7729230063527
 30
0.0
  0
VERTEX
  5
8AC
  8
LE_ALL
 10
508.5061447900462
 20
-134.6875643856815
 30
0.0
  0
VERTEX
  5
8AD
  8
LE_ALL
 10
509.2841353943908
 20
-134.5489495069166
 30
0.0
  0
VERTEX
  5
8AE
  8
LE_ALL
 10
509.9660498624838
 20
-134.3624052621251
 30
0.0
  0
VERTEX
  5
8AF
  8
LE_ALL
 10
510.5256826036787
 20
-134.1351004420353
 30
0.0
  0
VERTEX
  5
8B0
  8
LE_ALL
 10
510.9415272455281
 20
-133.8757702434292
 30
0.0
  0
VERTEX
  5
8B1
  8
LE_ALL
 10
511.1976031116175
 20
-133.5943805804279
 30
0.0
  0
VERTEX
  5
8B2
  8
LE_ALL
 10
511.28406935
 20
-133.3017451
 30
0.0
  0
SEQEND
  5
9ED
  8
LE_ALL
  0
POLYLINE
  5
444
  8
LE_ALL
 66
     1
 10
0.0
 20
0.0
 30
0.0
  0
VERTEX
  5
8B3
  8
LE_ALL
 10
473.86749548
 20
-128.58769989
 30
0.0
  0
VERTEX
  5
8B4
  8
LE_ALL
 10
473.7810292420115
 20
-128.2950644102322
 30
0.0
  0
VERTEX
  5
8B5
  8
LE_ALL
 10
473.5249533770735
 20
-128.0136747478145
 30
0.0
  0
VERTEX
  5
8B6
  8
LE_ALL
 10
473.1091087370442
 20
-127.7543445496436
 30
0.0
  0
VERTEX
  5
8B7
  8
LE_ALL
 10
472.5494759981951
 20
-127.5270397297787
 30
0.0
  0
VERTEX
  5
8B8
  8
LE_ALL
 10
471.8675615327856
 20
-127.3404954849531
 30
0.0
  0
VERTEX
  5
8B9
  8
LE_ALL
 10
471.0895709312396
 20
-127.201880605864
 30
0.0
  0
VERTEX
  5
8BA
  8
LE_ALL
 10
470.2454019360042
 20
-127.1165219845665
 30
0.0
  0
VERTEX
  5
8BB
  8
LE_ALL
 10
469.3674954880771
 20
-127.087699905
 30
0.0
  0
VERTEX
  5
8BC
  8
LE_ALL
 10
468.4895890398395
 20
-127.116521983516
 30
0.0
  0
VERTEX
  5
8BD
  8
LE_ALL
 10
467.6454200436849
 20
-127.2018806038034
 30
0.0
  0
VERTEX
  5
8BE
  8
LE_ALL
 10
466.867429440646
 20
-127.3404954819615
 30
0.0
  0
VERTEX
  5
8BF
  8
LE_ALL
 10
466.1855149732276
 20
-127.5270397259711
 30
0.0
  0
VERTEX
  5
8C0
  8
LE_ALL
 10
465.6258822319305
 20
-127.7543445451664
 30
0.0
  0
VERTEX
  5
8C1
  8
LE_ALL
 10
465.2100375891084
 20
-128.0136747428397
 30
0.0
  0
VERTEX
  5
8C2
  8
LE_ALL
 10
464.95396172114
 20
-128.295064404951
 30
0.0
  0
VERTEX
  5
8C3
  8
LE_ALL
 10
464.86749548
 20
-128.5876998846153
 30
0.0
  0
SEQEND
  5
9EE
  8
LE_ALL
  0
POLYLINE
  5
445
  8
LE_ALL
 66
     1
 10
0.0
 20
0.0
 30
0.0
  0
VERTEX
  5
8C4
  8
LE_ALL
 10
464.86749548
 20
-128.5876998846153
 30
0.0
  0
VERTEX
  5
8C5
  8
LE_ALL
 10
464.9539617152309
 20
-128.8803353651467
 30
0.0
  0
VERTEX
  5
8C6
  8
LE_ALL
 10
465.21003757829
 20
-129.1617250284544
 30
0.0
  0
VERTEX
  5
8C7
  8
LE_ALL
 10
465.6258822173466
 20
-129.4210552275581
 30
0.0
  0
VERTEX
  5
8C8
  8
LE_ALL
 10
466.1855149560935
 20
-129.6483600483176
 30
0.0
  0
VERTEX
  5
8C9
  8
LE_ALL
 10
466.8674294221776
 20
-129.8349042939251
 30
0.0
  0
VERTEX
  5
8CA
  8
LE_ALL
 10
467.6454200250294
 20
-129.9735191736208
 30
0.0
  0
VERTEX
  5
8CB
  8
LE_ALL
 10
468.4895890220154
 20
-130.0588777953022
 30
0.0
  0
VERTEX
  5
8CC
  8
LE_ALL
 10
469.367495471923
 20
-130.087699875
 30
0.0
  0
VERTEX
  5
8CD
  8
LE_ALL
 10
470.245401922141
 20
-130.0588777963527
 30
0.0
  0
VERTEX
  5
8CE
  8
LE_ALL
 10
471.0895709200462
 20
-129.9735191756815
 30
0.0
  0
VERTEX
  5
8CF
  8
LE_ALL
 10
471.8675615243909
 20
-129.8349042969166
 30
0.0
  0
VERTEX
  5
8D0
  8
LE_ALL
 10
472.5494759924838
 20
-129.6483600521251
 30
0.0
  0
VERTEX
  5
8D1
  8
LE_ALL
 10
473.1091087336787
 20
-129.4210552320353
 30
0.0
  0
VERTEX
  5
8D2
  8
LE_ALL
 10
473.5249533755281
 20
-129.1617250334292
 30
0.0
  0
VERTEX
  5
8D3
  8
LE_ALL
 10
473.7810292416175
 20
-128.8803353704279
 30
0.0
  0
VERTEX
  5
8D4
  8
LE_ALL
 10
473.86749548
 20
-128.58769989
 30
0.0
  0
SEQEND
  5
9EF
  8
LE_ALL
  0
LINE
  5
446
  8
LE_ALL
 10
532.87561359
 20
-132.91858297
 30
0.0
 11
513.21804507
 21
-150.25492886
 31
0.0
  0
LINE
  5
447
  8
LE_ALL
 10
513.21804507
 20
-154.96897407
 30
0.0
 11
513.21804507
 21
-150.25492886
 31
0.0
  0
POLYLINE
  5
448
  8
LE_ALL
 66
     1
 10
0.0
 20
0.0
 30
0.0
  0
VERTEX
  5
449
  8
LE_ALL
 10
513.21804507
 20
-154.96897407
 30
0.0
  0
VERTEX
  5
44A
  8
LE_ALL
 10
532.87561359
 20
-137.63262818
 30
0.0
  0
VERTEX
  5
44B
  8
LE_ALL
 10
532.87561359
 20
-132.91858297
 30
0.0
  0
VERTEX
  5
44C
  8
LE_ALL
 10
529.50082004
 20
-130.42657868
 30
0.0
  0
VERTEX
  5
44D
  8
LE_ALL
 10
526.694577
 20
-130.07302529
 30
0.0
  0
VERTEX
  5
44E
  8
LE_ALL
 10
527.54310514
 20
-129.32469381
 30
0.0
  0
SEQEND
  5
44F
  8
LE_ALL
  0
LINE
  5
450
  8
LE_ALL
 10
451.58746019
 20
-119.75518204
 30
0.0
 11
527.54310514
 21
-129.32469381
 31
0.0
  0
LINE
  5
451
  8
LE_ALL
 10
426.13161607
 20
-142.20512636
 30
0.0
 11
451.58746019
 21
-119.75518204
 31
0.0
  0
LINE
  5
452
  8
LE_ALL
 10
502.08726102
 20
-151.77463813
 30
0.0
 11
426.13161607
 21
-142.20512636
 31
0.0
  0
POLYLINE
  5
453
  8
LE_ALL
 66
     1
 10
0.0
 20
0.0
 30
0.0
  0
VERTEX
  5
454
  8
LE_ALL
 10
502.08726102
 20
-151.77463813
 30
0.0
  0
VERTEX
  5
455
  8
LE_ALL
 10
502.93578916
 20
-151.02630665
 30
0.0
  0
VERTEX
  5
456
  8
LE_ALL
 10
505.7420322
 20
-151.37986004
 30
0.0
  0
VERTEX
  5
457
  8
LE_ALL
 10
513.21804507
 20
-150.25492886
 30
0.0
  0
SEQEND
  5
458
  8
LE_ALL
  0
LINE
  5
459
  8
LE_ALL
 10
505.7420322
 20
-156.09390525
 30
0.0
 11
505.7420322
 21
-151.37986004
 31
0.0
  0
POLYLINE
  5
45A
  8
LE_ALL
 66
     1
 10
0.0
 20
0.0
 30
0.0
  0
VERTEX
  5
45B
  8
LE_ALL
 10
505.7420322
 20
-156.09390525
 30
0.0
  0
VERTEX
  5
45C
  8
LE_ALL
 10
502.93578916
 20
-155.74035186
 30
0.0
  0
VERTEX
  5
45D
  8
LE_ALL
 10
502.08726102
 20
-156.48868334
 30
0.0
  0
SEQEND
  5
45E
  8
LE_ALL
  0
LINE
  5
45F
  8
LE_ALL
 10
426.13161607
 20
-146.91917156
 30
0.0
 11
502.08726102
 21
-156.48868334
 31
0.0
  0
LINE
  5
460
  8
LE_ALL
 10
502.08726102
 20
-151.77463813
 30
0.0
 11
502.08726102
 21
-156.48868334
 31
0.0
  0
LINE
  5
461
  8
LE_ALL
 10
502.93578916
 20
-151.02630665
 30
0.0
 11
502.93578916
 21
-155.74035186
 31
0.0
  0
LINE
  5
462
  8
LE_ALL
 10
513.21804507
 20
-154.96897407
 30
0.0
 11
505.7420322
 21
-156.09390525
 31
0.0
  0
LINE
  5
463
  8
LE_ALL
 10
527.54310514
 20
-129.32469381
 30
0.0
 11
527.54310514
 21
-130.17992978
 31
0.0
  0
ENDBLK
  8
0
  0
BLOCK
  8
0
  2
_00060
 70
     0
 10
0.0
 20
0.0
 30
0.0
  0
INSERT
  5
466
  8
0
  2
_00061
 10
469.36749548
 20
-126.46637955
 30
0.0
  0
ENDBLK
  8
0
  0
BLOCK
  8
0
  2
_00061
 70
     0
 10
469.36749548
 20
-126.46637955
 30
0.0
  0
LINE
  5
469
  8
LE_ALL
  6
STRICHPUNKT2
 62
     1
 10
469.36749548
 20
-126.46637955
 30
0.0
 11
469.36749548
 21
-130.08769989
 31
0.0
  0
LINE
  5
46A
  8
LE_ALL
  6
STRICHPUNKT2
 62
     1
 10
469.36749548
 20
-128.58769989
 30
0.0
 11
475.68154232
 21
-129.38319502
 31
0.0
  0
LINE
  5
46B
  8
LE_ALL
  6
STRICHPUNKT2
 62
     1
 10
469.36749548
 20
-128.58769989
 30
0.0
 11
463.05344864
 21
-127.79220476
 31
0.0
  0
LINE
  5
46C
  8
LE_ALL
  6
STRICHPUNKT2
 62
     1
 10
469.36749548
 20
-128.58769989
 30
0.0
 11
471.75398086
 21
-126.48301761
 31
0.0
  0
LINE
  5
46D
  8
LE_ALL
  6
STRICHPUNKT2
 62
     1
 10
469.36749548
 20
-128.58769989
 30
0.0
 11
466.98101009
 21
-130.69238217
 31
0.0
  0
LINE
  5
46E
  8
LE_ALL
  6
STRICHPUNKT2
 62
     1
 10
506.78406935
 20
-131.18042476
 30
0.0
 11
506.78406935
 21
-134.8017451
 31
0.0
  0
LINE
  5
46F
  8
LE_ALL
  6
STRICHPUNKT2
 62
     1
 10
506.78406935
 20
-133.3017451
 30
0.0
 11
513.09811619
 21
-134.09724023
 31
0.0
  0
LINE
  5
470
  8
LE_ALL
  6
STRICHPUNKT2
 62
     1
 10
506.78406935
 20
-133.3017451
 30
0.0
 11
500.47002251
 21
-132.50624997
 31
0.0
  0
LINE
  5
471
  8
LE_ALL
  6
STRICHPUNKT2
 62
     1
 10
506.78406935
 20
-133.3017451
 30
0.0
 11
509.17055473
 21
-131.19706282
 31
0.0
  0
LINE
  5
472
  8
LE_ALL
  6
STRICHPUNKT2
 62
     1
 10
506.78406935
 20
-133.3017451
 30
0.0
 11
504.39758396
 21
-135.40642738
 31
0.0
  0
LINE
  5
473
  8
LE_ALL
  6
STRICHPUNKT2
 62
     1
 10
456.99312681
 20
-137.85095145
 30
0.0
 11
456.99312681
 21
-140.66753394
 31
0.0
  0
LINE
  5
474
  8
LE_ALL
  6
STRICHPUNKT2
 62
     1
 10
456.99312681
 20
-139.50086727
 30
0.0
 11
461.90405213
 21
-140.1195857
 31
0.0
  0
LINE
  5
475
  8
LE_ALL
  6
STRICHPUNKT2
 62
     1
 10
456.99312681
 20
-139.50086727
 30
0.0
 11
452.08220149
 21
-138.88214884
 31
0.0
  0
LINE
  5
476
  8
LE_ALL
  6
STRICHPUNKT2
 62
     1
 10
456.99312681
 20
-139.50086727
 30
0.0
 11
458.84928211
 21
-137.86389216
 31
0.0
  0
LINE
  5
477
  8
LE_ALL
  6
STRICHPUNKT2
 62
     1
 10
456.99312681
 20
-139.50086727
 30
0.0
 11
455.13697151
 21
-141.13784238
 31
0.0
  0
LINE
  5
478
  8
LE_ALL
  6
STRICHPUNKT2
 62
     1
 10
494.40970067
 20
-142.56499666
 30
0.0
 11
494.40970067
 21
-145.38157915
 31
0.0
  0
LINE
  5
479
  8
LE_ALL
  6
STRICHPUNKT2
 62
     1
 10
494.40970067
 20
-144.21491248
 30
0.0
 11
499.320626
 21
-144.83363091
 31
0.0
  0
LINE
  5
47A
  8
LE_ALL
  6
STRICHPUNKT2
 62
     1
 10
494.40970067
 20
-144.21491248
 30
0.0
 11
489.49877535
 21
-143.59619405
 31
0.0
  0
LINE
  5
47B
  8
LE_ALL
  6
STRICHPUNKT2
 62
     1
 10
494.40970067
 20
-144.21491248
 30
0.0
 11
496.26585598
 21
-142.57793737
 31
0.0
  0
LINE
  5
47C
  8
LE_ALL
  6
STRICHPUNKT2
 62
     1
 10
494.40970067
 20
-144.21491248
 30
0.0
 11
492.55354537
 21
-145.85188759
 31
0.0
  0
LINE
  5
47D
  8
LE_ALL
  6
STRICHPUNKT2
 62
     1
 10
488.07578241
 20
-129.29480667
 30
0.0
 11
488.07578241
 21
-132.11138916
 31
0.0
  0
LINE
  5
47E
  8
LE_ALL
  6
STRICHPUNKT2
 62
     1
 10
488.07578241
 20
-130.9447225
 30
0.0
 11
492.98670773
 21
-131.56344093
 31
0.0
  0
LINE
  5
47F
  8
LE_ALL
  6
STRICHPUNKT2
 62
     1
 10
488.07578241
 20
-130.9447225
 30
0.0
 11
483.16485709
 21
-130.32600406
 31
0.0
  0
LINE
  5
480
  8
LE_ALL
  6
STRICHPUNKT2
 62
     1
 10
488.07578241
 20
-130.9447225
 30
0.0
 11
489.93193771
 21
-129.30774739
 31
0.0
  0
LINE
  5
481
  8
LE_ALL
  6
STRICHPUNKT2
 62
     1
 10
488.07578241
 20
-130.9447225
 30
0.0
 11
486.21962711
 21
-132.5816976
 31
0.0
  0
LINE
  5
482
  8
LE_ALL
  6
STRICHPUNKT2
 62
     1
 10
475.70141374
 20
-139.73656953
 30
0.0
 11
475.70141374
 21
-143.35788987
 31
0.0
  0
LINE
  5
483
  8
LE_ALL
  6
STRICHPUNKT2
 62
     1
 10
475.70141374
 20
-141.85788987
 30
0.0
 11
482.01546058
 21
-142.653385
 31
0.0
  0
LINE
  5
484
  8
LE_ALL
  6
STRICHPUNKT2
 62
     1
 10
475.70141374
 20
-141.85788987
 30
0.0
 11
469.3873669
 21
-141.06239475
 31
0.0
  0
LINE
  5
485
  8
LE_ALL
  6
STRICHPUNKT2
 62
     1
 10
475.70141374
 20
-141.85788987
 30
0.0
 11
478.08789913
 21
-139.75320759
 31
0.0
  0
LINE
  5
486
  8
LE_ALL
  6
STRICHPUNKT2
 62
     1
 10
475.70141374
 20
-141.85788987
 30
0.0
 11
473.31492835
 21
-143.96257215
 31
0.0
  0
LINE
  5
487
  8
LE_ALL
  6
STRICHPUNKT2
 62
     1
 10
462.2448968
 20
-131.09800533
 30
0.0
 11
462.2448968
 21
-136.24269655
 31
0.0
  0
LINE
  5
488
  8
LE_ALL
  6
STRICHPUNKT2
 62
     1
 10
506.20937109
 20
-136.63700845
 30
0.0
 11
506.20937109
 21
-141.63210224
 31
0.0
  0
LINE
  5
489
  8
LE_ALL
  6
STRICHPUNKT2
 62
     1
 10
453.3584605
 20
-132.80684671
 30
0.0
 11
515.09580738
 21
-140.58502131
 31
0.0
  0
LINE
  5
48A
  8
LE_ALL
  6
STRICHPUNKT2
 62
     1
 10
458.88613959
 20
-136.88857788
 30
0.0
 11
465.60365401
 21
-130.96428702
 31
0.0
  0
LINE
  5
48B
  8
LE_ALL
  6
STRICHPUNKT2
 62
     1
 10
502.85061388
 20
-142.427581
 30
0.0
 11
509.5681283
 21
-136.50329014
 31
0.0
  0
ENDBLK
  8
0
  0
BLOCK
  8
0
  2
BEND_ZONE_00062
 70
     0
 10
0.0
 20
0.0
 30
0.0
  0
INSERT
  5
48E
  8
0
  2
BEND_ZONE_00063
 10
421.45454433
 20
-136.9018255
 30
0.0
  0
ENDBLK
  8
0
  0
BLOCK
  8
0
  2
BEND_ZONE_00063
 70
     0
 10
421.45454433
 20
-136.9018255
 30
0.0
  0
LINE
  5
491
  8
LE_ALL
 10
421.45454433
 20
-136.9018255
 30
0.0
 11
446.91038846
 21
-114.45188118
 31
0.0
  0
POLYLINE
  5
492
  8
LE_ALL
 66
     1
 10
0.0
 20
0.0
 30
0.0
  0
VERTEX
  5
8D5
  8
LE_ALL
 10
416.7774726209712
 20
-136.3125698606354
 30
0.0
  0
VERTEX
  5
8D6
  8
LE_ALL
 10
416.9572098724987
 20
-138.1745438093843
 30
0.0
  0
VERTEX
  5
8D7
  8
LE_ALL
 10
417.4895144060895
 20
-140.01025267165
 30
0.0
  0
VERTEX
  5
8D8
  8
LE_ALL
 10
418.3539300572139
 20
-141.7491511859412
 30
0.0
  0
VERTEX
  5
8D9
  8
LE_ALL
 10
419.5172378174555
 20
-143.3244144581154
 30
0.0
  0
VERTEX
  5
8DA
  8
LE_ALL
 10
420.9347324223643
 20
-144.675506004563
 30
0.0
  0
VERTEX
  5
8DB
  8
LE_ALL
 10
422.5519403496836
 20
-145.7505041353026
 30
0.0
  0
VERTEX
  5
8DC
  8
LE_ALL
 10
424.306713206243
 20
-146.508097275392
 30
0.0
  0
VERTEX
  5
8DD
  8
LE_ALL
 10
426.1316160558345
 20
-146.9191715455717
 30
0.0
  0
SEQEND
  5
9F0
  8
LE_ALL
  0
POLYLINE
  5
493
  8
LE_ALL
 66
     1
 10
0.0
 20
0.0
 30
0.0
  0
VERTEX
  5
8DE
  8
LE_ALL
 10
421.4545443454856
 20
-136.9018255053177
 30
0.0
  0
VERTEX
  5
8DF
  8
LE_ALL
 10
421.5444129712494
 20
-137.8328124796922
 30
0.0
  0
VERTEX
  5
8E0
  8
LE_ALL
 10
421.8105652380448
 20
-138.750666910825
 30
0.0
  0
VERTEX
  5
8E1
  8
LE_ALL
 10
422.2427730636069
 20
-139.6201161679706
 30
0.0
  0
VERTEX
  5
8E2
  8
LE_ALL
 10
422.8244269437278
 20
-140.4077478040577
 30
0.0
  0
VERTEX
  5
8E3
  8
LE_ALL
 10
423.5331742461822
 20
-141.0832935772815
 30
0.0
  0
VERTEX
  5
8E4
  8
LE_ALL
 10
424.3417782098418
 20
-141.6207926426513
 30
0.0
  0
VERTEX
  5
8E5
  8
LE_ALL
 10
425.2191646381215
 20
-141.999589212696
 30
0.0
  0
VERTEX
  5
8E6
  8
LE_ALL
 10
426.1316160629173
 20
-142.2051263477859
 30
0.0
  0
SEQEND
  5
9F1
  8
LE_ALL
  0
POLYLINE
  5
494
  8
LE_ALL
 66
     1
 10
0.0
 20
0.0
 30
0.0
  0
VERTEX
  5
495
  8
LE_ALL
 10
426.13161607
 20
-142.20512636
 30
0.0
  0
VERTEX
  5
496
  8
LE_ALL
 10
451.58746019
 20
-119.75518204
 30
0.0
  0
SEQEND
  5
497
  8
LE_ALL
  0
POLYLINE
  5
498
  8
LE_ALL
 66
     1
 10
0.0
 20
0.0
 30
0.0
  0
VERTEX
  5
8E7
  8
LE_ALL
 10
446.9103884654856
 20
-114.4518811853177
 30
0.0
  0
VERTEX
  5
8E8
  8
LE_ALL
 10
447.0002570912494
 20
-115.3828681596922
 30
0.0
  0
VERTEX
  5
8E9
  8
LE_ALL
 10
447.2664093580448
 20
-116.300722590825
 30
0.0
  0
VERTEX
  5
8EA
  8
LE_ALL
 10
447.6986171836069
 20
-117.1701718479706
 30
0.0
  0
VERTEX
  5
8EB
  8
LE_ALL
 10
448.2802710637278
 20
-117.9578034840577
 30
0.0
  0
VERTEX
  5
8EC
  8
LE_ALL
 10
448.9890183661822
 20
-118.6333492572815
 30
0.0
  0
VERTEX
  5
8ED
  8
LE_ALL
 10
449.7976223298418
 20
-119.1708483226513
 30
0.0
  0
VERTEX
  5
8EE
  8
LE_ALL
 10
450.6750087581215
 20
-119.549644892696
 30
0.0
  0
VERTEX
  5
8EF
  8
LE_ALL
 10
451.5874601829173
 20
-119.7551820277858
 30
0.0
  0
SEQEND
  5
9F2
  8
LE_ALL
  0
ENDBLK
  8
0
  0
BLOCK
  8
0
  2
SHEET_FLANGE_00064
 70
     0
 10
0.0
 20
0.0
 30
0.0
  0
INSERT
  5
49B
  8
0
  2
SHEET_FLANGE_00065
 10
436.48056343
 20
-104.3225369
 30
0.0
  0
INSERT
  5
49C
  8
0
  2
_00066
 10
0.0
 20
0.0
 30
0.0
  0
ENDBLK
  8
0
  0
BLOCK
  8
0
  2
SHEET_FLANGE_00065
 70
     0
 10
436.48056343
 20
-104.3225369
 30
0.0
  0
POLYLINE
  5
49F
  8
LE_ALL
 66
     1
 10
0.0
 20
0.0
 30
0.0
  0
VERTEX
  5
8F0
  8
LE_ALL
 10
433.3699664
 20
-112.79828681
 30
0.0
  0
VERTEX
  5
8F1
  8
LE_ALL
 10
433.7978580320445
 20
-112.7302861063681
 30
0.0
  0
VERTEX
  5
8F2
  8
LE_ALL
 10
434.2400634633755
 20
-112.4248058776622
 30
0.0
  0
VERTEX
  5
8F3
  8
LE_ALL
 10
434.6801253303088
 20
-111.8932150462565
 30
0.0
  0
VERTEX
  5
8F4
  8
LE_ALL
 10
435.1016660452466
 20
-111.1552975926809
 30
0.0
  0
VERTEX
  5
8F5
  8
LE_ALL
 10
435.4889973141022
 20
-110.2385162639804
 30
0.0
  0
VERTEX
  5
8F6
  8
LE_ALL
 10
435.8277040005923
 20
-109.1769905048213
 30
0.0
  0
VERTEX
  5
8F7
  8
LE_ALL
 10
436.1051806079795
 20
-108.0102266492308
 30
0.0
  0
VERTEX
  5
8F8
  8
LE_ALL
 10
436.3111004122614
 20
-106.7816476308609
 30
0.0
  0
VERTEX
  5
8F9
  8
LE_ALL
 10
436.4377997872844
 20
-105.5369769308988
 30
0.0
  0
VERTEX
  5
8FA
  8
LE_ALL
 10
436.4805634185234
 20
-104.3225369075182
 30
0.0
  0
SEQEND
  5
9F3
  8
LE_ALL
  0
POLYLINE
  5
4A0
  8
LE_ALL
 66
     1
 10
0.0
 20
0.0
 30
0.0
  0
VERTEX
  5
8FB
  8
LE_ALL
 10
431.8843693814766
 20
-108.3759990504826
 30
0.0
  0
VERTEX
  5
8FC
  8
LE_ALL
 10
431.930898598961
 20
-109.5618984937655
 30
0.0
  0
VERTEX
  5
8FD
  8
LE_ALL
 10
432.0686021184534
 20
-110.6177066541407
 30
0.0
  0
VERTEX
  5
8FE
  8
LE_ALL
 10
432.2919038155007
 20
-111.5006699569514
 30
0.0
  0
VERTEX
  5
8FF
  8
LE_ALL
 10
432.5917613790712
 20
-112.1750339546542
 30
0.0
  0
VERTEX
  5
900
  8
LE_ALL
 10
432.9560324681491
 20
-112.613491156548
 30
0.0
  0
VERTEX
  5
901
  8
LE_ALL
 10
433.3699664
 20
-112.79828681
 30
0.0
  0
SEQEND
  5
9F4
  8
LE_ALL
  0
POLYLINE
  5
4A1
  8
LE_ALL
 66
     1
 10
0.0
 20
0.0
 30
0.0
  0
VERTEX
  5
4A2
  8
LE_ALL
 10
431.88436936
 20
-108.37599907
 30
0.0
  0
VERTEX
  5
4A3
  8
LE_ALL
 10
431.88436936
 20
-92.34824536
 30
0.0
  0
SEQEND
  5
4A4
  8
LE_ALL
  0
POLYLINE
  5
4A5
  8
LE_ALL
 66
     1
 10
0.0
 20
0.0
 30
0.0
  0
VERTEX
  5
902
  8
LE_ALL
 10
434.9949664077169
 20
-83.87249546097223
 30
0.0
  0
VERTEX
  5
903
  8
LE_ALL
 10
434.5670747760889
 20
-83.94049616014075
 30
0.0
  0
VERTEX
  5
904
  8
LE_ALL
 10
434.1248693448716
 20
-84.24597638451316
 30
0.0
  0
VERTEX
  5
905
  8
LE_ALL
 10
433.6848074777452
 20
-84.77756721187663
 30
0.0
  0
VERTEX
  5
906
  8
LE_ALL
 10
433.2632667623145
 20
-85.51548466185162
 30
0.0
  0
VERTEX
  5
907
  8
LE_ALL
 10
432.8759354926845
 20
-86.43226598752716
 30
0.0
  0
VERTEX
  5
908
  8
LE_ALL
 10
432.5372288051675
 20
-87.49379174434952
 30
0.0
  0
VERTEX
  5
909
  8
LE_ALL
 10
432.2597521965391
 20
-88.66055559837844
 30
0.0
  0
VERTEX
  5
90A
  8
LE_ALL
 10
432.0538323908478
 20
-89.88913461602004
 30
0.0
  0
VERTEX
  5
90B
  8
LE_ALL
 10
431.9271330142997
 20
-91.13380531611439
 30
0.0
  0
VERTEX
  5
90C
  8
LE_ALL
 10
431.8843693814766
 20
-92.34824534048263
 30
0.0
  0
SEQEND
  5
9F5
  8
LE_ALL
  0
POLYLINE
  5
4A6
  8
LE_ALL
 66
     1
 10
0.0
 20
0.0
 30
0.0
  0
VERTEX
  5
90D
  8
LE_ALL
 10
436.4805634185234
 20
-88.29478319751819
 30
0.0
  0
VERTEX
  5
90E
  8
LE_ALL
 10
436.434034199938
 20
-87.10888376283641
 30
0.0
  0
VERTEX
  5
90F
  8
LE_ALL
 10
436.2963306804677
 20
-86.05307561006553
 30
0.0
  0
VERTEX
  5
910
  8
LE_ALL
 10
436.0730289844993
 20
-85.17011231304862
 30
0.0
  0
VERTEX
  5
911
  8
LE_ALL
 10
435.7731714229134
 20
-84.49574831867133
 30
0.0
  0
VERTEX
  5
912
  8
LE_ALL
 10
435.408900336502
 20
-84.05729111717707
 30
0.0
  0
VERTEX
  5
913
  8
LE_ALL
 10
434.9949664077169
 20
-83.87249546097223
 30
0.0
  0
SEQEND
  5
9F6
  8
LE_ALL
  0
LINE
  5
4A7
  8
LE_ALL
 10
436.48056343
 20
-88.29478319
 30
0.0
 11
436.48056343
 21
-104.3225369
 31
0.0
  0
LINE
  5
4A8
  8
LE_ALL
 10
431.88436936
 20
-103.74347088
 30
0.0
 11
436.48056343
 21
-104.3225369
 31
0.0
  0
LINE
  5
4A9
  8
LE_ALL
 10
432.45889362
 20
-87.78810042
 30
0.0
 11
436.48056343
 21
-88.29478319
 31
0.0
  0
POLYLINE
  5
4AA
  8
LE_ALL
 66
     1
 10
0.0
 20
0.0
 30
0.0
  0
VERTEX
  5
914
  8
LE_ALL
 10
439.80715073
 20
-95.92929921999999
 30
0.0
  0
VERTEX
  5
915
  8
LE_ALL
 10
440.1082992740136
 20
-95.88009059397609
 30
0.0
  0
VERTEX
  5
916
  8
LE_ALL
 10
440.4194914078902
 20
-95.66119690585971
 30
0.0
  0
VERTEX
  5
917
  8
LE_ALL
 10
440.7287681924709
 20
-95.281030117309
 30
0.0
  0
VERTEX
  5
918
  8
LE_ALL
 10
441.0242442943957
 20
-94.75419982477472
 30
0.0
  0
VERTEX
  5
919
  8
LE_ALL
 10
441.2945647327983
 20
-94.10095182090298
 30
0.0
  0
VERTEX
  5
91A
  8
LE_ALL
 10
441.5293412448522
 20
-93.3463900600797
 30
0.0
  0
VERTEX
  5
91B
  8
LE_ALL
 10
441.7195515008837
 20
-92.51951192754414
 30
0.0
  0
VERTEX
  5
91C
  8
LE_ALL
 10
441.8578858274413
 20
-91.65209388613869
 30
0.0
  0
VERTEX
  5
91D
  8
LE_ALL
 10
441.9390281139465
 20
-90.77747032466493
 30
0.0
  0
VERTEX
  5
91E
  8
LE_ALL
 10
441.9598601078409
 20
-89.92925253601922
 30
0.0
  0
VERTEX
  5
91F
  8
LE_ALL
 10
441.9195812472839
 20
-89.14003705405895
 30
0.0
  0
VERTEX
  5
920
  8
LE_ALL
 10
441.8197394262943
 20
-88.4401529870896
 30
0.0
  0
VERTEX
  5
921
  8
LE_ALL
 10
441.6641715100522
 20
-87.85649648724406
 30
0.0
  0
VERTEX
  5
922
  8
LE_ALL
 10
441.4588558863217
 20
-87.41149714644193
 30
0.0
  0
VERTEX
  5
923
  8
LE_ALL
 10
441.2116827193623
 20
-87.12225603975278
 30
0.0
  0
VERTEX
  5
924
  8
LE_ALL
 10
440.9321507353424
 20
-86.99988854067308
 30
0.0
  0
SEQEND
  5
9F7
  8
LE_ALL
  0
POLYLINE
  5
4AB
  8
LE_ALL
 66
     1
 10
0.0
 20
0.0
 30
0.0
  0
VERTEX
  5
925
  8
LE_ALL
 10
440.9321507353424
 20
-86.99988854067308
 30
0.0
  0
VERTEX
  5
926
  8
LE_ALL
 10
440.6310021909159
 20
-87.04909716386561
 30
0.0
  0
VERTEX
  5
927
  8
LE_ALL
 10
440.3198100563911
 20
-87.26799085000661
 30
0.0
  0
VERTEX
  5
928
  8
LE_ALL
 10
440.0105332710065
 20
-87.64815763747556
 30
0.0
  0
VERTEX
  5
929
  8
LE_ALL
 10
439.7150571682071
 20
-88.17498792979671
 30
0.0
  0
VERTEX
  5
92A
  8
LE_ALL
 10
439.4447367289443
 20
-88.8282359342399
 30
0.0
  0
VERTEX
  5
92B
  8
LE_ALL
 10
439.2099602161254
 20
-89.58279769628284
 30
0.0
  0
VERTEX
  5
92C
  8
LE_ALL
 10
439.0197499594942
 20
-90.40967583050733
 30
0.0
  0
VERTEX
  5
92D
  8
LE_ALL
 10
438.8814156325587
 20
-91.2770938738613
 30
0.0
  0
VERTEX
  5
92E
  8
LE_ALL
 10
438.8002733459362
 20
-92.1517174373164
 30
0.0
  0
VERTEX
  5
92F
  8
LE_ALL
 10
438.7794413522037
 20
-92.999935227747
 30
0.0
  0
VERTEX
  5
930
  8
LE_ALL
 10
438.8197202131996
 20
-93.7891507110786
 30
0.0
  0
VERTEX
  5
931
  8
LE_ALL
 10
438.9195620348806
 20
-94.48903477881487
 30
0.0
  0
VERTEX
  5
932
  8
LE_ALL
 10
439.0751299520229
 20
-95.07269127867092
 30
0.0
  0
VERTEX
  5
933
  8
LE_ALL
 10
439.2804455768006
 20
-95.5176906186245
 30
0.0
  0
VERTEX
  5
934
  8
LE_ALL
 10
439.5276187448778
 20
-95.80693172356078
 30
0.0
  0
VERTEX
  5
935
  8
LE_ALL
 10
439.80715073
 20
-95.92929921999999
 30
0.0
  0
SEQEND
  5
9F8
  8
LE_ALL
  0
POLYLINE
  5
4AC
  8
LE_ALL
 66
     1
 10
0.0
 20
0.0
 30
0.0
  0
VERTEX
  5
936
  8
LE_ALL
 10
427.55778206
 20
-105.85030986
 30
0.0
  0
VERTEX
  5
937
  8
LE_ALL
 10
427.7920087054885
 20
-105.8120364841609
 30
0.0
  0
VERTEX
  5
938
  8
LE_ALL
 10
428.0340470319759
 20
-105.6417858377217
 30
0.0
  0
VERTEX
  5
939
  8
LE_ALL
 10
428.2745956423335
 20
-105.3461005575325
 30
0.0
  0
VERTEX
  5
93A
  8
LE_ALL
 10
428.5044103883872
 20
-104.9363436630628
 30
0.0
  0
VERTEX
  5
93B
  8
LE_ALL
 10
428.714659618348
 20
-104.4282618819369
 30
0.0
  0
VERTEX
  5
93C
  8
LE_ALL
 10
428.8972635722361
 20
-103.8413805120235
 30
0.0
  0
VERTEX
  5
93D
  8
LE_ALL
 10
429.0452048825249
 20
-103.1982530751901
 30
0.0
  0
VERTEX
  5
93E
  8
LE_ALL
 10
429.1527982476396
 20
-102.5235945981079
 30
0.0
  0
VERTEX
  5
93F
  8
LE_ALL
 10
429.2159089149071
 20
-101.8433318276392
 30
0.0
  0
VERTEX
  5
940
  8
LE_ALL
 10
429.2321115767829
 20
-101.1836068804979
 30
0.0
  0
VERTEX
  5
941
  8
LE_ALL
 10
429.200783574059
 20
-100.5697726163668
 30
0.0
  0
VERTEX
  5
942
  8
LE_ALL
 10
429.1231288243083
 20
-100.0254183417206
 30
0.0
  0
VERTEX
  5
943
  8
LE_ALL
 10
429.0021315560078
 20
-99.57146328600878
 30
0.0
  0
VERTEX
  5
944
  8
LE_ALL
 10
428.8424416263114
 20
-99.22535268740177
 30
0.0
  0
VERTEX
  5
945
  8
LE_ALL
 10
428.6501958296486
 20
-99.00038738207265
 30
0.0
  0
VERTEX
  5
946
  8
LE_ALL
 10
428.4327820641553
 20
-98.90521266052352
 30
0.0
  0
SEQEND
  5
9F9
  8
LE_ALL
  0
POLYLINE
  5
4AD
  8
LE_ALL
 66
     1
 10
0.0
 20
0.0
 30
0.0
  0
VERTEX
  5
947
  8
LE_ALL
 10
428.4327820641553
 20
-98.90521266052352
 30
0.0
  0
VERTEX
  5
948
  8
LE_ALL
 10
428.1985554183457
 20
-98.94348603416039
 30
0.0
  0
VERTEX
  5
949
  8
LE_ALL
 10
427.9565170913541
 20
-99.1137366790632
 30
0.0
  0
VERTEX
  5
94A
  8
LE_ALL
 10
427.7159684803713
 20
-99.40942195841107
 30
0.0
  0
VERTEX
  5
94B
  8
LE_ALL
 10
427.4861537336373
 20
-99.81917885271498
 30
0.0
  0
VERTEX
  5
94C
  8
LE_ALL
 10
427.2759045030075
 20
-100.3272606342853
 30
0.0
  0
VERTEX
  5
94D
  8
LE_ALL
 10
427.0933005485243
 20
-100.9141420051474
 30
0.0
  0
VERTEX
  5
94E
  8
LE_ALL
 10
426.945359237769
 20
-101.5572694432944
 30
0.0
  0
VERTEX
  5
94F
  8
LE_ALL
 10
426.8377658723605
 20
-102.2319279218921
 30
0.0
  0
VERTEX
  5
950
  8
LE_ALL
 10
426.7746552050016
 20
-102.9121906939018
 30
0.0
  0
VERTEX
  5
951
  8
LE_ALL
 10
426.758452543252
 20
-103.5719156424314
 30
0.0
  0
VERTEX
  5
952
  8
LE_ALL
 10
426.7897805463171
 20
-104.1857499076291
 30
0.0
  0
VERTEX
  5
953
  8
LE_ALL
 10
426.8674352966055
 20
-104.7301041828718
 30
0.0
  0
VERTEX
  5
954
  8
LE_ALL
 10
426.9884325656063
 20
-105.1840592385918
 30
0.0
  0
VERTEX
  5
955
  8
LE_ALL
 10
427.148122496117
 20
-105.5301698365388
 30
0.0
  0
VERTEX
  5
956
  8
LE_ALL
 10
427.3403682936494
 20
-105.7551351405046
 30
0.0
  0
VERTEX
  5
957
  8
LE_ALL
 10
427.55778206
 20
-105.85030986
 30
0.0
  0
SEQEND
  5
9FA
  8
LE_ALL
  0
POLYLINE
  5
4AE
  8
LE_ALL
 66
     1
 10
0.0
 20
0.0
 30
0.0
  0
VERTEX
  5
958
  8
LE_ALL
 10
439.93215073
 20
-76.08096164999999
 30
0.0
  0
VERTEX
  5
959
  8
LE_ALL
 10
440.1663773754884
 20
-76.04268827416094
 30
0.0
  0
VERTEX
  5
95A
  8
LE_ALL
 10
440.4084157019759
 20
-75.87243762772172
 30
0.0
  0
VERTEX
  5
95B
  8
LE_ALL
 10
440.6489643123334
 20
-75.57675234753249
 30
0.0
  0
VERTEX
  5
95C
  8
LE_ALL
 10
440.8787790583871
 20
-75.16699545306278
 30
0.0
  0
VERTEX
  5
95D
  8
LE_ALL
 10
441.0890282883479
 20
-74.65891367193692
 30
0.0
  0
VERTEX
  5
95E
  8
LE_ALL
 10
441.271632242236
 20
-74.0720323020235
 30
0.0
  0
VERTEX
  5
95F
  8
LE_ALL
 10
441.4195735525249
 20
-73.42890486519009
 30
0.0
  0
VERTEX
  5
960
  8
LE_ALL
 10
441.5271669176395
 20
-72.75424638810786
 30
0.0
  0
VERTEX
  5
961
  8
LE_ALL
 10
441.5902775849071
 20
-72.07398361763919
 30
0.0
  0
VERTEX
  5
962
  8
LE_ALL
 10
441.6064802467829
 20
-71.41425867049789
 30
0.0
  0
VERTEX
  5
963
  8
LE_ALL
 10
441.5751522440589
 20
-70.8004244063668
 30
0.0
  0
VERTEX
  5
964
  8
LE_ALL
 10
441.4974974943083
 20
-70.25607013172056
 30
0.0
  0
VERTEX
  5
965
  8
LE_ALL
 10
441.3765002260077
 20
-69.80211507600877
 30
0.0
  0
VERTEX
  5
966
  8
LE_ALL
 10
441.2168102963114
 20
-69.45600447740176
 30
0.0
  0
VERTEX
  5
967
  8
LE_ALL
 10
441.0245644996485
 20
-69.23103917207264
 30
0.0
  0
VERTEX
  5
968
  8
LE_ALL
 10
440.8071507341552
 20
-69.13586445052351
 30
0.0
  0
SEQEND
  5
9FB
  8
LE_ALL
  0
POLYLINE
  5
4AF
  8
LE_ALL
 66
     1
 10
0.0
 20
0.0
 30
0.0
  0
VERTEX
  5
969
  8
LE_ALL
 10
440.8071507341552
 20
-69.13586445052351
 30
0.0
  0
VERTEX
  5
96A
  8
LE_ALL
 10
440.5729240881305
 20
-69.1741378242546
 30
0.0
  0
VERTEX
  5
96B
  8
LE_ALL
 10
440.330885760918
 20
-69.34438846948419
 30
0.0
  0
VERTEX
  5
96C
  8
LE_ALL
 10
440.0903371497338
 20
-69.64007374936718
 30
0.0
  0
VERTEX
  5
96D
  8
LE_ALL
 10
439.860522402842
 20
-70.04983064437364
 30
0.0
  0
VERTEX
  5
96E
  8
LE_ALL
 10
439.65027317212
 20
-70.55791242675873
 30
0.0
  0
VERTEX
  5
96F
  8
LE_ALL
 10
439.4676692176283
 20
-71.14479379848153
 30
0.0
  0
VERTEX
  5
970
  8
LE_ALL
 10
439.3197279069608
 20
-71.78792123746183
 30
0.0
  0
VERTEX
  5
971
  8
LE_ALL
 10
439.2121345417435
 20
-72.46257971678915
 30
0.0
  0
VERTEX
  5
972
  8
LE_ALL
 10
439.1490238746792
 20
-73.14284248935026
 30
0.0
  0
VERTEX
  5
973
  8
LE_ALL
 10
439.1328212133202
 20
-73.8025674381851
 30
0.0
  0
VERTEX
  5
974
  8
LE_ALL
 10
439.1641492168586
 20
-74.41640170338479
 30
0.0
  0
VERTEX
  5
975
  8
LE_ALL
 10
439.2418039676825
 20
-74.96075597828401
 30
0.0
  0
VERTEX
  5
976
  8
LE_ALL
 10
439.3628012372548
 20
-75.41471103329066
 30
0.0
  0
VERTEX
  5
977
  8
LE_ALL
 10
439.5224911683429
 20
-75.76082163015082
 30
0.0
  0
VERTEX
  5
978
  8
LE_ALL
 10
439.7147369664254
 20
-75.98578693267406
 30
0.0
  0
VERTEX
  5
979
  8
LE_ALL
 10
439.9321507332647
 20
-76.0809616504113
 30
0.0
  0
SEQEND
  5
9FC
  8
LE_ALL
  0
POLYLINE
  5
4B0
  8
LE_ALL
 66
     1
 10
0.0
 20
0.0
 30
0.0
  0
VERTEX
  5
97A
  8
LE_ALL
 10
439.93215073
 20
-113.79332331
 30
0.0
  0
VERTEX
  5
97B
  8
LE_ALL
 10
440.1663773754884
 20
-113.7550499341609
 30
0.0
  0
VERTEX
  5
97C
  8
LE_ALL
 10
440.4084157019759
 20
-113.5847992877217
 30
0.0
  0
VERTEX
  5
97D
  8
LE_ALL
 10
440.6489643123334
 20
-113.2891140075325
 30
0.0
  0
VERTEX
  5
97E
  8
LE_ALL
 10
440.8787790583871
 20
-112.8793571130628
 30
0.0
  0
VERTEX
  5
97F
  8
LE_ALL
 10
441.0890282883479
 20
-112.3712753319369
 30
0.0
  0
VERTEX
  5
980
  8
LE_ALL
 10
441.271632242236
 20
-111.7843939620235
 30
0.0
  0
VERTEX
  5
981
  8
LE_ALL
 10
441.4195735525249
 20
-111.1412665251901
 30
0.0
  0
VERTEX
  5
982
  8
LE_ALL
 10
441.5271669176395
 20
-110.4666080481079
 30
0.0
  0
VERTEX
  5
983
  8
LE_ALL
 10
441.5902775849071
 20
-109.7863452776392
 30
0.0
  0
VERTEX
  5
984
  8
LE_ALL
 10
441.6064802467829
 20
-109.1266203304979
 30
0.0
  0
VERTEX
  5
985
  8
LE_ALL
 10
441.5751522440589
 20
-108.5127860663668
 30
0.0
  0
VERTEX
  5
986
  8
LE_ALL
 10
441.4974974943083
 20
-107.9684317917206
 30
0.0
  0
VERTEX
  5
987
  8
LE_ALL
 10
441.3765002260077
 20
-107.5144767360088
 30
0.0
  0
VERTEX
  5
988
  8
LE_ALL
 10
441.2168102963114
 20
-107.1683661374018
 30
0.0
  0
VERTEX
  5
989
  8
LE_ALL
 10
441.0245644996485
 20
-106.9434008320726
 30
0.0
  0
VERTEX
  5
98A
  8
LE_ALL
 10
440.8071507341552
 20
-106.8482261105235
 30
0.0
  0
SEQEND
  5
9FD
  8
LE_ALL
  0
POLYLINE
  5
4B1
  8
LE_ALL
 66
     1
 10
0.0
 20
0.0
 30
0.0
  0
VERTEX
  5
98B
  8
LE_ALL
 10
440.8071507341552
 20
-106.8482261105235
 30
0.0
  0
VERTEX
  5
98C
  8
LE_ALL
 10
440.5729240883457
 20
-106.8864994841604
 30
0.0
  0
VERTEX
  5
98D
  8
LE_ALL
 10
440.3308857613541
 20
-107.0567501290632
 30
0.0
  0
VERTEX
  5
98E
  8
LE_ALL
 10
440.0903371503713
 20
-107.3524354084111
 30
0.0
  0
VERTEX
  5
98F
  8
LE_ALL
 10
439.8605224036373
 20
-107.762192302715
 30
0.0
  0
VERTEX
  5
990
  8
LE_ALL
 10
439.6502731730075
 20
-108.2702740842853
 30
0.0
  0
VERTEX
  5
991
  8
LE_ALL
 10
439.4676692185242
 20
-108.8571554551473
 30
0.0
  0
VERTEX
  5
992
  8
LE_ALL
 10
439.3197279077689
 20
-109.5002828932944
 30
0.0
  0
VERTEX
  5
993
  8
LE_ALL
 10
439.2121345423604
 20
-110.1749413718921
 30
0.0
  0
VERTEX
  5
994
  8
LE_ALL
 10
439.1490238750016
 20
-110.8552041439018
 30
0.0
  0
VERTEX
  5
995
  8
LE_ALL
 10
439.1328212132519
 20
-111.5149290924314
 30
0.0
  0
VERTEX
  5
996
  8
LE_ALL
 10
439.1641492163171
 20
-112.1287633576291
 30
0.0
  0
VERTEX
  5
997
  8
LE_ALL
 10
439.2418039666055
 20
-112.6731176328718
 30
0.0
  0
VERTEX
  5
998
  8
LE_ALL
 10
439.3628012356063
 20
-113.1270726885918
 30
0.0
  0
VERTEX
  5
999
  8
LE_ALL
 10
439.522491166117
 20
-113.4731832865388
 30
0.0
  0
VERTEX
  5
99A
  8
LE_ALL
 10
439.7147369636493
 20
-113.6981485905046
 30
0.0
  0
VERTEX
  5
99B
  8
LE_ALL
 10
439.93215073
 20
-113.79332331
 30
0.0
  0
SEQEND
  5
9FE
  8
LE_ALL
  0
POLYLINE
  5
4B2
  8
LE_ALL
 66
     1
 10
0.0
 20
0.0
 30
0.0
  0
VERTEX
  5
99C
  8
LE_ALL
 10
427.43278206
 20
-87.98628577
 30
0.0
  0
VERTEX
  5
99D
  8
LE_ALL
 10
427.7339306040136
 20
-87.9370771439761
 30
0.0
  0
VERTEX
  5
99E
  8
LE_ALL
 10
428.0451227378903
 20
-87.71818345585972
 30
0.0
  0
VERTEX
  5
99F
  8
LE_ALL
 10
428.3543995224709
 20
-87.338016667309
 30
0.0
  0
VERTEX
  5
9A0
  8
LE_ALL
 10
428.6498756243957
 20
-86.81118637477472
 30
0.0
  0
VERTEX
  5
9A1
  8
LE_ALL
 10
428.9201960627984
 20
-86.15793837090298
 30
0.0
  0
VERTEX
  5
9A2
  8
LE_ALL
 10
429.1549725748522
 20
-85.4033766100797
 30
0.0
  0
VERTEX
  5
9A3
  8
LE_ALL
 10
429.3451828308837
 20
-84.57649847754415
 30
0.0
  0
VERTEX
  5
9A4
  8
LE_ALL
 10
429.4835171574413
 20
-83.70908043613869
 30
0.0
  0
VERTEX
  5
9A5
  8
LE_ALL
 10
429.5646594439465
 20
-82.83445687466494
 30
0.0
  0
VERTEX
  5
9A6
  8
LE_ALL
 10
429.585491437841
 20
-81.98623908601922
 30
0.0
  0
VERTEX
  5
9A7
  8
LE_ALL
 10
429.5452125772839
 20
-81.19702360405896
 30
0.0
  0
VERTEX
  5
9A8
  8
LE_ALL
 10
429.4453707562944
 20
-80.49713953708961
 30
0.0
  0
VERTEX
  5
9A9
  8
LE_ALL
 10
429.2898028400522
 20
-79.91348303724406
 30
0.0
  0
VERTEX
  5
9AA
  8
LE_ALL
 10
429.0844872163217
 20
-79.46848369644194
 30
0.0
  0
VERTEX
  5
9AB
  8
LE_ALL
 10
428.8373140493624
 20
-79.17924258975279
 30
0.0
  0
VERTEX
  5
9AC
  8
LE_ALL
 10
428.5577820653425
 20
-79.05687509067309
 30
0.0
  0
SEQEND
  5
9FF
  8
LE_ALL
  0
POLYLINE
  5
4B3
  8
LE_ALL
 66
     1
 10
0.0
 20
0.0
 30
0.0
  0
VERTEX
  5
9AD
  8
LE_ALL
 10
428.5577820653425
 20
-79.05687509067309
 30
0.0
  0
VERTEX
  5
9AE
  8
LE_ALL
 10
428.256633520916
 20
-79.10608371386562
 30
0.0
  0
VERTEX
  5
9AF
  8
LE_ALL
 10
427.9454413863912
 20
-79.32497740000662
 30
0.0
  0
VERTEX
  5
9B0
  8
LE_ALL
 10
427.6361646010066
 20
-79.70514418747557
 30
0.0
  0
VERTEX
  5
9B1
  8
LE_ALL
 10
427.3406884982071
 20
-80.23197447979672
 30
0.0
  0
VERTEX
  5
9B2
  8
LE_ALL
 10
427.0703680589443
 20
-80.8852224842399
 30
0.0
  0
VERTEX
  5
9B3
  8
LE_ALL
 10
426.8355915461254
 20
-81.63978424628284
 30
0.0
  0
VERTEX
  5
9B4
  8
LE_ALL
 10
426.6453812894943
 20
-82.46666238050733
 30
0.0
  0
VERTEX
  5
9B5
  8
LE_ALL
 10
426.5070469625587
 20
-83.33408042386131
 30
0.0
  0
VERTEX
  5
9B6
  8
LE_ALL
 10
426.4259046759362
 20
-84.20870398731641
 30
0.0
  0
VERTEX
  5
9B7
  8
LE_ALL
 10
426.4050726822038
 20
-85.05692177774701
 30
0.0
  0
VERTEX
  5
9B8
  8
LE_ALL
 10
426.4453515431996
 20
-85.84613726107861
 30
0.0
  0
VERTEX
  5
9B9
  8
LE_ALL
 10
426.5451933648806
 20
-86.54602132881487
 30
0.0
  0
VERTEX
  5
9BA
  8
LE_ALL
 10
426.7007612820229
 20
-87.12967782867092
 30
0.0
  0
VERTEX
  5
9BB
  8
LE_ALL
 10
426.9060769068006
 20
-87.5746771686245
 30
0.0
  0
VERTEX
  5
9BC
  8
LE_ALL
 10
427.1532500748778
 20
-87.86391827356078
 30
0.0
  0
VERTEX
  5
9BD
  8
LE_ALL
 10
427.43278206
 20
-87.98628577
 30
0.0
  0
SEQEND
  5
A00
  8
LE_ALL
  0
POLYLINE
  5
4B4
  8
LE_ALL
 66
     1
 10
0.0
 20
0.0
 30
0.0
  0
VERTEX
  5
9BE
  8
LE_ALL
 10
427.43278206
 20
-125.69864743
 30
0.0
  0
VERTEX
  5
9BF
  8
LE_ALL
 10
427.7339306040136
 20
-125.6494388039761
 30
0.0
  0
VERTEX
  5
9C0
  8
LE_ALL
 10
428.0451227378903
 20
-125.4305451158597
 30
0.0
  0
VERTEX
  5
9C1
  8
LE_ALL
 10
428.3543995224709
 20
-125.050378327309
 30
0.0
  0
VERTEX
  5
9C2
  8
LE_ALL
 10
428.6498756243957
 20
-124.5235480347747
 30
0.0
  0
VERTEX
  5
9C3
  8
LE_ALL
 10
428.9201960627984
 20
-123.870300030903
 30
0.0
  0
VERTEX
  5
9C4
  8
LE_ALL
 10
429.1549725748522
 20
-123.1157382700797
 30
0.0
  0
VERTEX
  5
9C5
  8
LE_ALL
 10
429.3451828308837
 20
-122.2888601375441
 30
0.0
  0
VERTEX
  5
9C6
  8
LE_ALL
 10
429.4835171574413
 20
-121.4214420961387
 30
0.0
  0
VERTEX
  5
9C7
  8
LE_ALL
 10
429.5646594439465
 20
-120.5468185346649
 30
0.0
  0
VERTEX
  5
9C8
  8
LE_ALL
 10
429.585491437841
 20
-119.6986007460192
 30
0.0
  0
VERTEX
  5
9C9
  8
LE_ALL
 10
429.5452125772839
 20
-118.909385264059
 30
0.0
  0
VERTEX
  5
9CA
  8
LE_ALL
 10
429.4453707562944
 20
-118.2095011970896
 30
0.0
  0
VERTEX
  5
9CB
  8
LE_ALL
 10
429.2898028400522
 20
-117.6258446972441
 30
0.0
  0
VERTEX
  5
9CC
  8
LE_ALL
 10
429.0844872163217
 20
-117.1808453564419
 30
0.0
  0
VERTEX
  5
9CD
  8
LE_ALL
 10
428.8373140493624
 20
-116.8916042497528
 30
0.0
  0
VERTEX
  5
9CE
  8
LE_ALL
 10
428.5577820653425
 20
-116.7692367506731
 30
0.0
  0
SEQEND
  5
A01
  8
LE_ALL
  0
POLYLINE
  5
4B5
  8
LE_ALL
 66
     1
 10
0.0
 20
0.0
 30
0.0
  0
VERTEX
  5
9CF
  8
LE_ALL
 10
428.5577820653425
 20
-116.7692367506731
 30
0.0
  0
VERTEX
  5
9D0
  8
LE_ALL
 10
428.256633520916
 20
-116.8184453738656
 30
0.0
  0
VERTEX
  5
9D1
  8
LE_ALL
 10
427.9454413863912
 20
-117.0373390600066
 30
0.0
  0
VERTEX
  5
9D2
  8
LE_ALL
 10
427.6361646010066
 20
-117.4175058474756
 30
0.0
  0
VERTEX
  5
9D3
  8
LE_ALL
 10
427.3406884982071
 20
-117.9443361397967
 30
0.0
  0
VERTEX
  5
9D4
  8
LE_ALL
 10
427.0703680589443
 20
-118.5975841442399
 30
0.0
  0
VERTEX
  5
9D5
  8
LE_ALL
 10
426.8355915461254
 20
-119.3521459062828
 30
0.0
  0
VERTEX
  5
9D6
  8
LE_ALL
 10
426.6453812894943
 20
-120.1790240405073
 30
0.0
  0
VERTEX
  5
9D7
  8
LE_ALL
 10
426.5070469625587
 20
-121.0464420838613
 30
0.0
  0
VERTEX
  5
9D8
  8
LE_ALL
 10
426.4259046759362
 20
-121.9210656473164
 30
0.0
  0
VERTEX
  5
9D9
  8
LE_ALL
 10
426.4050726822038
 20
-122.769283437747
 30
0.0
  0
VERTEX
  5
9DA
  8
LE_ALL
 10
426.4453515431996
 20
-123.5584989210786
 30
0.0
  0
VERTEX
  5
9DB
  8
LE_ALL
 10
426.5451933648806
 20
-124.2583829888149
 30
0.0
  0
VERTEX
  5
9DC
  8
LE_ALL
 10
426.7007612820229
 20
-124.8420394886709
 30
0.0
  0
VERTEX
  5
9DD
  8
LE_ALL
 10
426.9060769068006
 20
-125.2870388286245
 30
0.0
  0
VERTEX
  5
9DE
  8
LE_ALL
 10
427.1532500748778
 20
-125.5762799335608
 30
0.0
  0
VERTEX
  5
9DF
  8
LE_ALL
 10
427.43278206
 20
-125.69864743
 30
0.0
  0
SEQEND
  5
A02
  8
LE_ALL
  0
LINE
  5
4B6
  8
LE_ALL
 10
416.7774726
 20
-136.31256985
 30
0.0
 11
416.7774726
 21
-83.23242081
 31
0.0
  0
LINE
  5
4B7
  8
LE_ALL
 10
421.45454433
 20
-83.82167646
 30
0.0
 11
416.7774726
 21
-83.23242081
 31
0.0
  0
POLYLINE
  5
4B8
  8
LE_ALL
 66
     1
 10
0.0
 20
0.0
 30
0.0
 70
     1
  0
VERTEX
  5
4B9
  8
LE_ALL
 10
421.45454433
 20
-83.82167646
 30
0.0
  0
VERTEX
  5
4BA
  8
LE_ALL
 10
421.45454433
 20
-136.9018255
 30
0.0
  0
VERTEX
  5
4BB
  8
LE_ALL
 10
446.91038846
 20
-114.45188118
 30
0.0
  0
VERTEX
  5
4BC
  8
LE_ALL
 10
446.91038846
 20
-61.37173214
 30
0.0
  0
VERTEX
  5
4BD
  8
LE_ALL
 10
445.81437295
 20
-62.33832696
 30
0.0
  0
VERTEX
  5
4BE
  8
LE_ALL
 10
445.81437295
 20
-59.60418074
 30
0.0
  0
VERTEX
  5
4BF
  8
LE_ALL
 10
443.76376328
 20
-55.94435604
 30
0.0
  0
VERTEX
  5
4C0
  8
LE_ALL
 10
424.60116951
 20
-72.84417523
 30
0.0
  0
VERTEX
  5
4C1
  8
LE_ALL
 10
422.55055984
 20
-80.12093541
 30
0.0
  0
VERTEX
  5
4C2
  8
LE_ALL
 10
422.55055984
 20
-82.85508163
 30
0.0
  0
SEQEND
  5
4C3
  8
LE_ALL
  0
POLYLINE
  5
4C4
  8
LE_ALL
 66
     1
 10
0.0
 20
0.0
 30
0.0
  0
VERTEX
  5
4C5
  8
LE_ALL
 10
422.55055984
 20
-82.85508163
 30
0.0
  0
VERTEX
  5
4C6
  8
LE_ALL
 10
417.87348811
 20
-82.26582598
 30
0.0
  0
VERTEX
  5
4C7
  8
LE_ALL
 10
417.87348811
 20
-79.53167976
 30
0.0
  0
VERTEX
  5
4C8
  8
LE_ALL
 10
422.55055984
 20
-80.12093541
 30
0.0
  0
SEQEND
  5
4C9
  8
LE_ALL
  0
POLYLINE
  5
4CA
  8
LE_ALL
 66
     1
 10
0.0
 20
0.0
 30
0.0
  0
VERTEX
  5
4CB
  8
LE_ALL
 10
417.87348811
 20
-79.53167976
 30
0.0
  0
VERTEX
  5
4CC
  8
LE_ALL
 10
419.92409778
 20
-72.25491958
 30
0.0
  0
VERTEX
  5
4CD
  8
LE_ALL
 10
439.08669155
 20
-55.35510039
 30
0.0
  0
VERTEX
  5
4CE
  8
LE_ALL
 10
443.76376328
 20
-55.94435604
 30
0.0
  0
SEQEND
  5
4CF
  8
LE_ALL
  0
LINE
  5
4D0
  8
LE_ALL
 10
419.92409778
 20
-72.25491958
 30
0.0
 11
424.60116951
 21
-72.84417523
 31
0.0
  0
LINE
  5
4D1
  8
LE_ALL
 10
416.7774726
 20
-83.23242081
 30
0.0
 11
417.87348811
 21
-82.26582598
 31
0.0
  0
LINE
  5
4D2
  8
LE_ALL
 10
446.91038846
 20
-61.37173214
 30
0.0
 11
445.81437295
 21
-61.23364716
 31
0.0
  0
ENDBLK
  8
0
  0
BLOCK
  8
0
  2
_00066
 70
     0
 10
0.0
 20
0.0
 30
0.0
  0
INSERT
  5
4D5
  8
0
  2
_00067
 10
430.09996434
 20
-121.49910713
 30
0.0
  0
ENDBLK
  8
0
  0
BLOCK
  8
0
  2
_00067
 70
     0
 10
430.09996434
 20
-121.49910713
 30
0.0
  0
LINE
  5
4D8
  8
LE_ALL
  6
STRICHPUNKT2
 62
     1
 10
430.09996434
 20
-121.49910713
 30
0.0
 11
426.50704695
 21
-121.04644209
 31
0.0
  0
LINE
  5
4D9
  8
LE_ALL
  6
STRICHPUNKT2
 62
     1
 10
427.99528206
 20
-121.23394209
 30
0.0
 11
430.38176745
 21
-119.12925981
 31
0.0
  0
LINE
  5
4DA
  8
LE_ALL
  6
STRICHPUNKT2
 62
     1
 10
427.99528206
 20
-121.23394209
 30
0.0
 11
425.60879667
 21
-123.33862437
 31
0.0
  0
LINE
  5
4DB
  8
LE_ALL
  6
STRICHPUNKT2
 62
     1
 10
427.99528206
 20
-121.23394209
 30
0.0
 11
427.99528206
 21
-114.86998106
 31
0.0
  0
LINE
  5
4DC
  8
LE_ALL
  6
STRICHPUNKT2
 62
     1
 10
427.99528206
 20
-121.23394209
 30
0.0
 11
427.99528206
 21
-127.59790312
 31
0.0
  0
LINE
  5
4DD
  8
LE_ALL
  6
STRICHPUNKT2
 62
     1
 10
430.09996434
 20
-83.78674547
 30
0.0
 11
426.50704695
 21
-83.33408043
 31
0.0
  0
LINE
  5
4DE
  8
LE_ALL
  6
STRICHPUNKT2
 62
     1
 10
427.99528206
 20
-83.52158043
 30
0.0
 11
430.38176745
 21
-81.41689815
 31
0.0
  0
LINE
  5
4DF
  8
LE_ALL
  6
STRICHPUNKT2
 62
     1
 10
427.99528206
 20
-83.52158043
 30
0.0
 11
425.60879667
 21
-85.62626271
 31
0.0
  0
LINE
  5
4E0
  8
LE_ALL
  6
STRICHPUNKT2
 62
     1
 10
427.99528206
 20
-83.52158043
 30
0.0
 11
427.99528206
 21
-77.1576194
 31
0.0
  0
LINE
  5
4E1
  8
LE_ALL
  6
STRICHPUNKT2
 62
     1
 10
427.99528206
 20
-83.52158043
 30
0.0
 11
427.99528206
 21
-89.88554146
 31
0.0
  0
LINE
  5
4E2
  8
LE_ALL
  6
STRICHPUNKT2
 62
     1
 10
442.00662584
 20
-110.52701419
 30
0.0
 11
439.21213453
 21
-110.17494138
 31
0.0
  0
LINE
  5
4E3
  8
LE_ALL
  6
STRICHPUNKT2
 62
     1
 10
440.36965073
 20
-110.32077471
 30
0.0
 11
442.22580603
 21
-108.68379961
 31
0.0
  0
LINE
  5
4E4
  8
LE_ALL
  6
STRICHPUNKT2
 62
     1
 10
440.36965073
 20
-110.32077471
 30
0.0
 11
438.51349543
 21
-111.95774982
 31
0.0
  0
LINE
  5
4E5
  8
LE_ALL
  6
STRICHPUNKT2
 62
     1
 10
440.36965073
 20
-110.32077471
 30
0.0
 11
440.36965073
 21
-105.37102724
 31
0.0
  0
LINE
  5
4E6
  8
LE_ALL
  6
STRICHPUNKT2
 62
     1
 10
440.36965073
 20
-110.32077471
 30
0.0
 11
440.36965073
 21
-115.27052218
 31
0.0
  0
LINE
  5
4E7
  8
LE_ALL
  6
STRICHPUNKT2
 62
     1
 10
442.00662584
 20
-72.81465253
 30
0.0
 11
439.21213453
 21
-72.46257972
 31
0.0
  0
LINE
  5
4E8
  8
LE_ALL
  6
STRICHPUNKT2
 62
     1
 10
440.36965073
 20
-72.60841305
 30
0.0
 11
442.22580603
 21
-70.97143794
 31
0.0
  0
LINE
  5
4E9
  8
LE_ALL
  6
STRICHPUNKT2
 62
     1
 10
440.36965073
 20
-72.60841305
 30
0.0
 11
438.51349543
 21
-74.24538816
 31
0.0
  0
LINE
  5
4EA
  8
LE_ALL
  6
STRICHPUNKT2
 62
     1
 10
440.36965073
 20
-72.60841305
 30
0.0
 11
440.36965073
 21
-67.65866558
 31
0.0
  0
LINE
  5
4EB
  8
LE_ALL
  6
STRICHPUNKT2
 62
     1
 10
440.36965073
 20
-72.60841305
 30
0.0
 11
440.36965073
 21
-77.55816052
 31
0.0
  0
LINE
  5
4EC
  8
LE_ALL
  6
STRICHPUNKT2
 62
     1
 10
429.63225717
 20
-102.58400074
 30
0.0
 11
426.83776586
 21
-102.23192793
 31
0.0
  0
LINE
  5
4ED
  8
LE_ALL
  6
STRICHPUNKT2
 62
     1
 10
427.99528206
 20
-102.37776126
 30
0.0
 11
429.85143736
 21
-100.74078615
 31
0.0
  0
LINE
  5
4EE
  8
LE_ALL
  6
STRICHPUNKT2
 62
     1
 10
427.99528206
 20
-102.37776126
 30
0.0
 11
426.13912676
 21
-104.01473637
 31
0.0
  0
LINE
  5
4EF
  8
LE_ALL
  6
STRICHPUNKT2
 62
     1
 10
427.99528206
 20
-102.37776126
 30
0.0
 11
427.99528206
 21
-97.42801379
 31
0.0
  0
LINE
  5
4F0
  8
LE_ALL
  6
STRICHPUNKT2
 62
     1
 10
427.99528206
 20
-102.37776126
 30
0.0
 11
427.99528206
 21
-107.32750873
 31
0.0
  0
LINE
  5
4F1
  8
LE_ALL
  6
STRICHPUNKT2
 62
     1
 10
442.47433301
 20
-91.72975892
 30
0.0
 11
438.88141562
 21
-91.27709388
 31
0.0
  0
LINE
  5
4F2
  8
LE_ALL
  6
STRICHPUNKT2
 62
     1
 10
440.36965073
 20
-91.46459388
 30
0.0
 11
442.75613612
 21
-89.3599116
 31
0.0
  0
LINE
  5
4F3
  8
LE_ALL
  6
STRICHPUNKT2
 62
     1
 10
440.36965073
 20
-91.46459388
 30
0.0
 11
437.98316534
 21
-93.56927616
 31
0.0
  0
LINE
  5
4F4
  8
LE_ALL
  6
STRICHPUNKT2
 62
     1
 10
440.36965073
 20
-91.46459388
 30
0.0
 11
440.36965073
 21
-85.10063285
 31
0.0
  0
LINE
  5
4F5
  8
LE_ALL
  6
STRICHPUNKT2
 62
     1
 10
440.36965073
 20
-91.46459388
 30
0.0
 11
440.36965073
 21
-97.82855491
 31
0.0
  0
LINE
  5
4F6
  8
LE_ALL
  6
STRICHPUNKT2
 62
     1
 10
436.98870944
 20
-106.70282138
 30
0.0
 11
431.88436936
 21
-106.05973497
 31
0.0
  0
LINE
  5
4F7
  8
LE_ALL
  6
STRICHPUNKT2
 62
     1
 10
436.98870944
 20
-90.67506767
 30
0.0
 11
432.03279345
 21
-90.05068094
 31
0.0
  0
LINE
  5
4F8
  8
LE_ALL
  6
STRICHPUNKT2
 62
     1
 10
434.1824664
 20
-115.30595388
 30
0.0
 11
434.1824664
 21
-81.36482838
 31
0.0
  0
LINE
  5
4F9
  8
LE_ALL
  6
STRICHPUNKT2
 62
     1
 10
437.54122361
 20
-103.38712255
 30
0.0
 11
430.82370918
 21
-109.31141342
 31
0.0
  0
LINE
  5
4FA
  8
LE_ALL
  6
STRICHPUNKT2
 62
     1
 10
437.54122361
 20
-87.35936885
 30
0.0
 11
430.82370918
 21
-93.28365971
 31
0.0
  0
ENDBLK
  8
0
  0
BLOCK
  8
0
  2
DVI_FIGURE_00068
 70
     0
 10
0.0
 20
0.0
 30
0.0
  0
INSERT
  5
4FD
  8
0
  2
VIEW_3_00069
 10
0.0
 20
0.0
 30
0.0
  0
INSERT
  5
4FE
  8
0
  2
VIEW_4_00075
 10
0.0
 20
0.0
 30
0.0
  0
INSERT
  5
4FF
  8
0
  2
VIEW_5_00103
 10
0.0
 20
0.0
 30
0.0
  0
ENDBLK
  8
0
  0
BLOCK
  8
0
  2
VIEW_3_00069
 70
     0
 10
0.0
 20
0.0
 30
0.0
  0
INSERT
  5
502
  8
0
  2
PART_2_00070
 10
0.0
 20
0.0
 30
0.0
  0
ENDBLK
  8
0
  0
BLOCK
  8
0
  2
PART_2_00070
 70
     0
 10
0.0
 20
0.0
 30
0.0
  0
INSERT
  5
505
  8
0
  2
_D1
 10
218.82205877
 20
-258.22941977
 30
0.0
  0
INSERT
  5
506
  8
0
  2
_D2
 10
162.13322486
 20
-214.58574297
 30
0.0
  0
INSERT
  5
507
  8
0
  2
_D3
 10
277.71865947
 20
-248.62582525
 30
0.0
  0
INSERT
  5
508
  8
0
  2
_D4
 10
173.24189416
 20
-168.1694932
 30
0.0
  0
ENDBLK
  8
0
  0
BLOCK
  8
0
  2
VIEW_4_00075
 70
     0
 10
0.0
 20
0.0
 30
0.0
  0
INSERT
  5
52B
  8
0
  2
PART_2_00076
 10
0.0
 20
0.0
 30
0.0
  0
ENDBLK
  8
0
  0
BLOCK
  8
0
  2
PART_2_00076
 70
     0
 10
0.0
 20
0.0
 30
0.0
  0
INSERT
  5
52E
  8
0
  2
_D5
 10
324.71295836
 20
-160.48652923
 30
0.0
  0
INSERT
  5
52F
  8
0
  2
_D6
 10
351.46295836
 20
-160.48652923
 30
0.0
  0
INSERT
  5
530
  8
0
  2
_D7
 10
378.21295836
 20
-160.48652923
 30
0.0
  0
INSERT
  5
531
  8
0
  2
_D8
 10
303.0232852
 20
-184.33574297
 30
0.0
  0
INSERT
  5
532
  8
0
  2
_D9
 10
303.0232852
 20
-201.58574297
 30
0.0
  0
INSERT
  5
533
  8
0
  2
_D10
 10
303.0232852
 20
-221.58574297
 30
0.0
  0
INSERT
  5
534
  8
0
  2
_D11
 10
303.0232852
 20
-241.83574297
 30
0.0
  0
INSERT
  5
535
  8
0
  2
_D12
 10
369.46295836
 20
-152.29102902
 30
0.0
  0
INSERT
  5
536
  8
0
  2
_D13
 10
335.44019916
 20
-152.29102902
 30
0.0
  0
INSERT
  5
537
  8
0
  2
_D14
 10
391.93821993
 20
-187.25755026
 30
0.0
  0
INSERT
  5
538
  8
0
  2
_D15
 10
314.17746773
 20
-187.69852045
 30
0.0
  0
INSERT
  5
539
  8
0
  2
_D16
 10
309.31253175
 20
-180.47582525
 30
0.0
  0
INSERT
  5
53A
  8
0
  2
_D17
 10
307.82765555
 20
-168.50686595
 30
0.0
  0
INSERT
  5
53B
  8
0
  2
_D18
 10
388.52197604
 20
-170.48228873
 30
0.0
  0
INSERT
  5
53C
  8
0
  2
_D19
 10
400.97897041
 20
-187.58574297
 30
0.0
  0
INSERT
  5
53D
  8
0
  2
_D20
 10
400.97897041
 20
-213.08574297
 30
0.0
  0
INSERT
  5
53E
  8
0
  2
_D21
 10
400.97897041
 20
-240.08574297
 30
0.0
  0
INSERT
  5
53F
  8
0
  2
_D22
 10
349.62042179
 20
-190.53807461
 30
0.0
  0
INSERT
  5
540
  8
0
  2
_D23
 10
333.08033958
 20
-178.99034759
 30
0.0
  0
INSERT
  5
541
  8
0
  2
_D24
 10
333.08033958
 20
-201.0464468
 30
0.0
  0
INSERT
  5
542
  8
0
  2
_D25
 10
333.08033958
 20
-256.98410406
 30
0.0
  0
INSERT
  5
543
  8
0
  2
_D26
 10
368.08033958
 20
-258.16590752
 30
0.0
  0
INSERT
  5
544
  8
0
  2
_D27
 10
368.08033958
 20
-199.32760669
 30
0.0
  0
INSERT
  5
545
  8
0
  2
_D28
 10
368.08033958
 20
-180.50100069
 30
0.0
  0
INSERT
  5
546
  8
0
  2
_D29
 10
333.08033958
 20
-220.35754911
 30
0.0
  0
INSERT
  5
547
  8
0
  2
_D30
 10
368.08033958
 20
-221.07914094
 30
0.0
  0
ENDBLK
  8
0
  0
BLOCK
  8
0
  2
VIEW_5_00103
 70
     0
 10
0.0
 20
0.0
 30
0.0
  0
INSERT
  5
625
  8
0
  2
PART_2_00104
 10
0.0
 20
0.0
 30
0.0
  0
ENDBLK
  8
0
  0
BLOCK
  8
0
  2
PART_2_00104
 70
     0
 10
0.0
 20
0.0
 30
0.0
  0
INSERT
  5
628
  8
0
  2
_D31
 10
181.25711803
 20
-62.67601346
 30
0.0
  0
INSERT
  5
629
  8
0
  2
_D32
 10
209.25711803
 20
-62.67601346
 30
0.0
  0
INSERT
  5
62A
  8
0
  2
_D33
 10
229.25711803
 20
-62.67601346
 30
0.0
  0
INSERT
  5
62B
  8
0
  2
_D34
 10
251.25711803
 20
-62.67601346
 30
0.0
  0
INSERT
  5
62C
  8
0
  2
_D35
 10
155.66965794
 20
-112.09584891
 30
0.0
  0
INSERT
  5
62D
  8
0
  2
_D36
 10
278.48619702
 20
-138.84584891
 30
0.0
  0
INSERT
  5
62E
  8
0
  2
_D37
 10
278.48619702
 20
-112.09584891
 30
0.0
  0
INSERT
  5
62F
  8
0
  2
_D38
 10
278.48619702
 20
-85.34584891
 30
0.0
  0
INSERT
  5
630
  8
0
  2
_D39
 10
286.31916909
 20
-94.09584891
 30
0.0
  0
INSERT
  5
631
  8
0
  2
_D40
 10
286.31916909
 20
-130.09584891
 30
0.0
  0
INSERT
  5
632
  8
0
  2
_D41
 10
218.37449924
 20
-82.89929999
 30
0.0
  0
INSERT
  5
633
  8
0
  2
_D42
 10
238.37449924
 20
-81.17601346
 30
0.0
  0
INSERT
  5
634
  8
0
  2
_D43
 10
198.37449924
 20
-81.17601346
 30
0.0
  0
INSERT
  5
635
  8
0
  2
_D44
 10
250.65273578
 20
-72.96838056
 30
0.0
  0
INSERT
  5
636
  8
0
  2
_D45
 10
198.37449924
 20
-137.18300083
 30
0.0
  0
INSERT
  5
637
  8
0
  2
_D46
 10
218.37449924
 20
-138.19341585
 30
0.0
  0
INSERT
  5
638
  8
0
  2
_D47
 10
238.37449924
 20
-136.96266661
 30
0.0
  0
INSERT
  5
639
  8
0
  2
_D48
 10
250.65273578
 20
-150.96074377
 30
0.0
  0
INSERT
  5
63A
  8
0
  2
_D49
 10
270.33659637
 20
-75.95888592
 30
0.0
  0
INSERT
  5
63B
  8
0
  2
_D50
 10
270.22107051
 20
-155.43891545
 30
0.0
  0
INSERT
  5
63C
  8
0
  2
_D51
 10
259.81703575
 20
-131.56685831
 30
0.0
  0
INSERT
  5
63D
  8
0
  2
_D52
 10
187.7465917
 20
-113.93838547
 30
0.0
  0
ENDBLK
  8
0
  0
ENDSEC
  0
SECTION
  2
ENTITIES
  0
INSERT
  5
6F8
  8
0
  2
_ZBL0002_00001
 10
0.0
 20
0.0
 30
0.0
  0
INSERT
  5
6F9
  8
0
  2
_ANS0003_00016
 10
0.0
 20
0.0
 30
0.0
  0
INSERT
  5
6FA
  8
0
  2
_ANS0004_00029
 10
0.0
 20
0.0
 30
0.0
  0
INSERT
  5
6FB
  8
0
  2
_ANS0005_00042
 10
0.0
 20
0.0
 30
0.0
  0
INSERT
  5
6FC
  8
0
  2
_ANS0006_00055
 10
0.0
 20
0.0
 30
0.0
  0
INSERT
  5
6FD
  8
0
  2
DVI_FIGURE_00068
 10
0.0
 20
0.0
 30
0.0
  0
ENDSEC
  0
EOF
