  0
SECTION
  2
HEADER
  9
$ACADVER
  1
AC1006
  9
$DWGCODEPAGE
  3
ansi_1252
  9
$INSBASE
 10
0.0
 20
0.0
 30
0.0
  9
$EXTMIN
 10
216.06100984
 20
-392.65617548
  9
$EXTMAX
 10
644.46100984
 20
-78.96696923
  9
$LIMMIN
 10
216.06100984
 20
-392.65617548
  9
$LIMMAX
 10
644.46100984
 20
-78.96696923
  9
$ORTHOMODE
 70
     0
  9
$REGENMODE
 70
     1
  9
$FILLMODE
 70
     1
  9
$QTEXTMODE
 70
     0
  9
$MIRRTEXT
 70
     1
  9
$DRAGMODE
 70
     2
  9
$LTSCALE
 40
1.0
  9
$OSMODE
 70
    37
  9
$ATTMODE
 70
     1
  9
$TEXTSIZE
 40
1.0
  9
$TRACEWID
 40
0.05
  9
$TEXTSTYLE
  7
STANDARD
  9
$CLAYER
  8
0
  9
$CELTYPE
  6
BYBLOCK
  9
$CECOLOR
 62
   256
  9
$DIMSCALE
 40
1.0
  9
$DIMASZ
 40
0.18
  9
$DIMEXO
 40
0.0625
  9
$DIMDLI
 40
0.38
  9
$DIMRND
 40
0.0
  9
$DIMDLE
 40
0.0
  9
$DIMEXE
 40
0.18
  9
$DIMTP
 40
0.0
  9
$DIMTM
 40
0.0
  9
$DIMTXT
 40
0.18
  9
$DIMCEN
 40
0.09
  9
$DIMTSZ
 40
0.0
  9
$DIMTOL
 70
     0
  9
$DIMLIM
 70
     0
  9
$DIMTIH
 70
     1
  9
$DIMTOH
 70
     1
  9
$DIMSE1
 70
     0
  9
$DIMSE2
 70
     0
  9
$DIMTAD
 70
     0
  9
$DIMZIN
 70
     0
  9
$DIMBLK
  1

  9
$DIMASO
 70
     1
  9
$DIMSHO
 70
     1
  9
$DIMPOST
  1

  9
$DIMAPOST
  1

  9
$DIMALT
 70
     0
  9
$DIMALTD
 70
     2
  9
$DIMALTF
 40
25.4
  9
$DIMLFAC
 40
1.0
  9
$DIMTOFL
 70
     0
  9
$DIMTVP
 40
0.0
  9
$DIMTIX
 70
     0
  9
$DIMSOXD
 70
     0
  9
$DIMSAH
 70
     0
  9
$DIMBLK1
  1

  9
$DIMBLK2
  1

  9
$LUNITS
 70
     2
  9
$LUPREC
 70
     4
  9
$SKETCHINC
 40
0.1
  9
$FILLETRAD
 40
0.5
  9
$AUNITS
 70
     0
  9
$AUPREC
 70
     0
  9
$MENU
  1
.
  9
$ELEVATION
 40
0.0
  9
$THICKNESS
 40
0.0
  9
$LIMCHECK
 70
     0
  9
$CHAMFERA
 40
0.0
  9
$CHAMFERB
 40
0.0
  9
$SKPOLY
 70
     0
  9
$TDCREATE
 40
2447893.125
  9
$TDUPDATE
 40
2460791.471112558
  9
$TDINDWG
 40
0.0
  9
$TDUSRTIMER
 40
0.0
  9
$USRTIMER
 70
     1
  9
$ANGBASE
 50
0.0
  9
$ANGDIR
 70
     0
  9
$PDMODE
 70
     0
  9
$PDSIZE
 40
0.0
  9
$PLINEWID
 40
0.0
  9
$COORDS
 70
     1
  9
$SPLFRAME
 70
     0
  9
$SPLINETYPE
 70
     6
  9
$SPLINESEGS
 70
     8
  9
$ATTDIA
 70
     0
  9
$ATTREQ
 70
     1
  9
$HANDLING
 70
     1
  9
$HANDSEED
  5
947
  9
$SURFTAB1
 70
     6
  9
$SURFTAB2
 70
     6
  9
$SURFTYPE
 70
     6
  9
$SURFU
 70
     6
  9
$SURFV
 70
     6
  9
$UCSNAME
  2

  9
$UCSORG
 10
0.0
 20
0.0
 30
0.0
  9
$UCSXDIR
 10
1.0
 20
0.0
 30
0.0
  9
$UCSYDIR
 10
0.0
 20
1.0
 30
0.0
  9
$USERI1
 70
     0
  9
$USERI2
 70
     0
  9
$USERI3
 70
     0
  9
$USERI4
 70
     0
  9
$USERI5
 70
     0
  9
$USERR1
 40
0.0
  9
$USERR2
 40
0.0
  9
$USERR3
 40
0.0
  9
$USERR4
 40
0.0
  9
$USERR5
 40
0.0
  9
$WORLDVIEW
 70
     1
  0
ENDSEC
  0
SECTION
  2
TABLES
  0
TABLE
  2
VPORT
 70
     1
  0
VPORT
  2
*ACTIVE
 70
     0
 10
0.0
 20
0.0
 11
1.0
 21
1.0
 12
430.26100984
 22
-235.81157235
 13
0.0
 23
0.0
 14
1.0
 24
1.0
 15
0.0
 25
0.0
 16
0.0
 26
0.0
 36
1.0
 17
0.0
 27
0.0
 37
0.0
 40
313.68920625
 41
1.365682948
 42
50.0
 43
0.0
 44
0.0
 50
0.0
 51
0.0
 71
     0
 72
   100
 73
     1
 74
     1
 75
     0
 76
     0
 77
     0
 78
     0
  0
ENDTAB
  0
TABLE
  2
LTYPE
 70
    19
  0
LTYPE
  2
CONTINUOUS
 70
     0
  3
Solid line
 72
    65
 73
     0
 40
0.0
  0
LTYPE
  2
DOT
 70
     0
  3
..............
 72
    65
 73
     2
 40
2.0
 49
0.5
 49
-1.5
  0
LTYPE
  2
HIDDEN
 70
     0
  3
-- -- -- -- --
 72
    65
 73
     2
 40
7.0
 49
4.0
 49
-3.0
  0
LTYPE
  2
DASHDOT
 70
     0
  3
--.--.--.--.--
 72
    65
 73
     4
 40
8.5
 49
4.0
 49
-2.0
 49
0.5
 49
-2.0
  0
LTYPE
  2
STRICHPUNKT2
 70
     0
  3
--.--.--.--.--
 72
    65
 73
     4
 40
18.5
 49
10.0
 49
-4.0
 49
0.5
 49
-4.0
  0
LTYPE
  2
STRICHPUNKT3
 70
     0
  3
--.--.--.--.--
 72
    65
 73
     4
 40
35.5
 49
25.0
 49
-5.0
 49
0.5
 49
-5.0
  0
LTYPE
  2
PHANTOM
 70
     0
  3
--..--..--..--
 72
    65
 73
     6
 40
23.0
 49
10.0
 49
-4.0
 49
0.5
 49
-4.0
 49
0.5
 49
-4.0
  0
LTYPE
  2
PHANTOM2
 70
     0
  3
--..--..--..--
 72
    65
 73
     6
 40
33.0
 49
20.0
 49
-4.0
 49
0.5
 49
-4.0
 49
0.5
 49
-4.0
  0
LTYPE
  2
PHANTOM3
 70
     0
  3
--..--..--..--
 72
    65
 73
     6
 40
50.0
 49
37.0
 49
-4.0
 49
0.5
 49
-4.0
 49
0.5
 49
-4.0
  0
LTYPE
  2
STR3PKT
 70
     0
  3
--...--...--...
 72
    65
 73
     8
 40
31.5
 49
20.0
 49
-2.5
 49
0.5
 49
-2.5
 49
0.5
 49
-2.5
 49
0.5
 49
-2.5
  0
LTYPE
  2
2STRPKT
 70
     0
  3
--.--.--.--.--
 72
    65
 73
     6
 40
28.0
 49
10.0
 49
-2.5
 49
10.0
 49
-2.5
 49
0.5
 49
-2.5
  0
LTYPE
  2
GESTRICHELT2
 70
     0
  3
-- -- -- -- --
 72
    65
 73
     2
 40
25.0
 49
10.0
 49
-15.0
  0
LTYPE
  2
2STR2PKT
 70
     0
  3
--..--..--..--
 72
    65
 73
     8
 40
31.0
 49
10.0
 49
-2.5
 49
10.0
 49
-2.5
 49
0.5
 49
-2.5
 49
0.5
 49
-2.5
  0
LTYPE
  2
STR3PKT2
 70
     0
  3
--...--...--...
 72
    65
 73
     8
 40
21.0
 49
10.0
 49
-2.5
 49
0.5
 49
-2.5
 49
0.5
 49
-2.5
 49
0.5
 49
-2.0
  0
LTYPE
  2
2STR3PKT
 70
     0
  3
--...--...--...
 72
    65
 73
    10
 40
34.0
 49
10.0
 49
-2.5
 49
10.0
 49
-2.5
 49
0.5
 49
-2.5
 49
0.5
 49
-2.5
 49
0.5
 49
-2.5
  0
LTYPE
  2
STRKSTR
 70
     0
  3
-- - -- - -- -
 72
    65
 73
     4
 40
30.0
 49
20.0
 49
-2.5
 49
5.0
 49
-2.5
  0
LTYPE
  2
STRKSTR2
 70
     0
  3
-- - -- - -- -
 72
    65
 73
     6
 40
37.5
 49
20.0
 49
-2.5
 49
5.0
 49
-2.5
 49
5.0
 49
-2.5
  0
LTYPE
  2
STRKSTR3
 70
     0
  3
-- - -- - -- -
 72
    65
 73
     8
 40
45.0
 49
20.0
 49
-2.5
 49
5.0
 49
-2.5
 49
5.0
 49
-2.5
 49
5.0
 49
-2.5
  0
LTYPE
  2
PUNKT2
 70
     0
  3
..............
 72
    65
 73
     2
 40
3.5
 49
0.5
 49
-3.0
  0
ENDTAB
  0
TABLE
  2
LAYER
 70
    16
  0
LAYER
  2
0
 70
     0
 62
     7
  6
CONTINUOUS
  0
LAYER
  2
LE_GREEN
 70
     0
 62
     3
  6
CONTINUOUS
  0
LAYER
  2
LE_RED
 70
     0
 62
     1
  6
CONTINUOUS
  0
LAYER
  2
LE_ALL
 70
     0
 62
     7
  6
CONTINUOUS
  0
LAYER
  2
LE_HIDDEN1
 70
     0
 62
     3
  6
HIDDEN
  0
LAYER
  2
LE_HIDDEN
 70
     0
 62
     7
  6
CONTINUOUS
  0
LAYER
  2
LE_MIDDLE
 70
     0
 62
     7
  6
CONTINUOUS
  0
LAYER
  2
TXT_YELLOW
 70
     0
 62
     2
  6
CONTINUOUS
  0
LAYER
  2
TXT_DIM49
 70
     0
 62
     2
  6
CONTINUOUS
  0
LAYER
  2
TXT_ALL
 70
     0
 62
     7
  6
CONTINUOUS
  0
LAYER
  2
DIM49
 70
     0
 62
     4
  6
CONTINUOUS
  0
LAYER
  2
HATCH
 70
     0
 62
     3
  6
CONTINUOUS
  0
LAYER
  2
APPLE
 70
     0
 62
     7
  6
CONTINUOUS
  0
LAYER
  2
10
 70
     0
 62
     7
  6
CONTINUOUS
  0
LAYER
  2
20
 70
     0
 62
     7
  6
CONTINUOUS
  0
LAYER
  2
49
 70
     0
 62
     7
  6
CONTINUOUS
  0
ENDTAB
  0
TABLE
  2
STYLE
 70
     5
  0
STYLE
  2
MONOTXT
 70
     0
 40
0.0
 41
1.0
 50
0.0
 71
     0
 42
1.0
  3
monotxt.shx
  4

  0
STYLE
  2
STANDARD
 70
     0
 40
0.0
 41
1.0
 50
0.0
 71
     0
 42
1.0
  3
txt
  4

  0
STYLE
  2
ARIAL
 70
     0
 40
0.0
 41
1.0
 50
0.0
 71
     0
 42
1.0
  3
arial.ttf
  4

  0
STYLE
  2
ARIAL_NARROW
 70
     0
 40
0.0
 41
1.0
 50
0.0
 71
     0
 42
1.0
  3
ArialN.ttf
  4

  0
STYLE
  2
ISOCPEUR
 70
     0
 40
0.0
 41
1.0
 50
0.0
 71
     0
 42
1.0
  3
ISOCPEUR.ttf
  4

  0
ENDTAB
  0
TABLE
  2
VIEW
 70
     0
  0
ENDTAB
  0
TABLE
  2
UCS
 70
     0
  0
ENDTAB
  0
ENDSEC
  0
SECTION
  2
BLOCKS
  0
BLOCK
  8
0
  2
_D1
 70
     0
 10
328.31498673
 20
-292.46326079
 30
0.0
  0
TEXT
  5
4B0
  8
TXT_DIM49
 10
328.31498673
 20
-292.46326079
 30
0.0
 40
2.5
  1
2,5
 50
90.00020741
  7
ARIAL
  0
LINE
  5
4B1
  8
DIM49
 10
330.81498673
 20
-297.6546271
 30
0.0
 11
328.81498673
 21
-295.6546271
 31
0.0
  0
LINE
  5
4B2
  8
DIM49
 10
329.06498673
 20
-293.4046271
 30
0.0
 11
330.56498673
 21
-294.9046271
 31
0.0
  0
LINE
  5
4B3
  8
DIM49
 10
329.81498673
 20
-302.6546271
 30
0.0
 11
329.81498673
 21
-286.6645148
 31
0.0
  0
LINE
  5
4B4
  8
DIM49
 10
327.81498673
 20
-296.6546271
 30
0.0
 11
331.81498673
 21
-296.6546271
 31
0.0
  0
LINE
  5
4B5
  8
DIM49
 10
327.81498673
 20
-294.1546271
 30
0.0
 11
331.81498673
 21
-294.1546271
 31
0.0
  0
ENDBLK
  8
0
  0
BLOCK
  8
0
  2
_D2
 70
     0
 10
292.89515128
 20
-303.1258269
 30
0.0
  0
TEXT
  5
4B8
  8
TXT_DIM49
 10
292.89515128
 20
-303.1258269
 30
0.0
 40
2.5
  1
50
  7
ARIAL
  0
LINE
  5
4B9
  8
DIM49
 10
270.81498673
 20
-303.6258269
 30
0.0
 11
268.81498673
 21
-305.6258269
 31
0.0
  0
LINE
  5
4BA
  8
DIM49
 10
319.06498673
 20
-305.3758269
 30
0.0
 11
320.56498673
 21
-303.8758269
 31
0.0
  0
LINE
  5
4BB
  8
DIM49
 10
269.81498673
 20
-304.6258269
 30
0.0
 11
319.81498673
 21
-304.6258269
 31
0.0
  0
LINE
  5
4BC
  8
DIM49
 10
269.81498673
 20
-302.6258269
 30
0.0
 11
269.81498673
 21
-306.6258269
 31
0.0
  0
LINE
  5
4BD
  8
DIM49
 10
319.81498673
 20
-302.6258269
 30
0.0
 11
319.81498673
 21
-306.6258269
 31
0.0
  0
ENDBLK
  8
0
  0
BLOCK
  8
0
  2
_D3
 70
     0
 10
260.78327155
 20
-273.57446255
 30
0.0
  0
TEXT
  5
4C0
  8
TXT_DIM49
 10
260.78327155
 20
-273.57446255
 30
0.0
 40
2.5
  1
50
 50
90.00020741
  7
ARIAL
  0
LINE
  5
4C1
  8
DIM49
 10
261.28327155
 20
-295.6546271
 30
0.0
 11
263.28327155
 21
-297.6546271
 31
0.0
  0
LINE
  5
4C2
  8
DIM49
 10
263.03327155
 20
-247.4046271
 30
0.0
 11
261.53327155
 21
-245.9046271
 31
0.0
  0
LINE
  5
4C3
  8
DIM49
 10
262.28327155
 20
-296.6546271
 30
0.0
 11
262.28327155
 21
-246.6546271
 31
0.0
  0
LINE
  5
4C4
  8
DIM49
 10
264.28327155
 20
-296.6546271
 30
0.0
 11
260.28327155
 21
-296.6546271
 31
0.0
  0
LINE
  5
4C5
  8
DIM49
 10
264.28327155
 20
-246.6546271
 30
0.0
 11
260.28327155
 21
-246.6546271
 31
0.0
  0
ENDBLK
  8
0
  0
BLOCK
  8
0
  2
_D4
 70
     0
 10
274.27827313
 20
-239.02366364
 30
0.0
  0
TEXT
  5
4C8
  8
TXT_DIM49
 10
274.27827313
 20
-239.02366364
 30
0.0
 40
2.5
  1
2,5
  7
ARIAL
  0
LINE
  5
4C9
  8
DIM49
 10
273.31498673
 20
-239.52366364
 30
0.0
 11
271.31498673
 21
-241.52366364
 31
0.0
  0
LINE
  5
4CA
  8
DIM49
 10
269.06498673
 20
-241.27366364
 30
0.0
 11
270.56498673
 21
-239.77366364
 31
0.0
  0
LINE
  5
4CB
  8
DIM49
 10
280.07701924
 20
-240.52366364
 30
0.0
 11
263.81498673
 21
-240.52366364
 31
0.0
  0
LINE
  5
4CC
  8
DIM49
 10
272.31498673
 20
-242.52366364
 30
0.0
 11
272.31498673
 21
-238.52366364
 31
0.0
  0
LINE
  5
4CD
  8
DIM49
 10
269.81498673
 20
-242.52366364
 30
0.0
 11
269.81498673
 21
-238.52366364
 31
0.0
  0
ENDBLK
  8
0
  0
BLOCK
  8
0
  2
_D5
 70
     0
 10
443.25974303
 20
-251.61454482
 30
0.0
  0
TEXT
  5
4E7
  8
TXT_DIM49
 10
443.25974303
 20
-251.61454482
 30
0.0
 40
2.5
  1
8
 50
90.00020741
  7
ARIAL
  0
LINE
  5
4E8
  8
DIM49
 10
445.75974303
 20
-247.6546271
 30
0.0
 11
443.75974303
 21
-245.6546271
 31
0.0
  0
LINE
  5
4E9
  8
DIM49
 10
444.00974303
 20
-253.9046271
 30
0.0
 11
445.50974303
 21
-255.4046271
 31
0.0
  0
LINE
  5
4EA
  8
DIM49
 10
444.75974303
 20
-246.6546271
 30
0.0
 11
444.75974303
 21
-254.6546271
 31
0.0
  0
LINE
  5
4EB
  8
DIM49
 10
442.75974303
 20
-246.6546271
 30
0.0
 11
446.75974303
 21
-246.6546271
 31
0.0
  0
LINE
  5
4EC
  8
DIM49
 10
442.75974303
 20
-254.6546271
 30
0.0
 11
446.75974303
 21
-254.6546271
 31
0.0
  0
ENDBLK
  8
0
  0
BLOCK
  8
0
  2
_D6
 70
     0
 10
443.25974303
 20
-264.07446255
 30
0.0
  0
TEXT
  5
4EF
  8
TXT_DIM49
 10
443.25974303
 20
-264.07446255
 30
0.0
 40
2.5
  1
15
 50
90.00020741
  7
ARIAL
  0
LINE
  5
4F0
  8
DIM49
 10
445.75974303
 20
-255.6546271
 30
0.0
 11
443.75974303
 21
-253.6546271
 31
0.0
  0
LINE
  5
4F1
  8
DIM49
 10
444.00974303
 20
-268.9046271
 30
0.0
 11
445.50974303
 21
-270.4046271
 31
0.0
  0
LINE
  5
4F2
  8
DIM49
 10
444.75974303
 20
-254.6546271
 30
0.0
 11
444.75974303
 21
-269.6546271
 31
0.0
  0
LINE
  5
4F3
  8
DIM49
 10
442.75974303
 20
-254.6546271
 30
0.0
 11
446.75974303
 21
-254.6546271
 31
0.0
  0
LINE
  5
4F4
  8
DIM49
 10
442.75974303
 20
-269.6546271
 30
0.0
 11
446.75974303
 21
-269.6546271
 31
0.0
  0
ENDBLK
  8
0
  0
BLOCK
  8
0
  2
_D7
 70
     0
 10
443.25974303
 20
-278.07446255
 30
0.0
  0
TEXT
  5
4F7
  8
TXT_DIM49
 10
443.25974303
 20
-278.07446255
 30
0.0
 40
2.5
  1
13
 50
90.00020741
  7
ARIAL
  0
LINE
  5
4F8
  8
DIM49
 10
445.75974303
 20
-270.6546271
 30
0.0
 11
443.75974303
 21
-268.6546271
 31
0.0
  0
LINE
  5
4F9
  8
DIM49
 10
444.00974303
 20
-281.9046271
 30
0.0
 11
445.50974303
 21
-283.4046271
 31
0.0
  0
LINE
  5
4FA
  8
DIM49
 10
444.75974303
 20
-269.6546271
 30
0.0
 11
444.75974303
 21
-282.6546271
 31
0.0
  0
LINE
  5
4FB
  8
DIM49
 10
442.75974303
 20
-269.6546271
 30
0.0
 11
446.75974303
 21
-269.6546271
 31
0.0
  0
LINE
  5
4FC
  8
DIM49
 10
442.75974303
 20
-282.6546271
 30
0.0
 11
446.75974303
 21
-282.6546271
 31
0.0
  0
ENDBLK
  8
0
  0
BLOCK
  8
0
  2
_D8
 70
     0
 10
443.25974303
 20
-291.57446255
 30
0.0
  0
TEXT
  5
4FF
  8
TXT_DIM49
 10
443.25974303
 20
-291.57446255
 30
0.0
 40
2.5
  1
14
 50
90.00020741
  7
ARIAL
  0
LINE
  5
500
  8
DIM49
 10
445.75974303
 20
-283.6546271
 30
0.0
 11
443.75974303
 21
-281.6546271
 31
0.0
  0
LINE
  5
501
  8
DIM49
 10
444.00974303
 20
-295.9046271
 30
0.0
 11
445.50974303
 21
-297.4046271
 31
0.0
  0
LINE
  5
502
  8
DIM49
 10
444.75974303
 20
-282.6546271
 30
0.0
 11
444.75974303
 21
-296.6546271
 31
0.0
  0
LINE
  5
503
  8
DIM49
 10
442.75974303
 20
-282.6546271
 30
0.0
 11
446.75974303
 21
-282.6546271
 31
0.0
  0
LINE
  5
504
  8
DIM49
 10
442.75974303
 20
-296.6546271
 30
0.0
 11
446.75974303
 21
-296.6546271
 31
0.0
  0
ENDBLK
  8
0
  0
BLOCK
  8
0
  2
_D9
 70
     0
 10
390.92648867
 20
-221.52492394
 30
0.0
  0
TEXT
  5
507
  8
TXT_DIM49
 10
390.92648867
 20
-221.52492394
 30
0.0
 40
2.5
  1
30
  7
ARIAL
  0
LINE
  5
508
  8
DIM49
 10
378.84632412
 20
-222.02492394
 30
0.0
 11
376.84632412
 21
-224.02492394
 31
0.0
  0
LINE
  5
509
  8
DIM49
 10
407.09632412
 20
-223.77492394
 30
0.0
 11
408.59632412
 21
-222.27492394
 31
0.0
  0
LINE
  5
50A
  8
DIM49
 10
377.84632412
 20
-223.02492394
 30
0.0
 11
407.84632412
 21
-223.02492394
 31
0.0
  0
LINE
  5
50B
  8
DIM49
 10
377.84632412
 20
-225.02492394
 30
0.0
 11
377.84632412
 21
-221.02492394
 31
0.0
  0
LINE
  5
50C
  8
DIM49
 10
407.84632412
 20
-225.02492394
 30
0.0
 11
407.84632412
 21
-221.02492394
 31
0.0
  0
ENDBLK
  8
0
  0
BLOCK
  8
0
  2
_D10
 70
     0
 10
420.92648867
 20
-221.52492394
 30
0.0
  0
TEXT
  5
50F
  8
TXT_DIM49
 10
420.92648867
 20
-221.52492394
 30
0.0
 40
2.5
  1
30
  7
ARIAL
  0
LINE
  5
510
  8
DIM49
 10
408.84632412
 20
-222.02492394
 30
0.0
 11
406.84632412
 21
-224.02492394
 31
0.0
  0
LINE
  5
511
  8
DIM49
 10
437.09632412
 20
-223.77492394
 30
0.0
 11
438.59632412
 21
-222.27492394
 31
0.0
  0
LINE
  5
512
  8
DIM49
 10
407.84632412
 20
-223.02492394
 30
0.0
 11
437.84632412
 21
-223.02492394
 31
0.0
  0
LINE
  5
513
  8
DIM49
 10
407.84632412
 20
-225.02492394
 30
0.0
 11
407.84632412
 21
-221.02492394
 31
0.0
  0
LINE
  5
514
  8
DIM49
 10
437.84632412
 20
-225.02492394
 30
0.0
 11
437.84632412
 21
-221.02492394
 31
0.0
  0
ENDBLK
  8
0
  0
BLOCK
  8
0
  2
_D11
 70
     0
 10
368.36097486
 20
-251.11454482
 30
0.0
  0
TEXT
  5
517
  8
TXT_DIM49
 10
368.36097486
 20
-251.11454482
 30
0.0
 40
2.5
  1
7
 50
90.00020741
  7
ARIAL
  0
LINE
  5
518
  8
DIM49
 10
370.86097486
 20
-247.6546271
 30
0.0
 11
368.86097486
 21
-245.6546271
 31
0.0
  0
LINE
  5
519
  8
DIM49
 10
369.11097486
 20
-252.9046271
 30
0.0
 11
370.61097486
 21
-254.4046271
 31
0.0
  0
LINE
  5
51A
  8
DIM49
 10
369.86097486
 20
-246.6546271
 30
0.0
 11
369.86097486
 21
-253.6546271
 31
0.0
  0
LINE
  5
51B
  8
DIM49
 10
371.86097486
 20
-246.6546271
 30
0.0
 11
367.86097486
 21
-246.6546271
 31
0.0
  0
LINE
  5
51C
  8
DIM49
 10
371.86097486
 20
-253.6546271
 30
0.0
 11
367.86097486
 21
-253.6546271
 31
0.0
  0
ENDBLK
  8
0
  0
BLOCK
  8
0
  2
_D12
 70
     0
 10
368.36097486
 20
-270.57446255
 30
0.0
  0
TEXT
  5
51F
  8
TXT_DIM49
 10
368.36097486
 20
-270.57446255
 30
0.0
 40
2.5
  1
30
 50
90.00020741
  7
ARIAL
  0
LINE
  5
520
  8
DIM49
 10
370.86097486
 20
-254.6546271
 30
0.0
 11
368.86097486
 21
-252.6546271
 31
0.0
  0
LINE
  5
521
  8
DIM49
 10
369.11097486
 20
-282.9046271
 30
0.0
 11
370.61097486
 21
-284.4046271
 31
0.0
  0
LINE
  5
522
  8
DIM49
 10
369.86097486
 20
-253.6546271
 30
0.0
 11
369.86097486
 21
-283.6546271
 31
0.0
  0
LINE
  5
523
  8
DIM49
 10
371.86097486
 20
-253.6546271
 30
0.0
 11
367.86097486
 21
-253.6546271
 31
0.0
  0
LINE
  5
524
  8
DIM49
 10
371.86097486
 20
-283.6546271
 30
0.0
 11
367.86097486
 21
-283.6546271
 31
0.0
  0
ENDBLK
  8
0
  0
BLOCK
  8
0
  2
_D13
 70
     0
 10
368.36097486
 20
-292.07446255
 30
0.0
  0
TEXT
  5
527
  8
TXT_DIM49
 10
368.36097486
 20
-292.07446255
 30
0.0
 40
2.5
  1
13
 50
90.00020741
  7
ARIAL
  0
LINE
  5
528
  8
DIM49
 10
370.86097486
 20
-284.6546271
 30
0.0
 11
368.86097486
 21
-282.6546271
 31
0.0
  0
LINE
  5
529
  8
DIM49
 10
369.11097486
 20
-295.9046271
 30
0.0
 11
370.61097486
 21
-297.4046271
 31
0.0
  0
LINE
  5
52A
  8
DIM49
 10
369.86097486
 20
-283.6546271
 30
0.0
 11
369.86097486
 21
-296.6546271
 31
0.0
  0
LINE
  5
52B
  8
DIM49
 10
371.86097486
 20
-283.6546271
 30
0.0
 11
367.86097486
 21
-283.6546271
 31
0.0
  0
LINE
  5
52C
  8
DIM49
 10
371.86097486
 20
-296.6546271
 30
0.0
 11
367.86097486
 21
-296.6546271
 31
0.0
  0
ENDBLK
  8
0
  0
BLOCK
  8
0
  2
_D14
 70
     0
 10
384.69916707
 20
-239.68251794
 30
0.0
  0
TEXT
  5
52F
  8
TXT_DIM49
 10
384.69916707
 20
-239.68251794
 30
0.0
 40
2.5
  1
5
  7
ARIAL
  0
TEXT
  5
530
  8
TXT_DIM49
 10
388.11900263
 20
-239.68251794
 30
0.0
 40
2.5
  1
x45°
  7
ARIAL
  0
LINE
  5
531
  8
DIM49
 10
384.24632412
 20
-240.18251794
 30
0.0
 11
382.24632412
 21
-242.18251794
 31
0.0
  0
LINE
  5
532
  8
DIM49
 10
377.09632412
 20
-241.93251794
 30
0.0
 11
378.59632412
 21
-240.43251794
 31
0.0
  0
LINE
  5
533
  8
DIM49
 10
396.06513172
 20
-241.18251794
 30
0.0
 11
371.84632412
 21
-241.18251794
 31
0.0
  0
LINE
  5
534
  8
DIM49
 10
383.24632412
 20
-243.18251794
 30
0.0
 11
383.24632412
 21
-239.18251794
 31
0.0
  0
LINE
  5
535
  8
DIM49
 10
377.84632412
 20
-243.18251794
 30
0.0
 11
377.84632412
 21
-239.18251794
 31
0.0
  0
ENDBLK
  8
0
  0
BLOCK
  8
0
  2
_D15
 70
     0
 10
439.75401893
 20
-239.68251794
 30
0.0
  0
TEXT
  5
538
  8
TXT_DIM49
 10
439.75401893
 20
-239.68251794
 30
0.0
 40
2.5
  1
5
  7
ARIAL
  0
TEXT
  5
539
  8
TXT_DIM49
 10
443.1738545
 20
-239.68251794
 30
0.0
 40
2.5
  1
x45°
  7
ARIAL
  0
LINE
  5
53A
  8
DIM49
 10
431.44632412
 20
-242.18251794
 30
0.0
 11
433.44632412
 21
-240.18251794
 31
0.0
  0
LINE
  5
53B
  8
DIM49
 10
438.59632412
 20
-240.43251794
 30
0.0
 11
437.09632412
 21
-241.93251794
 31
0.0
  0
LINE
  5
53C
  8
DIM49
 10
426.44632412
 20
-241.18251794
 30
0.0
 11
451.11998477
 21
-241.18251794
 31
0.0
  0
LINE
  5
53D
  8
DIM49
 10
432.44632412
 20
-243.18251794
 30
0.0
 11
432.44632412
 21
-239.18251794
 31
0.0
  0
LINE
  5
53E
  8
DIM49
 10
437.84632412
 20
-243.18251794
 30
0.0
 11
437.84632412
 21
-239.18251794
 31
0.0
  0
ENDBLK
  8
0
  0
BLOCK
  8
0
  2
_D16
 70
     0
 10
380.92648867
 20
-230.30343492
 30
0.0
  0
TEXT
  5
541
  8
TXT_DIM49
 10
380.92648867
 20
-230.30343492
 30
0.0
 40
2.5
  1
10
  7
ARIAL
  0
LINE
  5
542
  8
DIM49
 10
378.84632412
 20
-230.80343492
 30
0.0
 11
376.84632412
 21
-232.80343492
 31
0.0
  0
LINE
  5
543
  8
DIM49
 10
387.09632412
 20
-232.55343492
 30
0.0
 11
388.59632412
 21
-231.05343492
 31
0.0
  0
LINE
  5
544
  8
DIM49
 10
377.84632412
 20
-231.80343492
 30
0.0
 11
387.84632412
 21
-231.80343492
 31
0.0
  0
LINE
  5
545
  8
DIM49
 10
377.84632412
 20
-233.80343492
 30
0.0
 11
377.84632412
 21
-229.80343492
 31
0.0
  0
LINE
  5
546
  8
DIM49
 10
387.84632412
 20
-233.80343492
 30
0.0
 11
387.84632412
 21
-229.80343492
 31
0.0
  0
ENDBLK
  8
0
  0
BLOCK
  8
0
  2
_D17
 70
     0
 10
389.38640639
 20
-230.30343492
 30
0.0
  0
TEXT
  5
549
  8
TXT_DIM49
 10
389.38640639
 20
-230.30343492
 30
0.0
 40
2.5
  1
5
  7
ARIAL
  0
LINE
  5
54A
  8
DIM49
 10
388.84632412
 20
-230.80343492
 30
0.0
 11
386.84632412
 21
-232.80343492
 31
0.0
  0
LINE
  5
54B
  8
DIM49
 10
392.09632412
 20
-232.55343492
 30
0.0
 11
393.59632412
 21
-231.05343492
 31
0.0
  0
LINE
  5
54C
  8
DIM49
 10
387.84632412
 20
-231.80343492
 30
0.0
 11
392.84632412
 21
-231.80343492
 31
0.0
  0
LINE
  5
54D
  8
DIM49
 10
387.84632412
 20
-233.80343492
 30
0.0
 11
387.84632412
 21
-229.80343492
 31
0.0
  0
LINE
  5
54E
  8
DIM49
 10
392.84632412
 20
-233.80343492
 30
0.0
 11
392.84632412
 21
-229.80343492
 31
0.0
  0
ENDBLK
  8
0
  0
BLOCK
  8
0
  2
_D18
 70
     0
 10
405.92648867
 20
-230.30343492
 30
0.0
  0
TEXT
  5
551
  8
TXT_DIM49
 10
405.92648867
 20
-230.30343492
 30
0.0
 40
2.5
  1
30
  7
ARIAL
  0
LINE
  5
552
  8
DIM49
 10
393.84632412
 20
-230.80343492
 30
0.0
 11
391.84632412
 21
-232.80343492
 31
0.0
  0
LINE
  5
553
  8
DIM49
 10
422.09632412
 20
-232.55343492
 30
0.0
 11
423.59632412
 21
-231.05343492
 31
0.0
  0
LINE
  5
554
  8
DIM49
 10
392.84632412
 20
-231.80343492
 30
0.0
 11
422.84632412
 21
-231.80343492
 31
0.0
  0
LINE
  5
555
  8
DIM49
 10
392.84632412
 20
-233.80343492
 30
0.0
 11
392.84632412
 21
-229.80343492
 31
0.0
  0
LINE
  5
556
  8
DIM49
 10
422.84632412
 20
-233.80343492
 30
0.0
 11
422.84632412
 21
-229.80343492
 31
0.0
  0
ENDBLK
  8
0
  0
BLOCK
  8
0
  2
_D19
 70
     0
 10
424.38640639
 20
-230.30343492
 30
0.0
  0
TEXT
  5
559
  8
TXT_DIM49
 10
424.38640639
 20
-230.30343492
 30
0.0
 40
2.5
  1
5
  7
ARIAL
  0
LINE
  5
55A
  8
DIM49
 10
423.84632412
 20
-230.80343492
 30
0.0
 11
421.84632412
 21
-232.80343492
 31
0.0
  0
LINE
  5
55B
  8
DIM49
 10
427.09632412
 20
-232.55343492
 30
0.0
 11
428.59632412
 21
-231.05343492
 31
0.0
  0
LINE
  5
55C
  8
DIM49
 10
422.84632412
 20
-231.80343492
 30
0.0
 11
427.84632412
 21
-231.80343492
 31
0.0
  0
LINE
  5
55D
  8
DIM49
 10
422.84632412
 20
-233.80343492
 30
0.0
 11
422.84632412
 21
-229.80343492
 31
0.0
  0
LINE
  5
55E
  8
DIM49
 10
427.84632412
 20
-233.80343492
 30
0.0
 11
427.84632412
 21
-229.80343492
 31
0.0
  0
ENDBLK
  8
0
  0
BLOCK
  8
0
  2
_D20
 70
     0
 10
430.92648867
 20
-230.30343492
 30
0.0
  0
TEXT
  5
561
  8
TXT_DIM49
 10
430.92648867
 20
-230.30343492
 30
0.0
 40
2.5
  1
10
  7
ARIAL
  0
LINE
  5
562
  8
DIM49
 10
428.84632412
 20
-230.80343492
 30
0.0
 11
426.84632412
 21
-232.80343492
 31
0.0
  0
LINE
  5
563
  8
DIM49
 10
437.09632412
 20
-232.55343492
 30
0.0
 11
438.59632412
 21
-231.05343492
 31
0.0
  0
LINE
  5
564
  8
DIM49
 10
427.84632412
 20
-231.80343492
 30
0.0
 11
437.84632412
 21
-231.80343492
 31
0.0
  0
LINE
  5
565
  8
DIM49
 10
427.84632412
 20
-233.80343492
 30
0.0
 11
427.84632412
 21
-229.80343492
 31
0.0
  0
LINE
  5
566
  8
DIM49
 10
437.84632412
 20
-233.80343492
 30
0.0
 11
437.84632412
 21
-229.80343492
 31
0.0
  0
ENDBLK
  8
0
  0
BLOCK
  8
0
  2
_D21
 70
     0
 10
390.92592648
 20
-260.28007382
 30
0.0
  0
TEXT
  5
569
  8
TXT_DIM49
 10
390.92592648
 20
-260.28007382
 30
0.0
 40
2.5
  1
Ø
  7
ARIAL
  0
TEXT
  5
56A
  8
TXT_DIM49
 10
394.61099937
 20
-260.28007382
 30
0.0
 40
2.5
  1
4
  7
ARIAL
  0
LINE
  5
56B
  8
DIM49
 10
390.84632412
 20
-260.78007382
 30
0.0
 11
388.84632412
 21
-262.78007382
 31
0.0
  0
LINE
  5
56C
  8
DIM49
 10
385.09632412
 20
-262.53007382
 30
0.0
 11
386.59632412
 21
-261.03007382
 31
0.0
  0
LINE
  5
56D
  8
DIM49
 10
397.5308353
 20
-261.78007382
 30
0.0
 11
379.84632412
 21
-261.78007382
 31
0.0
  0
LINE
  5
56E
  8
DIM49
 10
389.84632412
 20
-259.78007382
 30
0.0
 11
389.84632412
 21
-263.78007382
 31
0.0
  0
LINE
  5
56F
  8
DIM49
 10
385.84632412
 20
-259.78007382
 30
0.0
 11
385.84632412
 21
-263.78007382
 31
0.0
  0
ENDBLK
  8
0
  0
BLOCK
  8
0
  2
_D22
 70
     0
 10
404.0839521
 20
-288.1546271
 30
0.0
  0
TEXT
  5
572
  8
TXT_DIM49
 10
404.0839521
 20
-288.1546271
 30
0.0
 40
2.5
  1
Ø
  7
ARIAL
  0
TEXT
  5
573
  8
TXT_DIM49
 10
407.769025
 20
-288.1546271
 30
0.0
 40
2.5
  1
12
  7
ARIAL
  0
LINE
  5
574
  8
DIM49
 10
412.84632412
 20
-290.6546271
 30
0.0
 11
414.84632412
 21
-288.6546271
 31
0.0
  0
LINE
  5
575
  8
DIM49
 10
402.59632412
 20
-288.9046271
 30
0.0
 11
401.09632412
 21
-290.4046271
 31
0.0
  0
LINE
  5
576
  8
DIM49
 10
413.84632412
 20
-289.6546271
 30
0.0
 11
401.84632412
 21
-289.6546271
 31
0.0
  0
LINE
  5
577
  8
DIM49
 10
413.84632412
 20
-287.6546271
 30
0.0
 11
413.84632412
 21
-291.6546271
 31
0.0
  0
LINE
  5
578
  8
DIM49
 10
401.84632412
 20
-287.6546271
 30
0.0
 11
401.84632412
 21
-291.6546271
 31
0.0
  0
ENDBLK
  8
0
  0
BLOCK
  8
0
  2
_D23
 70
     0
 10
325.9667912
 20
-138.84164171
 30
0.0
  0
TEXT
  5
593
  8
TXT_DIM49
 10
325.9667912
 20
-138.84164171
 30
0.0
 40
2.5
  1
5
 50
90.00020741
  7
ARIAL
  0
TEXT
  5
594
  8
TXT_DIM49
 10
325.9667912
 20
-135.42180614
 30
0.0
 40
2.5
  1
x45°
 50
90.00020741
  7
ARIAL
  0
LINE
  5
595
  8
DIM49
 10
328.4667912
 20
-147.34160633
 30
0.0
 11
326.4667912
 21
-145.34160633
 31
0.0
  0
LINE
  5
596
  8
DIM49
 10
326.7167912
 20
-140.19160633
 30
0.0
 11
328.2167912
 21
-141.69160633
 31
0.0
  0
LINE
  5
597
  8
DIM49
 10
327.4667912
 20
-152.34160633
 30
0.0
 11
327.4667912
 21
-127.4756773
 31
0.0
  0
LINE
  5
598
  8
DIM49
 10
325.4667912
 20
-146.34160633
 30
0.0
 11
329.4667912
 21
-146.34160633
 31
0.0
  0
LINE
  5
599
  8
DIM49
 10
325.4667912
 20
-140.94160633
 30
0.0
 11
329.4667912
 21
-140.94160633
 31
0.0
  0
ENDBLK
  8
0
  0
BLOCK
  8
0
  2
_D24
 70
     0
 10
325.73537033
 20
-191.90183296
 30
0.0
  0
TEXT
  5
59C
  8
TXT_DIM49
 10
325.73537033
 20
-191.90183296
 30
0.0
 40
2.5
  1
5
 50
90.00020741
  7
ARIAL
  0
TEXT
  5
59D
  8
TXT_DIM49
 10
325.73537033
 20
-188.48199739
 30
0.0
 40
2.5
  1
x45°
 50
90.00020741
  7
ARIAL
  0
LINE
  5
59E
  8
DIM49
 10
328.23537033
 20
-201.94160633
 30
0.0
 11
326.23537033
 21
-199.94160633
 31
0.0
  0
LINE
  5
59F
  8
DIM49
 10
326.48537033
 20
-194.79160633
 30
0.0
 11
327.98537033
 21
-196.29160633
 31
0.0
  0
LINE
  5
5A0
  8
DIM49
 10
327.23537033
 20
-206.94160633
 30
0.0
 11
327.23537033
 21
-180.53586712
 31
0.0
  0
LINE
  5
5A1
  8
DIM49
 10
325.23537033
 20
-200.94160633
 30
0.0
 11
329.23537033
 21
-200.94160633
 31
0.0
  0
LINE
  5
5A2
  8
DIM49
 10
325.23537033
 20
-195.54160633
 30
0.0
 11
329.23537033
 21
-195.54160633
 31
0.0
  0
ENDBLK
  8
0
  0
BLOCK
  8
0
  2
_D25
 70
     0
 10
274.89515128
 20
-208.07770882
 30
0.0
  0
TEXT
  5
5A5
  8
TXT_DIM49
 10
274.89515128
 20
-208.07770882
 30
0.0
 40
2.5
  1
14
  7
ARIAL
  0
LINE
  5
5A6
  8
DIM49
 10
270.81498673
 20
-208.57770882
 30
0.0
 11
268.81498673
 21
-210.57770882
 31
0.0
  0
LINE
  5
5A7
  8
DIM49
 10
283.06498673
 20
-210.32770882
 30
0.0
 11
284.56498673
 21
-208.82770882
 31
0.0
  0
LINE
  5
5A8
  8
DIM49
 10
269.81498673
 20
-209.57770882
 30
0.0
 11
283.81498673
 21
-209.57770882
 31
0.0
  0
LINE
  5
5A9
  8
DIM49
 10
269.81498673
 20
-207.57770882
 30
0.0
 11
269.81498673
 21
-211.57770882
 31
0.0
  0
LINE
  5
5AA
  8
DIM49
 10
283.81498673
 20
-207.57770882
 30
0.0
 11
283.81498673
 21
-211.57770882
 31
0.0
  0
ENDBLK
  8
0
  0
BLOCK
  8
0
  2
_D26
 70
     0
 10
288.39515128
 20
-208.07770882
 30
0.0
  0
TEXT
  5
5AD
  8
TXT_DIM49
 10
288.39515128
 20
-208.07770882
 30
0.0
 40
2.5
  1
13
  7
ARIAL
  0
LINE
  5
5AE
  8
DIM49
 10
284.81498673
 20
-208.57770882
 30
0.0
 11
282.81498673
 21
-210.57770882
 31
0.0
  0
LINE
  5
5AF
  8
DIM49
 10
296.06498673
 20
-210.32770882
 30
0.0
 11
297.56498673
 21
-208.82770882
 31
0.0
  0
LINE
  5
5B0
  8
DIM49
 10
283.81498673
 20
-209.57770882
 30
0.0
 11
296.81498673
 21
-209.57770882
 31
0.0
  0
LINE
  5
5B1
  8
DIM49
 10
283.81498673
 20
-207.57770882
 30
0.0
 11
283.81498673
 21
-211.57770882
 31
0.0
  0
LINE
  5
5B2
  8
DIM49
 10
296.81498673
 20
-207.57770882
 30
0.0
 11
296.81498673
 21
-211.57770882
 31
0.0
  0
ENDBLK
  8
0
  0
BLOCK
  8
0
  2
_D27
 70
     0
 10
302.5125471
 20
-208.07770882
 30
0.0
  0
TEXT
  5
5B5
  8
TXT_DIM49
 10
302.5125471
 20
-208.07770882
 30
0.0
 40
2.5
  1
15
  7
ARIAL
  0
LINE
  5
5B6
  8
DIM49
 10
297.81498673
 20
-208.57770882
 30
0.0
 11
295.81498673
 21
-210.57770882
 31
0.0
  0
LINE
  5
5B7
  8
DIM49
 10
311.06498673
 20
-210.32770882
 30
0.0
 11
312.56498673
 21
-208.82770882
 31
0.0
  0
LINE
  5
5B8
  8
DIM49
 10
296.81498673
 20
-209.57770882
 30
0.0
 11
311.81498673
 21
-209.57770882
 31
0.0
  0
LINE
  5
5B9
  8
DIM49
 10
296.81498673
 20
-207.57770882
 30
0.0
 11
296.81498673
 21
-211.57770882
 31
0.0
  0
LINE
  5
5BA
  8
DIM49
 10
311.81498673
 20
-207.57770882
 30
0.0
 11
311.81498673
 21
-211.57770882
 31
0.0
  0
ENDBLK
  8
0
  0
BLOCK
  8
0
  2
_D28
 70
     0
 10
314.85506901
 20
-208.07770882
 30
0.0
  0
TEXT
  5
5BD
  8
TXT_DIM49
 10
314.85506901
 20
-208.07770882
 30
0.0
 40
2.5
  1
8
  7
ARIAL
  0
LINE
  5
5BE
  8
DIM49
 10
312.81498673
 20
-208.57770882
 30
0.0
 11
310.81498673
 21
-210.57770882
 31
0.0
  0
LINE
  5
5BF
  8
DIM49
 10
319.06498673
 20
-210.32770882
 30
0.0
 11
320.56498673
 21
-208.82770882
 31
0.0
  0
LINE
  5
5C0
  8
DIM49
 10
311.81498673
 20
-209.57770882
 30
0.0
 11
319.81498673
 21
-209.57770882
 31
0.0
  0
LINE
  5
5C1
  8
DIM49
 10
311.81498673
 20
-207.57770882
 30
0.0
 11
311.81498673
 21
-211.57770882
 31
0.0
  0
LINE
  5
5C2
  8
DIM49
 10
319.81498673
 20
-207.57770882
 30
0.0
 11
319.81498673
 21
-211.57770882
 31
0.0
  0
ENDBLK
  8
0
  0
BLOCK
  8
0
  2
_D29
 70
     0
 10
261.82370297
 20
-197.86144178
 30
0.0
  0
TEXT
  5
5C5
  8
TXT_DIM49
 10
261.82370297
 20
-197.86144178
 30
0.0
 40
2.5
  1
10
 50
90.00020741
  7
ARIAL
  0
LINE
  5
5C6
  8
DIM49
 10
262.32370297
 20
-199.94160633
 30
0.0
 11
264.32370297
 21
-201.94160633
 31
0.0
  0
LINE
  5
5C7
  8
DIM49
 10
264.07370297
 20
-191.69160633
 30
0.0
 11
262.57370297
 21
-190.19160633
 31
0.0
  0
LINE
  5
5C8
  8
DIM49
 10
263.32370297
 20
-200.94160633
 30
0.0
 11
263.32370297
 21
-190.94160633
 31
0.0
  0
LINE
  5
5C9
  8
DIM49
 10
265.32370297
 20
-200.94160633
 30
0.0
 11
261.32370297
 21
-200.94160633
 31
0.0
  0
LINE
  5
5CA
  8
DIM49
 10
265.32370297
 20
-190.94160633
 30
0.0
 11
261.32370297
 21
-190.94160633
 31
0.0
  0
ENDBLK
  8
0
  0
BLOCK
  8
0
  2
_D30
 70
     0
 10
261.82370297
 20
-189.40152405
 30
0.0
  0
TEXT
  5
5CD
  8
TXT_DIM49
 10
261.82370297
 20
-189.40152405
 30
0.0
 40
2.5
  1
5
 50
90.00020741
  7
ARIAL
  0
LINE
  5
5CE
  8
DIM49
 10
262.32370297
 20
-189.94160633
 30
0.0
 11
264.32370297
 21
-191.94160633
 31
0.0
  0
LINE
  5
5CF
  8
DIM49
 10
264.07370297
 20
-186.69160633
 30
0.0
 11
262.57370297
 21
-185.19160633
 31
0.0
  0
LINE
  5
5D0
  8
DIM49
 10
263.32370297
 20
-190.94160633
 30
0.0
 11
263.32370297
 21
-185.94160633
 31
0.0
  0
LINE
  5
5D1
  8
DIM49
 10
265.32370297
 20
-190.94160633
 30
0.0
 11
261.32370297
 21
-190.94160633
 31
0.0
  0
LINE
  5
5D2
  8
DIM49
 10
265.32370297
 20
-185.94160633
 30
0.0
 11
261.32370297
 21
-185.94160633
 31
0.0
  0
ENDBLK
  8
0
  0
BLOCK
  8
0
  2
_D31
 70
     0
 10
261.82370297
 20
-172.86144178
 30
0.0
  0
TEXT
  5
5D5
  8
TXT_DIM49
 10
261.82370297
 20
-172.86144178
 30
0.0
 40
2.5
  1
30
 50
90.00020741
  7
ARIAL
  0
LINE
  5
5D6
  8
DIM49
 10
262.32370297
 20
-184.94160633
 30
0.0
 11
264.32370297
 21
-186.94160633
 31
0.0
  0
LINE
  5
5D7
  8
DIM49
 10
264.07370297
 20
-156.69160633
 30
0.0
 11
262.57370297
 21
-155.19160633
 31
0.0
  0
LINE
  5
5D8
  8
DIM49
 10
263.32370297
 20
-185.94160633
 30
0.0
 11
263.32370297
 21
-155.94160633
 31
0.0
  0
LINE
  5
5D9
  8
DIM49
 10
265.32370297
 20
-185.94160633
 30
0.0
 11
261.32370297
 21
-185.94160633
 31
0.0
  0
LINE
  5
5DA
  8
DIM49
 10
265.32370297
 20
-155.94160633
 30
0.0
 11
261.32370297
 21
-155.94160633
 31
0.0
  0
ENDBLK
  8
0
  0
BLOCK
  8
0
  2
_D32
 70
     0
 10
261.82370297
 20
-154.40152405
 30
0.0
  0
TEXT
  5
5DD
  8
TXT_DIM49
 10
261.82370297
 20
-154.40152405
 30
0.0
 40
2.5
  1
5
 50
90.00020741
  7
ARIAL
  0
LINE
  5
5DE
  8
DIM49
 10
262.32370297
 20
-154.94160633
 30
0.0
 11
264.32370297
 21
-156.94160633
 31
0.0
  0
LINE
  5
5DF
  8
DIM49
 10
264.07370297
 20
-151.69160633
 30
0.0
 11
262.57370297
 21
-150.19160633
 31
0.0
  0
LINE
  5
5E0
  8
DIM49
 10
263.32370297
 20
-155.94160633
 30
0.0
 11
263.32370297
 21
-150.94160633
 31
0.0
  0
LINE
  5
5E1
  8
DIM49
 10
265.32370297
 20
-155.94160633
 30
0.0
 11
261.32370297
 21
-155.94160633
 31
0.0
  0
LINE
  5
5E2
  8
DIM49
 10
265.32370297
 20
-150.94160633
 30
0.0
 11
261.32370297
 21
-150.94160633
 31
0.0
  0
ENDBLK
  8
0
  0
BLOCK
  8
0
  2
_D33
 70
     0
 10
261.82370297
 20
-147.86144178
 30
0.0
  0
TEXT
  5
5E5
  8
TXT_DIM49
 10
261.82370297
 20
-147.86144178
 30
0.0
 40
2.5
  1
10
 50
90.00020741
  7
ARIAL
  0
LINE
  5
5E6
  8
DIM49
 10
262.32370297
 20
-149.94160633
 30
0.0
 11
264.32370297
 21
-151.94160633
 31
0.0
  0
LINE
  5
5E7
  8
DIM49
 10
264.07370297
 20
-141.69160633
 30
0.0
 11
262.57370297
 21
-140.19160633
 31
0.0
  0
LINE
  5
5E8
  8
DIM49
 10
263.32370297
 20
-150.94160633
 30
0.0
 11
263.32370297
 21
-140.94160633
 31
0.0
  0
LINE
  5
5E9
  8
DIM49
 10
265.32370297
 20
-150.94160633
 30
0.0
 11
261.32370297
 21
-150.94160633
 31
0.0
  0
LINE
  5
5EA
  8
DIM49
 10
265.32370297
 20
-140.94160633
 30
0.0
 11
261.32370297
 21
-140.94160633
 31
0.0
  0
ENDBLK
  8
0
  0
BLOCK
  8
0
  2
_D34
 70
     0
 10
335.17825623
 20
-157.86144178
 30
0.0
  0
TEXT
  5
5ED
  8
TXT_DIM49
 10
335.17825623
 20
-157.86144178
 30
0.0
 40
2.5
  1
30
 50
90.00020741
  7
ARIAL
  0
LINE
  5
5EE
  8
DIM49
 10
337.67825623
 20
-141.94160633
 30
0.0
 11
335.67825623
 21
-139.94160633
 31
0.0
  0
LINE
  5
5EF
  8
DIM49
 10
335.92825623
 20
-170.19160633
 30
0.0
 11
337.42825623
 21
-171.69160633
 31
0.0
  0
LINE
  5
5F0
  8
DIM49
 10
336.67825623
 20
-140.94160633
 30
0.0
 11
336.67825623
 21
-170.94160633
 31
0.0
  0
LINE
  5
5F1
  8
DIM49
 10
334.67825623
 20
-140.94160633
 30
0.0
 11
338.67825623
 21
-140.94160633
 31
0.0
  0
LINE
  5
5F2
  8
DIM49
 10
334.67825623
 20
-170.94160633
 30
0.0
 11
338.67825623
 21
-170.94160633
 31
0.0
  0
ENDBLK
  8
0
  0
BLOCK
  8
0
  2
_D35
 70
     0
 10
335.17825623
 20
-187.86144178
 30
0.0
  0
TEXT
  5
5F5
  8
TXT_DIM49
 10
335.17825623
 20
-187.86144178
 30
0.0
 40
2.5
  1
30
 50
90.00020741
  7
ARIAL
  0
LINE
  5
5F6
  8
DIM49
 10
337.67825623
 20
-171.94160633
 30
0.0
 11
335.67825623
 21
-169.94160633
 31
0.0
  0
LINE
  5
5F7
  8
DIM49
 10
335.92825623
 20
-200.19160633
 30
0.0
 11
337.42825623
 21
-201.69160633
 31
0.0
  0
LINE
  5
5F8
  8
DIM49
 10
336.67825623
 20
-170.94160633
 30
0.0
 11
336.67825623
 21
-200.94160633
 31
0.0
  0
LINE
  5
5F9
  8
DIM49
 10
334.67825623
 20
-170.94160633
 30
0.0
 11
338.67825623
 21
-170.94160633
 31
0.0
  0
LINE
  5
5FA
  8
DIM49
 10
334.67825623
 20
-200.94160633
 30
0.0
 11
338.67825623
 21
-200.94160633
 31
0.0
  0
ENDBLK
  8
0
  0
BLOCK
  8
0
  2
_D36
 70
     0
 10
253.33683824
 20
-172.86144178
 30
0.0
  0
TEXT
  5
5FD
  8
TXT_DIM49
 10
253.33683824
 20
-172.86144178
 30
0.0
 40
2.5
  1
60
 50
90.00020741
  7
ARIAL
  0
LINE
  5
5FE
  8
DIM49
 10
255.83683824
 20
-141.94160633
 30
0.0
 11
253.83683824
 21
-139.94160633
 31
0.0
  0
LINE
  5
5FF
  8
DIM49
 10
254.08683824
 20
-200.19160633
 30
0.0
 11
255.58683824
 21
-201.69160633
 31
0.0
  0
LINE
  5
600
  8
DIM49
 10
254.83683824
 20
-140.94160633
 30
0.0
 11
254.83683824
 21
-200.94160633
 31
0.0
  0
LINE
  5
601
  8
DIM49
 10
256.83683824
 20
-140.94160633
 30
0.0
 11
252.83683824
 21
-140.94160633
 31
0.0
  0
LINE
  5
602
  8
DIM49
 10
256.83683824
 20
-200.94160633
 30
0.0
 11
252.83683824
 21
-200.94160633
 31
0.0
  0
ENDBLK
  8
0
  0
BLOCK
  8
0
  2
_D37
 70
     0
 10
315.35506901
 20
-133.77047852
 30
0.0
  0
TEXT
  5
605
  8
TXT_DIM49
 10
315.35506901
 20
-133.77047852
 30
0.0
 40
2.5
  1
7
  7
ARIAL
  0
LINE
  5
606
  8
DIM49
 10
318.81498673
 20
-136.27047852
 30
0.0
 11
320.81498673
 21
-134.27047852
 31
0.0
  0
LINE
  5
607
  8
DIM49
 10
313.56498673
 20
-134.52047852
 30
0.0
 11
312.06498673
 21
-136.02047852
 31
0.0
  0
LINE
  5
608
  8
DIM49
 10
319.81498673
 20
-135.27047852
 30
0.0
 11
312.81498673
 21
-135.27047852
 31
0.0
  0
LINE
  5
609
  8
DIM49
 10
319.81498673
 20
-137.27047852
 30
0.0
 11
319.81498673
 21
-133.27047852
 31
0.0
  0
LINE
  5
60A
  8
DIM49
 10
312.81498673
 20
-137.27047852
 30
0.0
 11
312.81498673
 21
-133.27047852
 31
0.0
  0
ENDBLK
  8
0
  0
BLOCK
  8
0
  2
_D38
 70
     0
 10
295.89515128
 20
-133.77047852
 30
0.0
  0
TEXT
  5
60D
  8
TXT_DIM49
 10
295.89515128
 20
-133.77047852
 30
0.0
 40
2.5
  1
30
  7
ARIAL
  0
LINE
  5
60E
  8
DIM49
 10
311.81498673
 20
-136.27047852
 30
0.0
 11
313.81498673
 21
-134.27047852
 31
0.0
  0
LINE
  5
60F
  8
DIM49
 10
283.56498673
 20
-134.52047852
 30
0.0
 11
282.06498673
 21
-136.02047852
 31
0.0
  0
LINE
  5
610
  8
DIM49
 10
312.81498673
 20
-135.27047852
 30
0.0
 11
282.81498673
 21
-135.27047852
 31
0.0
  0
LINE
  5
611
  8
DIM49
 10
312.81498673
 20
-137.27047852
 30
0.0
 11
312.81498673
 21
-133.27047852
 31
0.0
  0
LINE
  5
612
  8
DIM49
 10
282.81498673
 20
-137.27047852
 30
0.0
 11
282.81498673
 21
-133.27047852
 31
0.0
  0
ENDBLK
  8
0
  0
BLOCK
  8
0
  2
_D39
 70
     0
 10
274.39515128
 20
-133.77047852
 30
0.0
  0
TEXT
  5
615
  8
TXT_DIM49
 10
274.39515128
 20
-133.77047852
 30
0.0
 40
2.5
  1
13
  7
ARIAL
  0
LINE
  5
616
  8
DIM49
 10
281.81498673
 20
-136.27047852
 30
0.0
 11
283.81498673
 21
-134.27047852
 31
0.0
  0
LINE
  5
617
  8
DIM49
 10
270.56498673
 20
-134.52047852
 30
0.0
 11
269.06498673
 21
-136.02047852
 31
0.0
  0
LINE
  5
618
  8
DIM49
 10
282.81498673
 20
-135.27047852
 30
0.0
 11
269.81498673
 21
-135.27047852
 31
0.0
  0
LINE
  5
619
  8
DIM49
 10
282.81498673
 20
-137.27047852
 30
0.0
 11
282.81498673
 21
-133.27047852
 31
0.0
  0
LINE
  5
61A
  8
DIM49
 10
269.81498673
 20
-137.27047852
 30
0.0
 11
269.81498673
 21
-133.27047852
 31
0.0
  0
ENDBLK
  8
0
  0
BLOCK
  8
0
  2
_D40
 70
     0
 10
324.74443775
 20
-173.74406056
 30
0.0
  0
TEXT
  5
61D
  8
TXT_DIM49
 10
324.74443775
 20
-173.74406056
 30
0.0
 40
2.5
  1
Ø
 50
90.00020741
  7
ARIAL
  0
TEXT
  5
61E
  8
TXT_DIM49
 10
324.74443775
 20
-170.05898766
 30
0.0
 40
2.5
  1
9
 50
90.00020741
  7
ARIAL
  0
LINE
  5
61F
  8
DIM49
 10
327.24443775
 20
-167.44160633
 30
0.0
 11
325.24443775
 21
-165.44160633
 31
0.0
  0
LINE
  5
620
  8
DIM49
 10
325.49443775
 20
-174.69160633
 30
0.0
 11
326.99443775
 21
-176.19160633
 31
0.0
  0
LINE
  5
621
  8
DIM49
 10
326.24443775
 20
-166.44160633
 30
0.0
 11
326.24443775
 21
-175.44160633
 31
0.0
  0
LINE
  5
622
  8
DIM49
 10
324.24443775
 20
-166.44160633
 30
0.0
 11
328.24443775
 21
-166.44160633
 31
0.0
  0
LINE
  5
623
  8
DIM49
 10
324.24443775
 20
-175.44160633
 30
0.0
 11
328.24443775
 21
-175.44160633
 31
0.0
  0
ENDBLK
  8
0
  0
BLOCK
  8
0
  2
_D41
 70
     0
 10
302.48256114
 20
-159.44160633
 30
0.0
  0
TEXT
  5
626
  8
TXT_DIM49
 10
302.48256114
 20
-159.44160633
 30
0.0
 40
2.5
  1
Ø
  7
ARIAL
  0
TEXT
  5
627
  8
TXT_DIM49
 10
306.16763403
 20
-159.44160633
 30
0.0
 40
2.5
  1
4
  7
ARIAL
  0
LINE
  5
628
  8
DIM49
 10
314.81498673
 20
-159.94160633
 30
0.0
 11
312.81498673
 21
-161.94160633
 31
0.0
  0
LINE
  5
629
  8
DIM49
 10
309.06498673
 20
-161.69160633
 30
0.0
 11
310.56498673
 21
-160.19160633
 31
0.0
  0
LINE
  5
62A
  8
DIM49
 10
319.81498673
 20
-160.94160633
 30
0.0
 11
301.48256066
 21
-160.94160633
 31
0.0
  0
LINE
  5
62B
  8
DIM49
 10
313.81498673
 20
-158.94160633
 30
0.0
 11
313.81498673
 21
-162.94160633
 31
0.0
  0
LINE
  5
62C
  8
DIM49
 10
309.81498673
 20
-158.94160633
 30
0.0
 11
309.81498673
 21
-162.94160633
 31
0.0
  0
ENDBLK
  8
0
  0
BLOCK
  8
0
  2
_ZBL0002_00001
 70
     0
 10
0.0
 20
0.0
 30
0.0
  0
INSERT
  5
1B8
  8
0
  2
DINA3_00002
 10
220.26100984
 20
-384.31157235
 30
0.0
  0
ENDBLK
  8
0
  0
BLOCK
  8
0
  2
DINA3_00002
 70
     0
 10
220.26100984
 20
-384.31157235
 30
0.0
  0
POLYLINE
  5
1BB
  8
0
 66
     1
 10
0.0
 20
0.0
 30
0.0
 70
     1
  0
VERTEX
  5
1BC
  8
0
 10
220.26100984
 20
-384.31157235
 30
0.0
  0
VERTEX
  5
1BD
  8
0
 10
640.26100984
 20
-384.31157235
 30
0.0
  0
VERTEX
  5
1BE
  8
0
 10
640.26100984
 20
-87.31157235
 30
0.0
  0
VERTEX
  5
1BF
  8
0
 10
220.26100984
 20
-87.31157235
 30
0.0
  0
SEQEND
  5
1C0
  8
0
  0
POLYLINE
  5
1C1
  8
0
 66
     1
 10
0.0
 20
0.0
 30
0.0
 70
     1
  0
VERTEX
  5
1C2
  8
0
 10
225.26100984
 20
-379.31157235
 30
0.0
  0
VERTEX
  5
1C3
  8
0
 10
635.26100984
 20
-379.31157235
 30
0.0
  0
VERTEX
  5
1C4
  8
0
 10
635.26100984
 20
-92.31157235
 30
0.0
  0
VERTEX
  5
1C5
  8
0
 10
225.26100984
 20
-92.31157235
 30
0.0
  0
SEQEND
  5
1C6
  8
0
  0
LINE
  5
1C7
  8
0
 10
450.26100984
 20
-379.31157235
 30
0.0
 11
450.26100984
 21
-384.31157235
 31
0.0
  0
LINE
  5
1C8
  8
0
 10
450.26100984
 20
-92.31157235
 30
0.0
 11
450.26100984
 21
-87.31157235
 31
0.0
  0
LINE
  5
1C9
  8
0
 10
240.26100984
 20
-379.31157235
 30
0.0
 11
240.26100984
 21
-384.31157235
 31
0.0
  0
LINE
  5
1CA
  8
0
 10
240.26100984
 20
-92.31157235
 30
0.0
 11
240.26100984
 21
-87.31157235
 31
0.0
  0
TEXT
  5
1CB
  8
TXT_ALL
 62
     4
 10
639.26100984
 20
-383.31157235
 30
0.0
 40
2.5
  1

 50
90.00020741
  0
POLYLINE
  5
1CC
  8
0
 66
     1
 10
0.0
 20
0.0
 30
0.0
  0
VERTEX
  5
1CD
  8
0
 10
635.26100984
 20
-102.31157235
 30
0.0
  0
VERTEX
  5
1CE
  8
0
 10
566.26770984
 20
-102.31157235
 30
0.0
  0
VERTEX
  5
1CF
  8
0
 10
566.26770984
 20
-92.31157235
 30
0.0
  0
SEQEND
  5
1D0
  8
0
  0
LINE
  5
1D1
  8
0
 10
568.17100984
 20
-359.81157235
 30
0.0
 11
428.28100984
 21
-359.81157235
 31
0.0
  0
LINE
  5
1D2
  8
0
 10
428.28100984
 20
-369.56157235
 30
0.0
 11
568.17100984
 21
-369.56157235
 31
0.0
  0
POLYLINE
  5
1D3
  8
0
 66
     1
 10
0.0
 20
0.0
 30
0.0
  0
VERTEX
  5
1D4
  8
0
 10
428.28100984
 20
-359.81157235
 30
0.0
  0
VERTEX
  5
1D5
  8
0
 10
428.28100984
 20
-369.56157235
 30
0.0
  0
VERTEX
  5
1D6
  8
0
 10
428.28100984
 20
-379.31157235
 30
0.0
  0
SEQEND
  5
1D7
  8
0
  0
POLYLINE
  5
1D8
  8
0
 66
     1
 10
0.0
 20
0.0
 30
0.0
  0
VERTEX
  5
1D9
  8
0
 10
498.22600984
 20
-359.81157235
 30
0.0
  0
VERTEX
  5
1DA
  8
0
 10
498.22600984
 20
-369.56157235
 30
0.0
  0
VERTEX
  5
1DB
  8
0
 10
498.22600984
 20
-379.31157235
 30
0.0
  0
SEQEND
  5
1DC
  8
0
  0
INSERT
  5
1DD
  8
0
  2
FLEX_00003
 10
430.28100984
 20
-364.68657235
 30
0.0
  0
INSERT
  5
1DE
  8
0
  2
FLEX_00005
 10
430.28100984
 20
-374.43657235
 30
0.0
  0
INSERT
  5
1DF
  8
0
  2
FLEX_00007
 10
500.22600984
 20
-374.43657235
 30
0.0
  0
INSERT
  5
1E0
  8
0
  2
FLEX_00009
 10
500.22600984
 20
-364.68657235
 30
0.0
  0
INSERT
  5
1E1
  8
0
  2
SCHRIFE_00011
 10
228.70297009
 20
-97.31157235
 30
0.0
  0
INSERT
  5
1E2
  8
0
  2
_B_M_P___00015
 10
617.10343592
 20
-384.20157235
 30
0.0
  0
ENDBLK
  8
0
  0
BLOCK
  8
0
  2
FLEX_00003
 70
     0
 10
430.28100984
 20
-364.68657235
 30
0.0
  0
INSERT
  5
1E5
  8
0
  2
TFIELD_00004
 10
430.28100984
 20
-364.68657235
 30
0.0
  0
ENDBLK
  8
0
  0
BLOCK
  8
0
  2
TFIELD_00004
 70
     0
 10
430.28100984
 20
-364.68657235
 30
0.0
  0
TEXT
  5
1E8
  8
TXT_ALL
 10
430.28100984
 20
-365.9865723
 30
0.0
 40
2.5999999
  1
E-mail: verkoop@jonkers-bouwmetaal.nl
  7
ARIAL
  0
ENDBLK
  8
0
  0
BLOCK
  8
0
  2
FLEX_00005
 70
     0
 10
430.28100984
 20
-374.43657235
 30
0.0
  0
INSERT
  5
1EB
  8
0
  2
TFIELD_00006
 10
430.28100984
 20
-374.43657235
 30
0.0
  0
ENDBLK
  8
0
  0
BLOCK
  8
0
  2
TFIELD_00006
 70
     0
 10
430.28100984
 20
-374.43657235
 30
0.0
  0
TEXT
  5
1EE
  8
TXT_ALL
 10
430.28100984
 20
-375.7365723
 30
0.0
 40
2.5999999
  1
Telefoon: 0527-685156
  7
ARIAL
  0
ENDBLK
  8
0
  0
BLOCK
  8
0
  2
FLEX_00007
 70
     0
 10
500.22600984
 20
-374.43657235
 30
0.0
  0
INSERT
  5
1F1
  8
0
  2
TFIELD_00008
 10
500.22600984
 20
-374.43657235
 30
0.0
  0
ENDBLK
  8
0
  0
BLOCK
  8
0
  2
TFIELD_00008
 70
     0
 10
500.22600984
 20
-374.43657235
 30
0.0
  0
TEXT
  5
1F4
  8
TXT_ALL
 10
500.22600984
 20
-375.7365723
 30
0.0
 40
2.5999999
  1
Website: www.jonkers-bouwmetaal.nl
  7
ARIAL
  0
ENDBLK
  8
0
  0
BLOCK
  8
0
  2
FLEX_00009
 70
     0
 10
500.22600984
 20
-364.68657235
 30
0.0
  0
INSERT
  5
1F7
  8
0
  2
TFIELD_00010
 10
500.22600984
 20
-364.68657235
 30
0.0
  0
ENDBLK
  8
0
  0
BLOCK
  8
0
  2
TFIELD_00010
 70
     0
 10
500.22600984
 20
-364.68657235
 30
0.0
  0
TEXT
  5
1FA
  8
TXT_ALL
 10
500.22600984
 20
-365.9865723
 30
0.0
 40
2.5999999
  1
Adres: Hoornse Hop 10, 8321 WX Urk
  7
ARIAL
  0
ENDBLK
  8
0
  0
BLOCK
  8
0
  2
SCHRIFE_00011
 70
     0
 10
228.70297009
 20
-97.31157235
 30
0.0
  0
TEXT
  5
1FD
  8
TXT_ALL
 10
228.70297009
 20
-98.56157235
 30
0.0
 40
2.5
  1
Art. nr. 91017440
  7
ARIAL
  0
TEXT
  5
1FE
  8
TXT_ALL
 10
271.44100691
 20
-98.56157235
 30
0.0
 40
2.5
  1
Omschrijving: SVH04-anker z. ril 50x50 60x2.5
  7
ARIAL
  0
LINE
  5
1FF
  8
0
 10
635.26100984
 20
-102.31157235
 30
0.0
 11
225.26100984
 21
-102.31157235
 31
0.0
  0
LINE
  5
200
  8
0
 10
268.28100984
 20
-102.31157235
 30
0.0
 11
268.28100984
 21
-92.31157235
 31
0.0
  0
LINE
  5
201
  8
0
 10
428.28100984
 20
-102.31157235
 30
0.0
 11
428.28100984
 21
-92.31157235
 31
0.0
  0
TEXT
  5
202
  8
TXT_ALL
 10
499.27470984
 20
-98.56157235
 30
0.0
 40
2.5
  1
Behandeling: Sendzimir verzinkt
  7
ARIAL
  0
LINE
  5
203
  8
0
 10
568.17100984
 20
-359.81157235
 30
0.0
 11
635.26100984
 21
-359.81157235
 31
0.0
  0
LINE
  5
204
  8
0
 10
568.17100984
 20
-379.31157235
 30
0.0
 11
568.17100984
 21
-359.81157235
 31
0.0
  0
LINE
  5
205
  8
0
 10
568.17100984
 20
-379.31157235
 30
0.0
 11
568.17100984
 21
-359.81157235
 31
0.0
  0
TEXT
  5
206
  8
TXT_ALL
 10
362.62620793
 20
-378.15703894
 30
0.0
 40
2.5
  1

  0
TEXT
  5
207
  8
TXT_ALL
 10
483.7613909
 20
-368.06157235
 30
0.0
 40
2.5
  1

  0
POLYLINE
  5
208
  8
0
 66
     1
 10
0.0
 20
0.0
 30
0.0
  0
VERTEX
  5
209
  8
0
 10
566.26770984
 20
-102.31157235
 30
0.0
  0
VERTEX
  5
20A
  8
0
 10
497.27470984
 20
-102.31157235
 30
0.0
  0
VERTEX
  5
20B
  8
0
 10
497.27470984
 20
-92.31157235
 30
0.0
  0
SEQEND
  5
20C
  8
0
  0
TEXT
  5
20D
  8
TXT_ALL
 10
568.26770984
 20
-98.56157235
 30
0.0
 40
2.5
  1
Verpakkingshoeveelheid: 100 st.
  7
ARIAL
  0
TEXT
  5
20E
  8
TXT_ALL
 10
430.28100984
 20
-98.56157235
 30
0.0
 40
2.5
  1
Materiaal: S350
  7
ARIAL
  0
INSERT
  5
20F
  8
0
  2
FLEX_00012
 10
609.83624526
 20
-383.3110822
 30
0.0
  0
INSERT
  5
210
  8
0
  2
_B_M_P___00014
 10
568.93037716
 20
-378.51889029
 30
0.0
  0
ENDBLK
  8
0
  0
BLOCK
  8
0
  2
FLEX_00012
 70
     0
 10
609.83624526
 20
-383.3110822
 30
0.0
  0
INSERT
  5
213
  8
0
  2
TFIELD_00013
 10
603.04265707
 20
-381.8110822
 30
0.0
  0
ENDBLK
  8
0
  0
BLOCK
  8
0
  2
TFIELD_00013
 70
     0
 10
603.04265707
 20
-381.8110822
 30
0.0
  0
TEXT
  5
216
  8
TXT_ALL
 10
603.04265707
 20
-382.5610822
 30
0.0
 40
1.5
  1
Onderdeel van
  7
ARIAL
  0
ENDBLK
  8
0
  0
BLOCK
  8
0
  2
_B_M_P___00014
 70
     0
 10
568.93037716
 20
-378.51889029
 30
0.0
  0
ENDBLK
  8
0
  0
BLOCK
  8
0
  2
_B_M_P___00015
 70
     0
 10
617.10343592
 20
-384.20157235
 30
0.0
  0
ENDBLK
  8
0
  0
BLOCK
  8
0
  2
_ANS0003_00016
 70
     0
 10
0.0
 20
0.0
 30
0.0
  0
INSERT
  5
21D
  8
0
  2
_A3D0003_00017
 10
0.0
 20
0.0
 30
0.0
  0
ENDBLK
  8
0
  0
BLOCK
  8
0
  2
_A3D0003_00017
 70
     0
 10
0.0
 20
0.0
 30
0.0
  0
INSERT
  5
220
  8
0
  2
PLAATWERK__D___2_5MM_00018
 10
0.0
 20
0.0
 30
0.0
  0
ENDBLK
  8
0
  0
BLOCK
  8
0
  2
PLAATWERK__D___2_5MM_00018
 70
     0
 10
0.0
 20
0.0
 30
0.0
  0
INSERT
  5
223
  8
0
  2
SHEET_FLANGE_00019
 10
0.0
 20
0.0
 30
0.0
  0
INSERT
  5
224
  8
0
  2
BEND_ZONE_00023
 10
0.0
 20
0.0
 30
0.0
  0
INSERT
  5
225
  8
0
  2
SHEET_FLANGE_00025
 10
0.0
 20
0.0
 30
0.0
  0
ENDBLK
  8
0
  0
BLOCK
  8
0
  2
SHEET_FLANGE_00019
 70
     0
 10
0.0
 20
0.0
 30
0.0
  0
INSERT
  5
228
  8
0
  2
SHEET_FLANGE_00020
 10
274.81498673
 20
-296.6546271
 30
0.0
  0
INSERT
  5
229
  8
0
  2
_00021
 10
0.0
 20
0.0
 30
0.0
  0
ENDBLK
  8
0
  0
BLOCK
  8
0
  2
SHEET_FLANGE_00020
 70
     0
 10
274.81498673
 20
-296.6546271
 30
0.0
  0
LINE
  5
22C
  8
LE_ALL
  6
DOT
 62
     3
 10
274.81498673
 20
-296.6546271
 30
0.0
 11
274.81498673
 21
-296.6546271
 31
0.0
  0
LINE
  5
22D
  8
LE_ALL
  6
DOT
 62
     3
 10
274.81498673
 20
-294.1546271
 30
0.0
 11
274.81498673
 21
-294.1546271
 31
0.0
  0
LINE
  5
22E
  8
LE_ALL
  6
DOT
 62
     3
 10
319.81498673
 20
-296.6546271
 30
0.0
 11
319.81498673
 21
-296.6546271
 31
0.0
  0
LINE
  5
22F
  8
LE_ALL
  6
DOT
 62
     3
 10
319.81498673
 20
-294.1546271
 30
0.0
 11
319.81498673
 21
-294.1546271
 31
0.0
  0
LINE
  5
230
  8
LE_ALL
  6
DOT
 62
     3
 10
308.31498673
 20
-296.6546271
 30
0.0
 11
308.31498673
 21
-294.1546271
 31
0.0
  0
LINE
  5
231
  8
LE_ALL
  6
DOT
 62
     3
 10
287.31498673
 20
-296.6546271
 30
0.0
 11
287.31498673
 21
-294.1546271
 31
0.0
  0
LINE
  5
232
  8
LE_ALL
  6
DOT
 62
     3
 10
281.81498673
 20
-294.1546271
 30
0.0
 11
281.81498673
 21
-296.6546271
 31
0.0
  0
LINE
  5
233
  8
LE_ALL
  6
DOT
 62
     3
 10
285.81498673
 20
-294.1546271
 30
0.0
 11
285.81498673
 21
-296.6546271
 31
0.0
  0
LINE
  5
234
  8
LE_ALL
  6
DOT
 62
     3
 10
294.81498673
 20
-294.1546271
 30
0.0
 11
294.81498673
 21
-296.6546271
 31
0.0
  0
LINE
  5
235
  8
LE_ALL
  6
DOT
 62
     3
 10
298.81498673
 20
-294.1546271
 30
0.0
 11
298.81498673
 21
-296.6546271
 31
0.0
  0
LINE
  5
236
  8
LE_ALL
  6
DOT
 62
     3
 10
309.81498673
 20
-294.1546271
 30
0.0
 11
309.81498673
 21
-296.6546271
 31
0.0
  0
LINE
  5
237
  8
LE_ALL
  6
DOT
 62
     3
 10
313.81498673
 20
-294.1546271
 30
0.0
 11
313.81498673
 21
-296.6546271
 31
0.0
  0
LINE
  5
238
  8
LE_ALL
  6
DOT
 62
     3
 10
282.81498673
 20
-296.6546271
 30
0.0
 11
282.81498673
 21
-294.1546271
 31
0.0
  0
LINE
  5
239
  8
LE_ALL
  6
DOT
 62
     3
 10
312.81498673
 20
-296.6546271
 30
0.0
 11
312.81498673
 21
-294.1546271
 31
0.0
  0
LINE
  5
23A
  8
LE_ALL
 10
314.41498673
 20
-294.1546271
 30
0.0
 11
274.81498673
 21
-294.1546271
 31
0.0
  0
LINE
  5
23B
  8
LE_ALL
 10
274.81498673
 20
-296.6546271
 30
0.0
 11
314.41498673
 21
-296.6546271
 31
0.0
  0
LINE
  5
23C
  8
LE_ALL
 10
314.41498673
 20
-294.1546271
 30
0.0
 11
314.41498673
 21
-296.6546271
 31
0.0
  0
POLYLINE
  5
23D
  8
LE_ALL
 66
     1
 10
0.0
 20
0.0
 30
0.0
  0
VERTEX
  5
23E
  8
LE_ALL
 10
314.41498673
 20
-294.1546271
 30
0.0
  0
VERTEX
  5
23F
  8
LE_ALL
 10
319.81498673
 20
-294.1546271
 30
0.0
  0
VERTEX
  5
240
  8
LE_ALL
 10
319.81498673
 20
-296.6546271
 30
0.0
  0
VERTEX
  5
241
  8
LE_ALL
 10
314.41498673
 20
-296.6546271
 30
0.0
  0
SEQEND
  5
242
  8
LE_ALL
  0
ENDBLK
  8
0
  0
BLOCK
  8
0
  2
_00021
 70
     0
 10
0.0
 20
0.0
 30
0.0
  0
INSERT
  5
245
  8
0
  2
_00022
 10
283.81498673
 20
-293.1546271
 30
0.0
  0
ENDBLK
  8
0
  0
BLOCK
  8
0
  2
_00022
 70
     0
 10
283.81498673
 20
-293.1546271
 30
0.0
  0
LINE
  5
248
  8
LE_ALL
  6
STRICHPUNKT2
 62
     1
 10
283.81498673
 20
-293.1546271
 30
0.0
 11
283.81498673
 21
-297.6546271
 31
0.0
  0
LINE
  5
249
  8
LE_ALL
  6
STRICHPUNKT2
 62
     1
 10
283.81498673
 20
-293.1546271
 30
0.0
 11
283.81498673
 21
-297.6546271
 31
0.0
  0
LINE
  5
24A
  8
LE_ALL
  6
STRICHPUNKT2
 62
     1
 10
296.81498673
 20
-293.1546271
 30
0.0
 11
296.81498673
 21
-297.6546271
 31
0.0
  0
LINE
  5
24B
  8
LE_ALL
  6
STRICHPUNKT2
 62
     1
 10
311.81498673
 20
-293.1546271
 30
0.0
 11
311.81498673
 21
-297.6546271
 31
0.0
  0
LINE
  5
24C
  8
LE_ALL
  6
STRICHPUNKT2
 62
     1
 10
296.81498673
 20
-293.1546271
 30
0.0
 11
296.81498673
 21
-297.6546271
 31
0.0
  0
LINE
  5
24D
  8
LE_ALL
  6
STRICHPUNKT2
 62
     1
 10
311.81498673
 20
-293.1546271
 30
0.0
 11
311.81498673
 21
-297.6546271
 31
0.0
  0
LINE
  5
24E
  8
LE_ALL
  6
STRICHPUNKT2
 62
     1
 10
287.31498673
 20
-291.9046271
 30
0.0
 11
287.31498673
 21
-298.9046271
 31
0.0
  0
LINE
  5
24F
  8
LE_ALL
  6
STRICHPUNKT2
 62
     1
 10
308.31498673
 20
-291.9046271
 30
0.0
 11
308.31498673
 21
-298.9046271
 31
0.0
  0
ENDBLK
  8
0
  0
BLOCK
  8
0
  2
BEND_ZONE_00023
 70
     0
 10
0.0
 20
0.0
 30
0.0
  0
INSERT
  5
252
  8
0
  2
BEND_ZONE_00024
 10
269.81498673
 20
-291.6546271
 30
0.0
  0
ENDBLK
  8
0
  0
BLOCK
  8
0
  2
BEND_ZONE_00024
 70
     0
 10
269.81498673
 20
-291.6546271
 30
0.0
  0
LINE
  5
255
  8
LE_ALL
  6
DOT
 62
     3
 10
269.81498673
 20
-291.6546271
 30
0.0
 11
269.81498673
 21
-291.6546271
 31
0.0
  0
LINE
  5
256
  8
LE_ALL
  6
DOT
 62
     3
 10
272.31498673
 20
-291.6546271
 30
0.0
 11
272.31498673
 21
-291.6546271
 31
0.0
  0
LINE
  5
257
  8
LE_ALL
  6
DOT
 62
     3
 10
274.81498673
 20
-296.6546271
 30
0.0
 11
274.81498673
 21
-296.6546271
 31
0.0
  0
LINE
  5
258
  8
LE_ALL
  6
DOT
 62
     3
 10
274.81498673
 20
-294.1546271
 30
0.0
 11
274.81498673
 21
-294.1546271
 31
0.0
  0
ARC
  5
259
  8
LE_ALL
 10
274.81498673
 20
-291.6546271
 30
0.0
 40
5.0
 50
180.0
 51
-90.0
  0
ARC
  5
25A
  8
LE_ALL
 10
274.81498673
 20
-291.6546271
 30
0.0
 40
2.5
 50
180.0
 51
-90.0
  0
ENDBLK
  8
0
  0
BLOCK
  8
0
  2
SHEET_FLANGE_00025
 70
     0
 10
0.0
 20
0.0
 30
0.0
  0
INSERT
  5
25D
  8
0
  2
SHEET_FLANGE_00026
 10
269.81498673
 20
-291.6546271
 30
0.0
  0
INSERT
  5
25E
  8
0
  2
_00027
 10
0.0
 20
0.0
 30
0.0
  0
ENDBLK
  8
0
  0
BLOCK
  8
0
  2
SHEET_FLANGE_00026
 70
     0
 10
269.81498673
 20
-291.6546271
 30
0.0
  0
LINE
  5
261
  8
LE_ALL
  6
DOT
 62
     3
 10
269.81498673
 20
-291.6546271
 30
0.0
 11
269.81498673
 21
-291.6546271
 31
0.0
  0
LINE
  5
262
  8
LE_ALL
  6
DOT
 62
     3
 10
272.31498673
 20
-291.6546271
 30
0.0
 11
272.31498673
 21
-291.6546271
 31
0.0
  0
LINE
  5
263
  8
LE_ALL
  6
DOT
 62
     3
 10
269.81498673
 20
-246.6546271
 30
0.0
 11
269.81498673
 21
-246.6546271
 31
0.0
  0
LINE
  5
264
  8
LE_ALL
  6
DOT
 62
     3
 10
272.31498673
 20
-246.6546271
 30
0.0
 11
272.31498673
 21
-246.6546271
 31
0.0
  0
LINE
  5
265
  8
LE_ALL
  6
DOT
 62
     3
 10
269.81498673
 20
-277.6546271
 30
0.0
 11
272.31498673
 21
-277.6546271
 31
0.0
  0
LINE
  5
266
  8
LE_ALL
  6
DOT
 62
     3
 10
269.81498673
 20
-259.6546271
 30
0.0
 11
272.31498673
 21
-259.6546271
 31
0.0
  0
LINE
  5
267
  8
LE_ALL
  6
DOT
 62
     3
 10
272.31498673
 20
-280.6546271
 30
0.0
 11
269.81498673
 21
-280.6546271
 31
0.0
  0
LINE
  5
268
  8
LE_ALL
  6
DOT
 62
     3
 10
272.31498673
 20
-284.6546271
 30
0.0
 11
269.81498673
 21
-284.6546271
 31
0.0
  0
LINE
  5
269
  8
LE_ALL
  6
DOT
 62
     3
 10
272.31498673
 20
-267.6546271
 30
0.0
 11
269.81498673
 21
-267.6546271
 31
0.0
  0
LINE
  5
26A
  8
LE_ALL
  6
DOT
 62
     3
 10
272.31498673
 20
-271.6546271
 30
0.0
 11
269.81498673
 21
-271.6546271
 31
0.0
  0
LINE
  5
26B
  8
LE_ALL
  6
DOT
 62
     3
 10
272.31498673
 20
-252.6546271
 30
0.0
 11
269.81498673
 21
-252.6546271
 31
0.0
  0
LINE
  5
26C
  8
LE_ALL
  6
DOT
 62
     3
 10
272.31498673
 20
-256.6546271
 30
0.0
 11
269.81498673
 21
-256.6546271
 31
0.0
  0
LINE
  5
26D
  8
LE_ALL
  6
DOT
 62
     3
 10
269.81498673
 20
-253.6546271
 30
0.0
 11
272.31498673
 21
-253.6546271
 31
0.0
  0
LINE
  5
26E
  8
LE_ALL
  6
DOT
 62
     3
 10
269.81498673
 20
-283.6546271
 30
0.0
 11
272.31498673
 21
-283.6546271
 31
0.0
  0
LINE
  5
26F
  8
LE_ALL
 10
269.81498673
 20
-291.6546271
 30
0.0
 11
269.81498673
 21
-252.0546271
 31
0.0
  0
LINE
  5
270
  8
LE_ALL
 10
272.31498673
 20
-252.0546271
 30
0.0
 11
269.81498673
 21
-252.0546271
 31
0.0
  0
LINE
  5
271
  8
LE_ALL
 10
272.31498673
 20
-252.0546271
 30
0.0
 11
272.31498673
 21
-291.6546271
 31
0.0
  0
LINE
  5
272
  8
LE_ALL
 10
272.31498673
 20
-246.6546271
 30
0.0
 11
272.31498673
 21
-252.0546271
 31
0.0
  0
LINE
  5
273
  8
LE_ALL
 10
272.31498673
 20
-246.6546271
 30
0.0
 11
269.81498673
 21
-246.6546271
 31
0.0
  0
LINE
  5
274
  8
LE_ALL
 10
269.81498673
 20
-252.0546271
 30
0.0
 11
269.81498673
 21
-246.6546271
 31
0.0
  0
ENDBLK
  8
0
  0
BLOCK
  8
0
  2
_00027
 70
     0
 10
0.0
 20
0.0
 30
0.0
  0
INSERT
  5
277
  8
0
  2
_00028
 10
273.31498673
 20
-282.6546271
 30
0.0
  0
ENDBLK
  8
0
  0
BLOCK
  8
0
  2
_00028
 70
     0
 10
273.31498673
 20
-282.6546271
 30
0.0
  0
LINE
  5
27A
  8
LE_ALL
  6
STRICHPUNKT2
 62
     1
 10
273.31498673
 20
-282.6546271
 30
0.0
 11
268.81498673
 21
-282.6546271
 31
0.0
  0
LINE
  5
27B
  8
LE_ALL
  6
STRICHPUNKT2
 62
     1
 10
273.31498673
 20
-254.6546271
 30
0.0
 11
268.81498673
 21
-254.6546271
 31
0.0
  0
LINE
  5
27C
  8
LE_ALL
  6
STRICHPUNKT2
 62
     1
 10
273.31498673
 20
-269.6546271
 30
0.0
 11
268.81498673
 21
-269.6546271
 31
0.0
  0
LINE
  5
27D
  8
LE_ALL
  6
STRICHPUNKT2
 62
     1
 10
273.31498673
 20
-254.6546271
 30
0.0
 11
268.81498673
 21
-254.6546271
 31
0.0
  0
LINE
  5
27E
  8
LE_ALL
  6
STRICHPUNKT2
 62
     1
 10
273.31498673
 20
-269.6546271
 30
0.0
 11
268.81498673
 21
-269.6546271
 31
0.0
  0
LINE
  5
27F
  8
LE_ALL
  6
STRICHPUNKT2
 62
     1
 10
273.31498673
 20
-282.6546271
 30
0.0
 11
268.81498673
 21
-282.6546271
 31
0.0
  0
LINE
  5
280
  8
LE_ALL
  6
STRICHPUNKT2
 62
     1
 10
275.31498673
 20
-277.6546271
 30
0.0
 11
266.81498673
 21
-277.6546271
 31
0.0
  0
LINE
  5
281
  8
LE_ALL
  6
STRICHPUNKT2
 62
     1
 10
275.31498673
 20
-259.6546271
 30
0.0
 11
266.81498673
 21
-259.6546271
 31
0.0
  0
ENDBLK
  8
0
  0
BLOCK
  8
0
  2
_ANS0004_00029
 70
     0
 10
0.0
 20
0.0
 30
0.0
  0
INSERT
  5
284
  8
0
  2
_A3D0004_00030
 10
0.0
 20
0.0
 30
0.0
  0
ENDBLK
  8
0
  0
BLOCK
  8
0
  2
_A3D0004_00030
 70
     0
 10
0.0
 20
0.0
 30
0.0
  0
INSERT
  5
287
  8
0
  2
PLAATWERK__D___2_5MM_00031
 10
0.0
 20
0.0
 30
0.0
  0
ENDBLK
  8
0
  0
BLOCK
  8
0
  2
PLAATWERK__D___2_5MM_00031
 70
     0
 10
0.0
 20
0.0
 30
0.0
  0
INSERT
  5
28A
  8
0
  2
SHEET_FLANGE_00032
 10
0.0
 20
0.0
 30
0.0
  0
INSERT
  5
28B
  8
0
  2
BEND_ZONE_00036
 10
0.0
 20
0.0
 30
0.0
  0
INSERT
  5
28C
  8
0
  2
SHEET_FLANGE_00038
 10
0.0
 20
0.0
 30
0.0
  0
ENDBLK
  8
0
  0
BLOCK
  8
0
  2
SHEET_FLANGE_00032
 70
     0
 10
0.0
 20
0.0
 30
0.0
  0
INSERT
  5
28F
  8
0
  2
SHEET_FLANGE_00033
 10
437.84632412
 20
-296.6546271
 30
0.0
  0
INSERT
  5
290
  8
0
  2
_00034
 10
0.0
 20
0.0
 30
0.0
  0
ENDBLK
  8
0
  0
BLOCK
  8
0
  2
SHEET_FLANGE_00033
 70
     0
 10
437.84632412
 20
-296.6546271
 30
0.0
  0
LINE
  5
293
  8
LE_ALL
  6
DOT
 62
     3
 10
437.84632412
 20
-296.6546271
 30
0.0
 11
437.84632412
 21
-296.6546271
 31
0.0
  0
LINE
  5
294
  8
LE_ALL
  6
DOT
 62
     3
 10
437.84632412
 20
-294.1546271
 30
0.0
 11
437.84632412
 21
-294.1546271
 31
0.0
  0
LINE
  5
295
  8
LE_ALL
  6
DOT
 62
     3
 10
377.84632412
 20
-296.6546271
 30
0.0
 11
377.84632412
 21
-296.6546271
 31
0.0
  0
LINE
  5
296
  8
LE_ALL
  6
DOT
 62
     3
 10
403.34632412
 20
-296.6546271
 30
0.0
 11
403.34632412
 21
-296.6546271
 31
0.0
  0
LINE
  5
297
  8
LE_ALL
  6
DOT
 62
     3
 10
412.34632412
 20
-296.6546271
 30
0.0
 11
412.34632412
 21
-296.6546271
 31
0.0
  0
LINE
  5
298
  8
LE_ALL
  6
DOT
 62
     3
 10
377.84632412
 20
-294.1546271
 30
0.0
 11
377.84632412
 21
-294.1546271
 31
0.0
  0
LINE
  5
299
  8
LE_ALL
  6
DOT
 62
     3
 10
412.34632412
 20
-294.1546271
 30
0.0
 11
412.34632412
 21
-294.1546271
 31
0.0
  0
LINE
  5
29A
  8
LE_ALL
  6
DOT
 62
     3
 10
403.34632412
 20
-294.1546271
 30
0.0
 11
403.34632412
 21
-294.1546271
 31
0.0
  0
LINE
  5
29B
  8
LE_ALL
  6
DOT
 62
     3
 10
412.34632412
 20
-296.6546271
 30
0.0
 11
412.34632412
 21
-294.1546271
 31
0.0
  0
LINE
  5
29C
  8
LE_ALL
  6
DOT
 62
     3
 10
403.34632412
 20
-296.6546271
 30
0.0
 11
403.34632412
 21
-294.1546271
 31
0.0
  0
LINE
  5
29D
  8
LE_ALL
  6
DOT
 62
     3
 10
390.84632412
 20
-294.1546271
 30
0.0
 11
390.84632412
 21
-296.6546271
 31
0.0
  0
LINE
  5
29E
  8
LE_ALL
  6
DOT
 62
     3
 10
394.84632412
 20
-294.1546271
 30
0.0
 11
394.84632412
 21
-296.6546271
 31
0.0
  0
LINE
  5
29F
  8
LE_ALL
  6
DOT
 62
     3
 10
385.84632412
 20
-294.1546271
 30
0.0
 11
385.84632412
 21
-296.6546271
 31
0.0
  0
LINE
  5
2A0
  8
LE_ALL
  6
DOT
 62
     3
 10
389.84632412
 20
-294.1546271
 30
0.0
 11
389.84632412
 21
-296.6546271
 31
0.0
  0
LINE
  5
2A1
  8
LE_ALL
  6
DOT
 62
     3
 10
420.84632412
 20
-294.1546271
 30
0.0
 11
420.84632412
 21
-296.6546271
 31
0.0
  0
LINE
  5
2A2
  8
LE_ALL
  6
DOT
 62
     3
 10
424.84632412
 20
-294.1546271
 30
0.0
 11
424.84632412
 21
-296.6546271
 31
0.0
  0
LINE
  5
2A3
  8
LE_ALL
  6
DOT
 62
     3
 10
425.84632412
 20
-294.1546271
 30
0.0
 11
425.84632412
 21
-296.6546271
 31
0.0
  0
LINE
  5
2A4
  8
LE_ALL
  6
DOT
 62
     3
 10
429.84632412
 20
-294.1546271
 30
0.0
 11
429.84632412
 21
-296.6546271
 31
0.0
  0
LINE
  5
2A5
  8
LE_ALL
 10
383.24632412
 20
-296.6546271
 30
0.0
 11
432.44632412
 21
-296.6546271
 31
0.0
  0
LINE
  5
2A6
  8
LE_ALL
 10
432.44632412
 20
-294.1546271
 30
0.0
 11
432.44632412
 21
-296.6546271
 31
0.0
  0
POLYLINE
  5
2A7
  8
LE_ALL
 66
     1
 10
0.0
 20
0.0
 30
0.0
  0
VERTEX
  5
2A8
  8
LE_ALL
 10
432.44632412
 20
-294.1546271
 30
0.0
  0
VERTEX
  5
2A9
  8
LE_ALL
 10
383.24632412
 20
-294.1546271
 30
0.0
  0
VERTEX
  5
2AA
  8
LE_ALL
 10
383.24632412
 20
-296.6546271
 30
0.0
  0
VERTEX
  5
2AB
  8
LE_ALL
 10
377.84632412
 20
-296.6546271
 30
0.0
  0
SEQEND
  5
2AC
  8
LE_ALL
  0
LINE
  5
2AD
  8
LE_ALL
 10
377.84632412
 20
-294.1546271
 30
0.0
 11
377.84632412
 21
-296.6546271
 31
0.0
  0
LINE
  5
2AE
  8
LE_ALL
 10
377.84632412
 20
-294.1546271
 30
0.0
 11
383.24632412
 21
-294.1546271
 31
0.0
  0
POLYLINE
  5
2AF
  8
LE_ALL
 66
     1
 10
0.0
 20
0.0
 30
0.0
  0
VERTEX
  5
2B0
  8
LE_ALL
 10
432.44632412
 20
-294.1546271
 30
0.0
  0
VERTEX
  5
2B1
  8
LE_ALL
 10
437.84632412
 20
-294.1546271
 30
0.0
  0
VERTEX
  5
2B2
  8
LE_ALL
 10
437.84632412
 20
-296.6546271
 30
0.0
  0
VERTEX
  5
2B3
  8
LE_ALL
 10
432.44632412
 20
-296.6546271
 30
0.0
  0
SEQEND
  5
2B4
  8
LE_ALL
  0
ENDBLK
  8
0
  0
BLOCK
  8
0
  2
_00034
 70
     0
 10
0.0
 20
0.0
 30
0.0
  0
INSERT
  5
2B7
  8
0
  2
_00035
 10
387.84632412
 20
-293.1546271
 30
0.0
  0
ENDBLK
  8
0
  0
BLOCK
  8
0
  2
_00035
 70
     0
 10
387.84632412
 20
-293.1546271
 30
0.0
  0
LINE
  5
2BA
  8
LE_ALL
  6
STRICHPUNKT2
 62
     1
 10
387.84632412
 20
-293.1546271
 30
0.0
 11
387.84632412
 21
-297.6546271
 31
0.0
  0
LINE
  5
2BB
  8
LE_ALL
  6
STRICHPUNKT2
 62
     1
 10
422.84632412
 20
-293.1546271
 30
0.0
 11
422.84632412
 21
-297.6546271
 31
0.0
  0
LINE
  5
2BC
  8
LE_ALL
  6
STRICHPUNKT2
 62
     1
 10
407.84632412
 20
-291.9046271
 30
0.0
 11
407.84632412
 21
-298.9046271
 31
0.0
  0
LINE
  5
2BD
  8
LE_ALL
  6
STRICHPUNKT2
 62
     1
 10
407.84632412
 20
-291.9046271
 30
0.0
 11
407.84632412
 21
-298.9046271
 31
0.0
  0
LINE
  5
2BE
  8
LE_ALL
  6
STRICHPUNKT2
 62
     1
 10
427.84632412
 20
-293.1546271
 30
0.0
 11
427.84632412
 21
-297.6546271
 31
0.0
  0
LINE
  5
2BF
  8
LE_ALL
  6
STRICHPUNKT2
 62
     1
 10
427.84632412
 20
-293.1546271
 30
0.0
 11
427.84632412
 21
-297.6546271
 31
0.0
  0
LINE
  5
2C0
  8
LE_ALL
  6
STRICHPUNKT2
 62
     1
 10
392.84632412
 20
-293.1546271
 30
0.0
 11
392.84632412
 21
-297.6546271
 31
0.0
  0
LINE
  5
2C1
  8
LE_ALL
  6
STRICHPUNKT2
 62
     1
 10
387.84632412
 20
-293.1546271
 30
0.0
 11
387.84632412
 21
-297.6546271
 31
0.0
  0
ENDBLK
  8
0
  0
BLOCK
  8
0
  2
BEND_ZONE_00036
 70
     0
 10
0.0
 20
0.0
 30
0.0
  0
INSERT
  5
2C4
  8
0
  2
BEND_ZONE_00037
 10
377.84632412
 20
-294.1546271
 30
0.0
  0
ENDBLK
  8
0
  0
BLOCK
  8
0
  2
BEND_ZONE_00037
 70
     0
 10
377.84632412
 20
-294.1546271
 30
0.0
  0
LINE
  5
2C7
  8
LE_ALL
  6
DOT
 62
     3
 10
377.84632412
 20
-294.1546271
 30
0.0
 11
437.84632412
 21
-294.1546271
 31
0.0
  0
LINE
  5
2C8
  8
LE_ALL
 10
377.84632412
 20
-291.6546271
 30
0.0
 11
377.84632412
 21
-294.1546271
 31
0.0
  0
LINE
  5
2C9
  8
LE_ALL
 10
377.84632412
 20
-291.6546271
 30
0.0
 11
437.84632412
 21
-291.6546271
 31
0.0
  0
LINE
  5
2CA
  8
LE_ALL
 10
437.84632412
 20
-294.1546271
 30
0.0
 11
437.84632412
 21
-291.6546271
 31
0.0
  0
ENDBLK
  8
0
  0
BLOCK
  8
0
  2
SHEET_FLANGE_00038
 70
     0
 10
0.0
 20
0.0
 30
0.0
  0
INSERT
  5
2CD
  8
0
  2
SHEET_FLANGE_00039
 10
377.84632412
 20
-252.0546271
 30
0.0
  0
INSERT
  5
2CE
  8
0
  2
_00040
 10
0.0
 20
0.0
 30
0.0
  0
ENDBLK
  8
0
  0
BLOCK
  8
0
  2
SHEET_FLANGE_00039
 70
     0
 10
377.84632412
 20
-252.0546271
 30
0.0
  0
LINE
  5
2D1
  8
LE_ALL
  6
DOT
 62
     3
 10
377.84632412
 20
-252.0546271
 30
0.0
 11
377.84632412
 21
-252.0546271
 31
0.0
  0
LINE
  5
2D2
  8
LE_ALL
  6
DOT
 62
     3
 10
432.44632412
 20
-246.6546271
 30
0.0
 11
432.44632412
 21
-246.6546271
 31
0.0
  0
LINE
  5
2D3
  8
LE_ALL
  6
DOT
 62
     3
 10
383.24632412
 20
-246.6546271
 30
0.0
 11
383.24632412
 21
-246.6546271
 31
0.0
  0
LINE
  5
2D4
  8
LE_ALL
  6
DOT
 62
     3
 10
437.84632412
 20
-252.0546271
 30
0.0
 11
437.84632412
 21
-252.0546271
 31
0.0
  0
LINE
  5
2D5
  8
LE_ALL
  6
DOT
 62
     3
 10
401.84632412
 20
-277.6546271
 30
0.0
 11
401.84632412
 21
-277.6546271
 31
0.0
  0
LINE
  5
2D6
  8
LE_ALL
  6
DOT
 62
     3
 10
413.84632412
 20
-277.6546271
 30
0.0
 11
413.84632412
 21
-277.6546271
 31
0.0
  0
LINE
  5
2D7
  8
LE_ALL
  6
DOT
 62
     3
 10
401.84632412
 20
-259.6546271
 30
0.0
 11
401.84632412
 21
-259.6546271
 31
0.0
  0
LINE
  5
2D8
  8
LE_ALL
  6
DOT
 62
     3
 10
413.84632412
 20
-259.6546271
 30
0.0
 11
413.84632412
 21
-259.6546271
 31
0.0
  0
POLYLINE
  5
2D9
  8
LE_ALL
 66
     1
 10
0.0
 20
0.0
 30
0.0
 70
     1
  0
VERTEX
  5
2DA
  8
LE_ALL
 10
413.84632412
 20
-277.6546271
 30
0.0
 42
-1.0
  0
VERTEX
  5
2DB
  8
LE_ALL
 10
401.84632412
 20
-277.6546271
 30
0.0
  0
VERTEX
  5
2DC
  8
LE_ALL
 10
401.84632412
 20
-259.6546271
 30
0.0
 42
-1.0
  0
VERTEX
  5
2DD
  8
LE_ALL
 10
413.84632412
 20
-259.6546271
 30
0.0
  0
SEQEND
  5
2DE
  8
LE_ALL
  0
CIRCLE
  5
2DF
  8
LE_ALL
 10
422.84632412
 20
-269.6546271
 30
0.0
 40
2.0
  0
CIRCLE
  5
2E0
  8
LE_ALL
 10
392.84632412
 20
-269.6546271
 30
0.0
 40
2.0
  0
CIRCLE
  5
2E1
  8
LE_ALL
 10
427.84632412
 20
-254.6546271
 30
0.0
 40
2.0
  0
CIRCLE
  5
2E2
  8
LE_ALL
 10
387.84632412
 20
-254.6546271
 30
0.0
 40
2.0
  0
CIRCLE
  5
2E3
  8
LE_ALL
 10
427.84632412
 20
-282.6546271
 30
0.0
 40
2.0
  0
CIRCLE
  5
2E4
  8
LE_ALL
 10
387.84632412
 20
-282.6546271
 30
0.0
 40
2.0
  0
POLYLINE
  5
2E5
  8
LE_ALL
 66
     1
 10
0.0
 20
0.0
 30
0.0
 70
     1
  0
VERTEX
  5
2E6
  8
LE_ALL
 10
377.84632412
 20
-252.0546271
 30
0.0
  0
VERTEX
  5
2E7
  8
LE_ALL
 10
377.84632412
 20
-291.6546271
 30
0.0
  0
VERTEX
  5
2E8
  8
LE_ALL
 10
437.84632412
 20
-291.6546271
 30
0.0
  0
VERTEX
  5
2E9
  8
LE_ALL
 10
437.84632412
 20
-252.0546271
 30
0.0
  0
VERTEX
  5
2EA
  8
LE_ALL
 10
432.44632412
 20
-246.6546271
 30
0.0
  0
VERTEX
  5
2EB
  8
LE_ALL
 10
383.24632412
 20
-246.6546271
 30
0.0
  0
SEQEND
  5
2EC
  8
LE_ALL
  0
ENDBLK
  8
0
  0
BLOCK
  8
0
  2
_00040
 70
     0
 10
0.0
 20
0.0
 30
0.0
  0
INSERT
  5
2EF
  8
0
  2
_00041
 10
387.84632412
 20
-282.6546271
 30
0.0
  0
ENDBLK
  8
0
  0
BLOCK
  8
0
  2
_00041
 70
     0
 10
387.84632412
 20
-282.6546271
 30
0.0
  0
LINE
  5
2F2
  8
LE_ALL
  6
STRICHPUNKT2
 62
     1
 10
387.84632412
 20
-282.6546271
 30
0.0
 11
390.84632412
 21
-282.6546271
 31
0.0
  0
LINE
  5
2F3
  8
LE_ALL
  6
STRICHPUNKT2
 62
     1
 10
387.84632412
 20
-282.6546271
 30
0.0
 11
384.84632412
 21
-282.6546271
 31
0.0
  0
LINE
  5
2F4
  8
LE_ALL
  6
STRICHPUNKT2
 62
     1
 10
387.84632412
 20
-282.6546271
 30
0.0
 11
387.84632412
 21
-279.6546271
 31
0.0
  0
LINE
  5
2F5
  8
LE_ALL
  6
STRICHPUNKT2
 62
     1
 10
387.84632412
 20
-282.6546271
 30
0.0
 11
387.84632412
 21
-285.6546271
 31
0.0
  0
LINE
  5
2F6
  8
LE_ALL
  6
STRICHPUNKT2
 62
     1
 10
387.84632412
 20
-282.6546271
 30
0.0
 11
390.84632412
 21
-282.6546271
 31
0.0
  0
LINE
  5
2F7
  8
LE_ALL
  6
STRICHPUNKT2
 62
     1
 10
387.84632412
 20
-282.6546271
 30
0.0
 11
384.84632412
 21
-282.6546271
 31
0.0
  0
LINE
  5
2F8
  8
LE_ALL
  6
STRICHPUNKT2
 62
     1
 10
387.84632412
 20
-282.6546271
 30
0.0
 11
387.84632412
 21
-279.6546271
 31
0.0
  0
LINE
  5
2F9
  8
LE_ALL
  6
STRICHPUNKT2
 62
     1
 10
387.84632412
 20
-282.6546271
 30
0.0
 11
387.84632412
 21
-285.6546271
 31
0.0
  0
LINE
  5
2FA
  8
LE_ALL
  6
STRICHPUNKT2
 62
     1
 10
427.84632412
 20
-282.6546271
 30
0.0
 11
430.84632412
 21
-282.6546271
 31
0.0
  0
LINE
  5
2FB
  8
LE_ALL
  6
STRICHPUNKT2
 62
     1
 10
427.84632412
 20
-282.6546271
 30
0.0
 11
424.84632412
 21
-282.6546271
 31
0.0
  0
LINE
  5
2FC
  8
LE_ALL
  6
STRICHPUNKT2
 62
     1
 10
427.84632412
 20
-282.6546271
 30
0.0
 11
427.84632412
 21
-279.6546271
 31
0.0
  0
LINE
  5
2FD
  8
LE_ALL
  6
STRICHPUNKT2
 62
     1
 10
427.84632412
 20
-282.6546271
 30
0.0
 11
427.84632412
 21
-285.6546271
 31
0.0
  0
LINE
  5
2FE
  8
LE_ALL
  6
STRICHPUNKT2
 62
     1
 10
427.84632412
 20
-282.6546271
 30
0.0
 11
430.84632412
 21
-282.6546271
 31
0.0
  0
LINE
  5
2FF
  8
LE_ALL
  6
STRICHPUNKT2
 62
     1
 10
427.84632412
 20
-282.6546271
 30
0.0
 11
424.84632412
 21
-282.6546271
 31
0.0
  0
LINE
  5
300
  8
LE_ALL
  6
STRICHPUNKT2
 62
     1
 10
427.84632412
 20
-282.6546271
 30
0.0
 11
427.84632412
 21
-279.6546271
 31
0.0
  0
LINE
  5
301
  8
LE_ALL
  6
STRICHPUNKT2
 62
     1
 10
427.84632412
 20
-282.6546271
 30
0.0
 11
427.84632412
 21
-285.6546271
 31
0.0
  0
LINE
  5
302
  8
LE_ALL
  6
STRICHPUNKT2
 62
     1
 10
387.84632412
 20
-254.6546271
 30
0.0
 11
390.84632412
 21
-254.6546271
 31
0.0
  0
LINE
  5
303
  8
LE_ALL
  6
STRICHPUNKT2
 62
     1
 10
387.84632412
 20
-254.6546271
 30
0.0
 11
384.84632412
 21
-254.6546271
 31
0.0
  0
LINE
  5
304
  8
LE_ALL
  6
STRICHPUNKT2
 62
     1
 10
387.84632412
 20
-254.6546271
 30
0.0
 11
387.84632412
 21
-251.6546271
 31
0.0
  0
LINE
  5
305
  8
LE_ALL
  6
STRICHPUNKT2
 62
     1
 10
387.84632412
 20
-254.6546271
 30
0.0
 11
387.84632412
 21
-257.6546271
 31
0.0
  0
LINE
  5
306
  8
LE_ALL
  6
STRICHPUNKT2
 62
     1
 10
387.84632412
 20
-254.6546271
 30
0.0
 11
390.84632412
 21
-254.6546271
 31
0.0
  0
LINE
  5
307
  8
LE_ALL
  6
STRICHPUNKT2
 62
     1
 10
387.84632412
 20
-254.6546271
 30
0.0
 11
384.84632412
 21
-254.6546271
 31
0.0
  0
LINE
  5
308
  8
LE_ALL
  6
STRICHPUNKT2
 62
     1
 10
387.84632412
 20
-254.6546271
 30
0.0
 11
387.84632412
 21
-251.6546271
 31
0.0
  0
LINE
  5
309
  8
LE_ALL
  6
STRICHPUNKT2
 62
     1
 10
387.84632412
 20
-254.6546271
 30
0.0
 11
387.84632412
 21
-257.6546271
 31
0.0
  0
LINE
  5
30A
  8
LE_ALL
  6
STRICHPUNKT2
 62
     1
 10
427.84632412
 20
-254.6546271
 30
0.0
 11
430.84632412
 21
-254.6546271
 31
0.0
  0
LINE
  5
30B
  8
LE_ALL
  6
STRICHPUNKT2
 62
     1
 10
427.84632412
 20
-254.6546271
 30
0.0
 11
424.84632412
 21
-254.6546271
 31
0.0
  0
LINE
  5
30C
  8
LE_ALL
  6
STRICHPUNKT2
 62
     1
 10
427.84632412
 20
-254.6546271
 30
0.0
 11
427.84632412
 21
-251.6546271
 31
0.0
  0
LINE
  5
30D
  8
LE_ALL
  6
STRICHPUNKT2
 62
     1
 10
427.84632412
 20
-254.6546271
 30
0.0
 11
427.84632412
 21
-257.6546271
 31
0.0
  0
LINE
  5
30E
  8
LE_ALL
  6
STRICHPUNKT2
 62
     1
 10
427.84632412
 20
-254.6546271
 30
0.0
 11
430.84632412
 21
-254.6546271
 31
0.0
  0
LINE
  5
30F
  8
LE_ALL
  6
STRICHPUNKT2
 62
     1
 10
427.84632412
 20
-254.6546271
 30
0.0
 11
424.84632412
 21
-254.6546271
 31
0.0
  0
LINE
  5
310
  8
LE_ALL
  6
STRICHPUNKT2
 62
     1
 10
427.84632412
 20
-254.6546271
 30
0.0
 11
427.84632412
 21
-251.6546271
 31
0.0
  0
LINE
  5
311
  8
LE_ALL
  6
STRICHPUNKT2
 62
     1
 10
427.84632412
 20
-254.6546271
 30
0.0
 11
427.84632412
 21
-257.6546271
 31
0.0
  0
LINE
  5
312
  8
LE_ALL
  6
STRICHPUNKT2
 62
     1
 10
392.84632412
 20
-269.6546271
 30
0.0
 11
395.84632412
 21
-269.6546271
 31
0.0
  0
LINE
  5
313
  8
LE_ALL
  6
STRICHPUNKT2
 62
     1
 10
392.84632412
 20
-269.6546271
 30
0.0
 11
389.84632412
 21
-269.6546271
 31
0.0
  0
LINE
  5
314
  8
LE_ALL
  6
STRICHPUNKT2
 62
     1
 10
392.84632412
 20
-269.6546271
 30
0.0
 11
392.84632412
 21
-266.6546271
 31
0.0
  0
LINE
  5
315
  8
LE_ALL
  6
STRICHPUNKT2
 62
     1
 10
392.84632412
 20
-269.6546271
 30
0.0
 11
392.84632412
 21
-272.6546271
 31
0.0
  0
LINE
  5
316
  8
LE_ALL
  6
STRICHPUNKT2
 62
     1
 10
392.84632412
 20
-269.6546271
 30
0.0
 11
395.84632412
 21
-269.6546271
 31
0.0
  0
LINE
  5
317
  8
LE_ALL
  6
STRICHPUNKT2
 62
     1
 10
392.84632412
 20
-269.6546271
 30
0.0
 11
389.84632412
 21
-269.6546271
 31
0.0
  0
LINE
  5
318
  8
LE_ALL
  6
STRICHPUNKT2
 62
     1
 10
392.84632412
 20
-269.6546271
 30
0.0
 11
392.84632412
 21
-266.6546271
 31
0.0
  0
LINE
  5
319
  8
LE_ALL
  6
STRICHPUNKT2
 62
     1
 10
392.84632412
 20
-269.6546271
 30
0.0
 11
392.84632412
 21
-272.6546271
 31
0.0
  0
LINE
  5
31A
  8
LE_ALL
  6
STRICHPUNKT2
 62
     1
 10
422.84632412
 20
-269.6546271
 30
0.0
 11
425.84632412
 21
-269.6546271
 31
0.0
  0
LINE
  5
31B
  8
LE_ALL
  6
STRICHPUNKT2
 62
     1
 10
422.84632412
 20
-269.6546271
 30
0.0
 11
419.84632412
 21
-269.6546271
 31
0.0
  0
LINE
  5
31C
  8
LE_ALL
  6
STRICHPUNKT2
 62
     1
 10
422.84632412
 20
-269.6546271
 30
0.0
 11
422.84632412
 21
-266.6546271
 31
0.0
  0
LINE
  5
31D
  8
LE_ALL
  6
STRICHPUNKT2
 62
     1
 10
422.84632412
 20
-269.6546271
 30
0.0
 11
422.84632412
 21
-272.6546271
 31
0.0
  0
LINE
  5
31E
  8
LE_ALL
  6
STRICHPUNKT2
 62
     1
 10
422.84632412
 20
-269.6546271
 30
0.0
 11
425.84632412
 21
-269.6546271
 31
0.0
  0
LINE
  5
31F
  8
LE_ALL
  6
STRICHPUNKT2
 62
     1
 10
422.84632412
 20
-269.6546271
 30
0.0
 11
419.84632412
 21
-269.6546271
 31
0.0
  0
LINE
  5
320
  8
LE_ALL
  6
STRICHPUNKT2
 62
     1
 10
422.84632412
 20
-269.6546271
 30
0.0
 11
422.84632412
 21
-266.6546271
 31
0.0
  0
LINE
  5
321
  8
LE_ALL
  6
STRICHPUNKT2
 62
     1
 10
422.84632412
 20
-269.6546271
 30
0.0
 11
422.84632412
 21
-272.6546271
 31
0.0
  0
LINE
  5
322
  8
LE_ALL
  6
STRICHPUNKT2
 62
     1
 10
407.84632412
 20
-286.6546271
 30
0.0
 11
407.84632412
 21
-250.6546271
 31
0.0
  0
LINE
  5
323
  8
LE_ALL
  6
STRICHPUNKT2
 62
     1
 10
416.84632412
 20
-277.6546271
 30
0.0
 11
398.84632412
 21
-277.6546271
 31
0.0
  0
LINE
  5
324
  8
LE_ALL
  6
STRICHPUNKT2
 62
     1
 10
416.84632412
 20
-259.6546271
 30
0.0
 11
398.84632412
 21
-259.6546271
 31
0.0
  0
LINE
  5
325
  8
LE_ALL
  6
STRICHPUNKT2
 62
     1
 10
407.84632412
 20
-286.6546271
 30
0.0
 11
407.84632412
 21
-250.6546271
 31
0.0
  0
LINE
  5
326
  8
LE_ALL
  6
STRICHPUNKT2
 62
     1
 10
416.84632412
 20
-277.6546271
 30
0.0
 11
398.84632412
 21
-277.6546271
 31
0.0
  0
LINE
  5
327
  8
LE_ALL
  6
STRICHPUNKT2
 62
     1
 10
416.84632412
 20
-259.6546271
 30
0.0
 11
398.84632412
 21
-259.6546271
 31
0.0
  0
ENDBLK
  8
0
  0
BLOCK
  8
0
  2
_ANS0005_00042
 70
     0
 10
0.0
 20
0.0
 30
0.0
  0
INSERT
  5
32A
  8
0
  2
_A3D0005_00043
 10
0.0
 20
0.0
 30
0.0
  0
ENDBLK
  8
0
  0
BLOCK
  8
0
  2
_A3D0005_00043
 70
     0
 10
0.0
 20
0.0
 30
0.0
  0
INSERT
  5
32D
  8
0
  2
PLAATWERK__D___2_5MM_00044
 10
0.0
 20
0.0
 30
0.0
  0
ENDBLK
  8
0
  0
BLOCK
  8
0
  2
PLAATWERK__D___2_5MM_00044
 70
     0
 10
0.0
 20
0.0
 30
0.0
  0
INSERT
  5
330
  8
0
  2
SHEET_FLANGE_00045
 10
0.0
 20
0.0
 30
0.0
  0
INSERT
  5
331
  8
0
  2
BEND_ZONE_00049
 10
0.0
 20
0.0
 30
0.0
  0
INSERT
  5
332
  8
0
  2
SHEET_FLANGE_00051
 10
0.0
 20
0.0
 30
0.0
  0
ENDBLK
  8
0
  0
BLOCK
  8
0
  2
SHEET_FLANGE_00045
 70
     0
 10
0.0
 20
0.0
 30
0.0
  0
INSERT
  5
335
  8
0
  2
SHEET_FLANGE_00046
 10
314.41498673
 20
-140.94160633
 30
0.0
  0
INSERT
  5
336
  8
0
  2
_00047
 10
0.0
 20
0.0
 30
0.0
  0
ENDBLK
  8
0
  0
BLOCK
  8
0
  2
SHEET_FLANGE_00046
 70
     0
 10
314.41498673
 20
-140.94160633
 30
0.0
  0
LINE
  5
339
  8
LE_ALL
  6
DOT
 62
     3
 10
314.41498673
 20
-140.94160633
 30
0.0
 11
314.41498673
 21
-140.94160633
 31
0.0
  0
LINE
  5
33A
  8
LE_ALL
  6
DOT
 62
     3
 10
314.41498673
 20
-200.94160633
 30
0.0
 11
314.41498673
 21
-200.94160633
 31
0.0
  0
LINE
  5
33B
  8
LE_ALL
  6
DOT
 62
     3
 10
319.81498673
 20
-146.34160633
 30
0.0
 11
319.81498673
 21
-146.34160633
 31
0.0
  0
LINE
  5
33C
  8
LE_ALL
  6
DOT
 62
     3
 10
319.81498673
 20
-195.54160633
 30
0.0
 11
319.81498673
 21
-195.54160633
 31
0.0
  0
LINE
  5
33D
  8
LE_ALL
  6
DOT
 62
     3
 10
287.31498673
 20
-166.44160633
 30
0.0
 11
287.31498673
 21
-166.44160633
 31
0.0
  0
LINE
  5
33E
  8
LE_ALL
  6
DOT
 62
     3
 10
287.31498673
 20
-175.44160633
 30
0.0
 11
287.31498673
 21
-175.44160633
 31
0.0
  0
LINE
  5
33F
  8
LE_ALL
  6
DOT
 62
     3
 10
308.31498673
 20
-166.44160633
 30
0.0
 11
308.31498673
 21
-166.44160633
 31
0.0
  0
LINE
  5
340
  8
LE_ALL
  6
DOT
 62
     3
 10
308.31498673
 20
-175.44160633
 30
0.0
 11
308.31498673
 21
-175.44160633
 31
0.0
  0
POLYLINE
  5
341
  8
LE_ALL
 66
     1
 10
0.0
 20
0.0
 30
0.0
 70
     1
  0
VERTEX
  5
342
  8
LE_ALL
 10
287.31498673
 20
-175.44160633
 30
0.0
 42
-1.0
  0
VERTEX
  5
343
  8
LE_ALL
 10
287.31498673
 20
-166.44160633
 30
0.0
  0
VERTEX
  5
344
  8
LE_ALL
 10
308.31498673
 20
-166.44160633
 30
0.0
 42
-1.0
  0
VERTEX
  5
345
  8
LE_ALL
 10
308.31498673
 20
-175.44160633
 30
0.0
  0
SEQEND
  5
346
  8
LE_ALL
  0
CIRCLE
  5
347
  8
LE_ALL
 10
296.81498673
 20
-155.94160633
 30
0.0
 40
2.0
  0
CIRCLE
  5
348
  8
LE_ALL
 10
296.81498673
 20
-185.94160633
 30
0.0
 40
2.0
  0
CIRCLE
  5
349
  8
LE_ALL
 10
311.81498673
 20
-150.94160633
 30
0.0
 40
2.0
  0
CIRCLE
  5
34A
  8
LE_ALL
 10
283.81498673
 20
-150.94160633
 30
0.0
 40
2.0
  0
CIRCLE
  5
34B
  8
LE_ALL
 10
311.81498673
 20
-190.94160633
 30
0.0
 40
2.0
  0
CIRCLE
  5
34C
  8
LE_ALL
 10
283.81498673
 20
-190.94160633
 30
0.0
 40
2.0
  0
LINE
  5
34D
  8
LE_ALL
 10
319.81498673
 20
-146.34160633
 30
0.0
 11
319.81498673
 21
-195.54160633
 31
0.0
  0
LINE
  5
34E
  8
LE_ALL
 10
314.41498673
 20
-200.94160633
 30
0.0
 11
319.81498673
 21
-195.54160633
 31
0.0
  0
POLYLINE
  5
34F
  8
LE_ALL
 66
     1
 10
0.0
 20
0.0
 30
0.0
  0
VERTEX
  5
350
  8
LE_ALL
 10
314.41498673
 20
-200.94160633
 30
0.0
  0
VERTEX
  5
351
  8
LE_ALL
 10
274.81498673
 20
-200.94160633
 30
0.0
  0
VERTEX
  5
352
  8
LE_ALL
 10
274.81498673
 20
-140.94160633
 30
0.0
  0
VERTEX
  5
353
  8
LE_ALL
 10
314.41498673
 20
-140.94160633
 30
0.0
  0
SEQEND
  5
354
  8
LE_ALL
  0
LINE
  5
355
  8
LE_ALL
 10
319.81498673
 20
-146.34160633
 30
0.0
 11
314.41498673
 21
-140.94160633
 31
0.0
  0
ENDBLK
  8
0
  0
BLOCK
  8
0
  2
_00047
 70
     0
 10
0.0
 20
0.0
 30
0.0
  0
INSERT
  5
358
  8
0
  2
_00048
 10
283.81498673
 20
-190.94160633
 30
0.0
  0
ENDBLK
  8
0
  0
BLOCK
  8
0
  2
_00048
 70
     0
 10
283.81498673
 20
-190.94160633
 30
0.0
  0
LINE
  5
35B
  8
LE_ALL
  6
STRICHPUNKT2
 62
     1
 10
283.81498673
 20
-190.94160633
 30
0.0
 11
286.81498673
 21
-190.94160633
 31
0.0
  0
LINE
  5
35C
  8
LE_ALL
  6
STRICHPUNKT2
 62
     1
 10
283.81498673
 20
-190.94160633
 30
0.0
 11
280.81498673
 21
-190.94160633
 31
0.0
  0
LINE
  5
35D
  8
LE_ALL
  6
STRICHPUNKT2
 62
     1
 10
283.81498673
 20
-190.94160633
 30
0.0
 11
283.81498673
 21
-187.94160633
 31
0.0
  0
LINE
  5
35E
  8
LE_ALL
  6
STRICHPUNKT2
 62
     1
 10
283.81498673
 20
-190.94160633
 30
0.0
 11
283.81498673
 21
-193.94160633
 31
0.0
  0
LINE
  5
35F
  8
LE_ALL
  6
STRICHPUNKT2
 62
     1
 10
283.81498673
 20
-190.94160633
 30
0.0
 11
286.81498673
 21
-190.94160633
 31
0.0
  0
LINE
  5
360
  8
LE_ALL
  6
STRICHPUNKT2
 62
     1
 10
283.81498673
 20
-190.94160633
 30
0.0
 11
280.81498673
 21
-190.94160633
 31
0.0
  0
LINE
  5
361
  8
LE_ALL
  6
STRICHPUNKT2
 62
     1
 10
283.81498673
 20
-190.94160633
 30
0.0
 11
283.81498673
 21
-187.94160633
 31
0.0
  0
LINE
  5
362
  8
LE_ALL
  6
STRICHPUNKT2
 62
     1
 10
283.81498673
 20
-190.94160633
 30
0.0
 11
283.81498673
 21
-193.94160633
 31
0.0
  0
LINE
  5
363
  8
LE_ALL
  6
STRICHPUNKT2
 62
     1
 10
311.81498673
 20
-190.94160633
 30
0.0
 11
314.81498673
 21
-190.94160633
 31
0.0
  0
LINE
  5
364
  8
LE_ALL
  6
STRICHPUNKT2
 62
     1
 10
311.81498673
 20
-190.94160633
 30
0.0
 11
308.81498673
 21
-190.94160633
 31
0.0
  0
LINE
  5
365
  8
LE_ALL
  6
STRICHPUNKT2
 62
     1
 10
311.81498673
 20
-190.94160633
 30
0.0
 11
311.81498673
 21
-187.94160633
 31
0.0
  0
LINE
  5
366
  8
LE_ALL
  6
STRICHPUNKT2
 62
     1
 10
311.81498673
 20
-190.94160633
 30
0.0
 11
311.81498673
 21
-193.94160633
 31
0.0
  0
LINE
  5
367
  8
LE_ALL
  6
STRICHPUNKT2
 62
     1
 10
311.81498673
 20
-190.94160633
 30
0.0
 11
314.81498673
 21
-190.94160633
 31
0.0
  0
LINE
  5
368
  8
LE_ALL
  6
STRICHPUNKT2
 62
     1
 10
311.81498673
 20
-190.94160633
 30
0.0
 11
308.81498673
 21
-190.94160633
 31
0.0
  0
LINE
  5
369
  8
LE_ALL
  6
STRICHPUNKT2
 62
     1
 10
311.81498673
 20
-190.94160633
 30
0.0
 11
311.81498673
 21
-187.94160633
 31
0.0
  0
LINE
  5
36A
  8
LE_ALL
  6
STRICHPUNKT2
 62
     1
 10
311.81498673
 20
-190.94160633
 30
0.0
 11
311.81498673
 21
-193.94160633
 31
0.0
  0
LINE
  5
36B
  8
LE_ALL
  6
STRICHPUNKT2
 62
     1
 10
283.81498673
 20
-150.94160633
 30
0.0
 11
286.81498673
 21
-150.94160633
 31
0.0
  0
LINE
  5
36C
  8
LE_ALL
  6
STRICHPUNKT2
 62
     1
 10
283.81498673
 20
-150.94160633
 30
0.0
 11
280.81498673
 21
-150.94160633
 31
0.0
  0
LINE
  5
36D
  8
LE_ALL
  6
STRICHPUNKT2
 62
     1
 10
283.81498673
 20
-150.94160633
 30
0.0
 11
283.81498673
 21
-147.94160633
 31
0.0
  0
LINE
  5
36E
  8
LE_ALL
  6
STRICHPUNKT2
 62
     1
 10
283.81498673
 20
-150.94160633
 30
0.0
 11
283.81498673
 21
-153.94160633
 31
0.0
  0
LINE
  5
36F
  8
LE_ALL
  6
STRICHPUNKT2
 62
     1
 10
283.81498673
 20
-150.94160633
 30
0.0
 11
286.81498673
 21
-150.94160633
 31
0.0
  0
LINE
  5
370
  8
LE_ALL
  6
STRICHPUNKT2
 62
     1
 10
283.81498673
 20
-150.94160633
 30
0.0
 11
280.81498673
 21
-150.94160633
 31
0.0
  0
LINE
  5
371
  8
LE_ALL
  6
STRICHPUNKT2
 62
     1
 10
283.81498673
 20
-150.94160633
 30
0.0
 11
283.81498673
 21
-147.94160633
 31
0.0
  0
LINE
  5
372
  8
LE_ALL
  6
STRICHPUNKT2
 62
     1
 10
283.81498673
 20
-150.94160633
 30
0.0
 11
283.81498673
 21
-153.94160633
 31
0.0
  0
LINE
  5
373
  8
LE_ALL
  6
STRICHPUNKT2
 62
     1
 10
311.81498673
 20
-150.94160633
 30
0.0
 11
314.81498673
 21
-150.94160633
 31
0.0
  0
LINE
  5
374
  8
LE_ALL
  6
STRICHPUNKT2
 62
     1
 10
311.81498673
 20
-150.94160633
 30
0.0
 11
308.81498673
 21
-150.94160633
 31
0.0
  0
LINE
  5
375
  8
LE_ALL
  6
STRICHPUNKT2
 62
     1
 10
311.81498673
 20
-150.94160633
 30
0.0
 11
311.81498673
 21
-147.94160633
 31
0.0
  0
LINE
  5
376
  8
LE_ALL
  6
STRICHPUNKT2
 62
     1
 10
311.81498673
 20
-150.94160633
 30
0.0
 11
311.81498673
 21
-153.94160633
 31
0.0
  0
LINE
  5
377
  8
LE_ALL
  6
STRICHPUNKT2
 62
     1
 10
311.81498673
 20
-150.94160633
 30
0.0
 11
314.81498673
 21
-150.94160633
 31
0.0
  0
LINE
  5
378
  8
LE_ALL
  6
STRICHPUNKT2
 62
     1
 10
311.81498673
 20
-150.94160633
 30
0.0
 11
308.81498673
 21
-150.94160633
 31
0.0
  0
LINE
  5
379
  8
LE_ALL
  6
STRICHPUNKT2
 62
     1
 10
311.81498673
 20
-150.94160633
 30
0.0
 11
311.81498673
 21
-147.94160633
 31
0.0
  0
LINE
  5
37A
  8
LE_ALL
  6
STRICHPUNKT2
 62
     1
 10
311.81498673
 20
-150.94160633
 30
0.0
 11
311.81498673
 21
-153.94160633
 31
0.0
  0
LINE
  5
37B
  8
LE_ALL
  6
STRICHPUNKT2
 62
     1
 10
296.81498673
 20
-185.94160633
 30
0.0
 11
299.81498673
 21
-185.94160633
 31
0.0
  0
LINE
  5
37C
  8
LE_ALL
  6
STRICHPUNKT2
 62
     1
 10
296.81498673
 20
-185.94160633
 30
0.0
 11
293.81498673
 21
-185.94160633
 31
0.0
  0
LINE
  5
37D
  8
LE_ALL
  6
STRICHPUNKT2
 62
     1
 10
296.81498673
 20
-185.94160633
 30
0.0
 11
296.81498673
 21
-182.94160633
 31
0.0
  0
LINE
  5
37E
  8
LE_ALL
  6
STRICHPUNKT2
 62
     1
 10
296.81498673
 20
-185.94160633
 30
0.0
 11
296.81498673
 21
-188.94160633
 31
0.0
  0
LINE
  5
37F
  8
LE_ALL
  6
STRICHPUNKT2
 62
     1
 10
296.81498673
 20
-185.94160633
 30
0.0
 11
299.81498673
 21
-185.94160633
 31
0.0
  0
LINE
  5
380
  8
LE_ALL
  6
STRICHPUNKT2
 62
     1
 10
296.81498673
 20
-185.94160633
 30
0.0
 11
293.81498673
 21
-185.94160633
 31
0.0
  0
LINE
  5
381
  8
LE_ALL
  6
STRICHPUNKT2
 62
     1
 10
296.81498673
 20
-185.94160633
 30
0.0
 11
296.81498673
 21
-182.94160633
 31
0.0
  0
LINE
  5
382
  8
LE_ALL
  6
STRICHPUNKT2
 62
     1
 10
296.81498673
 20
-185.94160633
 30
0.0
 11
296.81498673
 21
-188.94160633
 31
0.0
  0
LINE
  5
383
  8
LE_ALL
  6
STRICHPUNKT2
 62
     1
 10
296.81498673
 20
-155.94160633
 30
0.0
 11
299.81498673
 21
-155.94160633
 31
0.0
  0
LINE
  5
384
  8
LE_ALL
  6
STRICHPUNKT2
 62
     1
 10
296.81498673
 20
-155.94160633
 30
0.0
 11
293.81498673
 21
-155.94160633
 31
0.0
  0
LINE
  5
385
  8
LE_ALL
  6
STRICHPUNKT2
 62
     1
 10
296.81498673
 20
-155.94160633
 30
0.0
 11
296.81498673
 21
-152.94160633
 31
0.0
  0
LINE
  5
386
  8
LE_ALL
  6
STRICHPUNKT2
 62
     1
 10
296.81498673
 20
-155.94160633
 30
0.0
 11
296.81498673
 21
-158.94160633
 31
0.0
  0
LINE
  5
387
  8
LE_ALL
  6
STRICHPUNKT2
 62
     1
 10
296.81498673
 20
-155.94160633
 30
0.0
 11
299.81498673
 21
-155.94160633
 31
0.0
  0
LINE
  5
388
  8
LE_ALL
  6
STRICHPUNKT2
 62
     1
 10
296.81498673
 20
-155.94160633
 30
0.0
 11
293.81498673
 21
-155.94160633
 31
0.0
  0
LINE
  5
389
  8
LE_ALL
  6
STRICHPUNKT2
 62
     1
 10
296.81498673
 20
-155.94160633
 30
0.0
 11
296.81498673
 21
-152.94160633
 31
0.0
  0
LINE
  5
38A
  8
LE_ALL
  6
STRICHPUNKT2
 62
     1
 10
296.81498673
 20
-155.94160633
 30
0.0
 11
296.81498673
 21
-158.94160633
 31
0.0
  0
LINE
  5
38B
  8
LE_ALL
  6
STRICHPUNKT2
 62
     1
 10
280.56498673
 20
-170.94160633
 30
0.0
 11
315.06498673
 21
-170.94160633
 31
0.0
  0
LINE
  5
38C
  8
LE_ALL
  6
STRICHPUNKT2
 62
     1
 10
287.31498673
 20
-177.69160633
 30
0.0
 11
287.31498673
 21
-164.19160633
 31
0.0
  0
LINE
  5
38D
  8
LE_ALL
  6
STRICHPUNKT2
 62
     1
 10
308.31498673
 20
-177.69160633
 30
0.0
 11
308.31498673
 21
-164.19160633
 31
0.0
  0
LINE
  5
38E
  8
LE_ALL
  6
STRICHPUNKT2
 62
     1
 10
280.56498673
 20
-170.94160633
 30
0.0
 11
315.06498673
 21
-170.94160633
 31
0.0
  0
LINE
  5
38F
  8
LE_ALL
  6
STRICHPUNKT2
 62
     1
 10
287.31498673
 20
-177.69160633
 30
0.0
 11
287.31498673
 21
-164.19160633
 31
0.0
  0
LINE
  5
390
  8
LE_ALL
  6
STRICHPUNKT2
 62
     1
 10
308.31498673
 20
-177.69160633
 30
0.0
 11
308.31498673
 21
-164.19160633
 31
0.0
  0
ENDBLK
  8
0
  0
BLOCK
  8
0
  2
BEND_ZONE_00049
 70
     0
 10
0.0
 20
0.0
 30
0.0
  0
INSERT
  5
393
  8
0
  2
BEND_ZONE_00050
 10
272.31498673
 20
-200.94160633
 30
0.0
  0
ENDBLK
  8
0
  0
BLOCK
  8
0
  2
BEND_ZONE_00050
 70
     0
 10
272.31498673
 20
-200.94160633
 30
0.0
  0
LINE
  5
396
  8
LE_ALL
  6
DOT
 62
     3
 10
272.31498673
 20
-200.94160633
 30
0.0
 11
272.31498673
 21
-140.94160633
 31
0.0
  0
POLYLINE
  5
397
  8
LE_ALL
 66
     1
 10
0.0
 20
0.0
 30
0.0
  0
VERTEX
  5
398
  8
LE_ALL
 10
272.31498673
 20
-200.94160633
 30
0.0
  0
VERTEX
  5
399
  8
LE_ALL
 10
274.81498673
 20
-200.94160633
 30
0.0
  0
VERTEX
  5
39A
  8
LE_ALL
 10
274.81498673
 20
-140.94160633
 30
0.0
  0
VERTEX
  5
39B
  8
LE_ALL
 10
272.31498673
 20
-140.94160633
 30
0.0
  0
SEQEND
  5
39C
  8
LE_ALL
  0
ENDBLK
  8
0
  0
BLOCK
  8
0
  2
SHEET_FLANGE_00051
 70
     0
 10
0.0
 20
0.0
 30
0.0
  0
INSERT
  5
39F
  8
0
  2
SHEET_FLANGE_00052
 10
269.81498673
 20
-200.94160633
 30
0.0
  0
INSERT
  5
3A0
  8
0
  2
_00053
 10
0.0
 20
0.0
 30
0.0
  0
ENDBLK
  8
0
  0
BLOCK
  8
0
  2
SHEET_FLANGE_00052
 70
     0
 10
269.81498673
 20
-200.94160633
 30
0.0
  0
LINE
  5
3A3
  8
LE_ALL
  6
DOT
 62
     3
 10
269.81498673
 20
-200.94160633
 30
0.0
 11
269.81498673
 21
-200.94160633
 31
0.0
  0
LINE
  5
3A4
  8
LE_ALL
  6
DOT
 62
     3
 10
272.31498673
 20
-200.94160633
 30
0.0
 11
272.31498673
 21
-200.94160633
 31
0.0
  0
LINE
  5
3A5
  8
LE_ALL
  6
DOT
 62
     3
 10
269.81498673
 20
-140.94160633
 30
0.0
 11
269.81498673
 21
-140.94160633
 31
0.0
  0
LINE
  5
3A6
  8
LE_ALL
  6
DOT
 62
     3
 10
269.81498673
 20
-164.94160633
 30
0.0
 11
269.81498673
 21
-164.94160633
 31
0.0
  0
LINE
  5
3A7
  8
LE_ALL
  6
DOT
 62
     3
 10
269.81498673
 20
-176.94160633
 30
0.0
 11
269.81498673
 21
-176.94160633
 31
0.0
  0
LINE
  5
3A8
  8
LE_ALL
  6
DOT
 62
     3
 10
272.31498673
 20
-140.94160633
 30
0.0
 11
272.31498673
 21
-140.94160633
 31
0.0
  0
LINE
  5
3A9
  8
LE_ALL
  6
DOT
 62
     3
 10
272.31498673
 20
-176.94160633
 30
0.0
 11
272.31498673
 21
-176.94160633
 31
0.0
  0
LINE
  5
3AA
  8
LE_ALL
  6
DOT
 62
     3
 10
272.31498673
 20
-164.94160633
 30
0.0
 11
272.31498673
 21
-164.94160633
 31
0.0
  0
LINE
  5
3AB
  8
LE_ALL
  6
DOT
 62
     3
 10
269.81498673
 20
-176.94160633
 30
0.0
 11
272.31498673
 21
-176.94160633
 31
0.0
  0
LINE
  5
3AC
  8
LE_ALL
  6
DOT
 62
     3
 10
269.81498673
 20
-164.94160633
 30
0.0
 11
272.31498673
 21
-164.94160633
 31
0.0
  0
LINE
  5
3AD
  8
LE_ALL
  6
DOT
 62
     3
 10
272.31498673
 20
-183.94160633
 30
0.0
 11
269.81498673
 21
-183.94160633
 31
0.0
  0
LINE
  5
3AE
  8
LE_ALL
  6
DOT
 62
     3
 10
272.31498673
 20
-187.94160633
 30
0.0
 11
269.81498673
 21
-187.94160633
 31
0.0
  0
LINE
  5
3AF
  8
LE_ALL
  6
DOT
 62
     3
 10
272.31498673
 20
-188.94160633
 30
0.0
 11
269.81498673
 21
-188.94160633
 31
0.0
  0
LINE
  5
3B0
  8
LE_ALL
  6
DOT
 62
     3
 10
272.31498673
 20
-192.94160633
 30
0.0
 11
269.81498673
 21
-192.94160633
 31
0.0
  0
LINE
  5
3B1
  8
LE_ALL
  6
DOT
 62
     3
 10
272.31498673
 20
-153.94160633
 30
0.0
 11
269.81498673
 21
-153.94160633
 31
0.0
  0
LINE
  5
3B2
  8
LE_ALL
  6
DOT
 62
     3
 10
272.31498673
 20
-157.94160633
 30
0.0
 11
269.81498673
 21
-157.94160633
 31
0.0
  0
LINE
  5
3B3
  8
LE_ALL
  6
DOT
 62
     3
 10
272.31498673
 20
-148.94160633
 30
0.0
 11
269.81498673
 21
-148.94160633
 31
0.0
  0
LINE
  5
3B4
  8
LE_ALL
  6
DOT
 62
     3
 10
272.31498673
 20
-152.94160633
 30
0.0
 11
269.81498673
 21
-152.94160633
 31
0.0
  0
POLYLINE
  5
3B5
  8
LE_ALL
 66
     1
 10
0.0
 20
0.0
 30
0.0
 70
     1
  0
VERTEX
  5
3B6
  8
LE_ALL
 10
272.31498673
 20
-146.34160633
 30
0.0
  0
VERTEX
  5
3B7
  8
LE_ALL
 10
272.31498673
 20
-195.54160633
 30
0.0
  0
VERTEX
  5
3B8
  8
LE_ALL
 10
269.81498673
 20
-195.54160633
 30
0.0
  0
VERTEX
  5
3B9
  8
LE_ALL
 10
269.81498673
 20
-146.34160633
 30
0.0
  0
SEQEND
  5
3BA
  8
LE_ALL
  0
LINE
  5
3BB
  8
LE_ALL
 10
272.31498673
 20
-140.94160633
 30
0.0
 11
272.31498673
 21
-146.34160633
 31
0.0
  0
LINE
  5
3BC
  8
LE_ALL
 10
269.81498673
 20
-140.94160633
 30
0.0
 11
272.31498673
 21
-140.94160633
 31
0.0
  0
LINE
  5
3BD
  8
LE_ALL
 10
269.81498673
 20
-146.34160633
 30
0.0
 11
269.81498673
 21
-140.94160633
 31
0.0
  0
LINE
  5
3BE
  8
LE_ALL
 10
269.81498673
 20
-200.94160633
 30
0.0
 11
269.81498673
 21
-195.54160633
 31
0.0
  0
LINE
  5
3BF
  8
LE_ALL
 10
272.31498673
 20
-200.94160633
 30
0.0
 11
269.81498673
 21
-200.94160633
 31
0.0
  0
LINE
  5
3C0
  8
LE_ALL
 10
272.31498673
 20
-195.54160633
 30
0.0
 11
272.31498673
 21
-200.94160633
 31
0.0
  0
ENDBLK
  8
0
  0
BLOCK
  8
0
  2
_00053
 70
     0
 10
0.0
 20
0.0
 30
0.0
  0
INSERT
  5
3C3
  8
0
  2
_00054
 10
273.31498673
 20
-190.94160633
 30
0.0
  0
ENDBLK
  8
0
  0
BLOCK
  8
0
  2
_00054
 70
     0
 10
273.31498673
 20
-190.94160633
 30
0.0
  0
LINE
  5
3C6
  8
LE_ALL
  6
STRICHPUNKT2
 62
     1
 10
273.31498673
 20
-190.94160633
 30
0.0
 11
268.81498673
 21
-190.94160633
 31
0.0
  0
LINE
  5
3C7
  8
LE_ALL
  6
STRICHPUNKT2
 62
     1
 10
273.31498673
 20
-190.94160633
 30
0.0
 11
268.81498673
 21
-190.94160633
 31
0.0
  0
LINE
  5
3C8
  8
LE_ALL
  6
STRICHPUNKT2
 62
     1
 10
273.31498673
 20
-155.94160633
 30
0.0
 11
268.81498673
 21
-155.94160633
 31
0.0
  0
LINE
  5
3C9
  8
LE_ALL
  6
STRICHPUNKT2
 62
     1
 10
273.31498673
 20
-150.94160633
 30
0.0
 11
268.81498673
 21
-150.94160633
 31
0.0
  0
LINE
  5
3CA
  8
LE_ALL
  6
STRICHPUNKT2
 62
     1
 10
273.31498673
 20
-185.94160633
 30
0.0
 11
268.81498673
 21
-185.94160633
 31
0.0
  0
LINE
  5
3CB
  8
LE_ALL
  6
STRICHPUNKT2
 62
     1
 10
273.31498673
 20
-150.94160633
 30
0.0
 11
268.81498673
 21
-150.94160633
 31
0.0
  0
LINE
  5
3CC
  8
LE_ALL
  6
STRICHPUNKT2
 62
     1
 10
275.31498673
 20
-170.94160633
 30
0.0
 11
266.81498673
 21
-170.94160633
 31
0.0
  0
LINE
  5
3CD
  8
LE_ALL
  6
STRICHPUNKT2
 62
     1
 10
275.31498673
 20
-170.94160633
 30
0.0
 11
266.81498673
 21
-170.94160633
 31
0.0
  0
ENDBLK
  8
0
  0
BLOCK
  8
0
  2
_ANS0006_00055
 70
     0
 10
0.0
 20
0.0
 30
0.0
  0
INSERT
  5
3D0
  8
0
  2
_A3D0006_00056
 10
0.0
 20
0.0
 30
0.0
  0
ENDBLK
  8
0
  0
BLOCK
  8
0
  2
_A3D0006_00056
 70
     0
 10
0.0
 20
0.0
 30
0.0
  0
INSERT
  5
3D3
  8
0
  2
PLAATWERK__D___2_5MM_00057
 10
0.0
 20
0.0
 30
0.0
  0
ENDBLK
  8
0
  0
BLOCK
  8
0
  2
PLAATWERK__D___2_5MM_00057
 70
     0
 10
0.0
 20
0.0
 30
0.0
  0
INSERT
  5
3D6
  8
0
  2
SHEET_FLANGE_00058
 10
0.0
 20
0.0
 30
0.0
  0
INSERT
  5
3D7
  8
0
  2
BEND_ZONE_00062
 10
0.0
 20
0.0
 30
0.0
  0
INSERT
  5
3D8
  8
0
  2
SHEET_FLANGE_00064
 10
0.0
 20
0.0
 30
0.0
  0
ENDBLK
  8
0
  0
BLOCK
  8
0
  2
SHEET_FLANGE_00058
 70
     0
 10
0.0
 20
0.0
 30
0.0
  0
INSERT
  5
3DB
  8
0
  2
SHEET_FLANGE_00059
 10
529.25208906
 20
-172.53229837
 30
0.0
  0
INSERT
  5
3DC
  8
0
  2
_00060
 10
0.0
 20
0.0
 30
0.0
  0
ENDBLK
  8
0
  0
BLOCK
  8
0
  2
SHEET_FLANGE_00059
 70
     0
 10
529.25208906
 20
-172.53229837
 30
0.0
  0
POLYLINE
  5
3DF
  8
LE_ALL
 66
     1
 10
0.0
 20
0.0
 30
0.0
  0
VERTEX
  5
710
  8
LE_ALL
 10
526.34307932
 20
-171.1291768446153
 30
0.0
  0
VERTEX
  5
711
  8
LE_ALL
 10
526.4341901331388
 20
-171.4294907823634
 30
0.0
  0
VERTEX
  5
712
  8
LE_ALL
 10
526.7038331654389
 20
-171.7176438989801
 30
0.0
  0
VERTEX
  5
713
  8
LE_ALL
 10
527.1410895738771
 20
-171.9819678097118
 30
0.0
  0
VERTEX
  5
714
  8
LE_ALL
 10
527.7282532303037
 20
-172.211759062428
 30
0.0
  0
VERTEX
  5
715
  8
LE_ALL
 10
528.4415477080156
 20
-172.3977125599597
 30
0.0
  0
VERTEX
  5
716
  8
LE_ALL
 10
529.2520890771557
 20
-172.5322983578768
 30
0.0
  0
SEQEND
  5
920
  8
LE_ALL
  0
POLYLINE
  5
3E0
  8
LE_ALL
 66
     1
 10
0.0
 20
0.0
 30
0.0
  0
VERTEX
  5
717
  8
LE_ALL
 10
532.4340695898272
 20
-169.7260553455227
 30
0.0
  0
VERTEX
  5
718
  8
LE_ALL
 10
531.5961970679459
 20
-169.6503329598061
 30
0.0
  0
VERTEX
  5
719
  8
LE_ALL
 10
530.7302960963963
 20
-169.6296480521687
 30
0.0
  0
VERTEX
  5
71A
  8
LE_ALL
 10
529.8685925281277
 20
-169.6647704436565
 30
0.0
  0
VERTEX
  5
71B
  8
LE_ALL
 10
529.0431560031905
 20
-169.7543929997813
 30
0.0
  0
VERTEX
  5
71C
  8
LE_ALL
 10
528.2847064271461
 20
-169.8951802775657
 30
0.0
  0
VERTEX
  5
71D
  8
LE_ALL
 10
527.6214706819477
 20
-170.0818926592474
 30
0.0
  0
VERTEX
  5
71E
  8
LE_ALL
 10
527.0781321185763
 20
-170.3075813528126
 30
0.0
  0
VERTEX
  5
71F
  8
LE_ALL
 10
526.6749119276991
 20
-170.5638470021106
 30
0.0
  0
VERTEX
  5
720
  8
LE_ALL
 10
526.4268165765733
 20
-170.8411522819721
 30
0.0
  0
VERTEX
  5
721
  8
LE_ALL
 10
526.34307932
 20
-171.1291768446153
 30
0.0
  0
SEQEND
  5
921
  8
LE_ALL
  0
POLYLINE
  5
3E1
  8
LE_ALL
 66
     1
 10
0.0
 20
0.0
 30
0.0
  0
VERTEX
  5
3E2
  8
LE_ALL
 10
532.43406958
 20
-169.72605533
 30
0.0
  0
VERTEX
  5
3E3
  8
LE_ALL
 10
552.07777086
 20
-172.20092906
 30
0.0
  0
SEQEND
  5
3E4
  8
LE_ALL
  0
POLYLINE
  5
3E5
  8
LE_ALL
 66
     1
 10
0.0
 20
0.0
 30
0.0
  0
VERTEX
  5
722
  8
LE_ALL
 10
554.9867806
 20
-173.60405058
 30
0.0
  0
VERTEX
  5
723
  8
LE_ALL
 10
554.8956697851286
 20
-173.3037366448103
 30
0.0
  0
VERTEX
  5
724
  8
LE_ALL
 10
554.6260267541084
 20
-173.015583530666
 30
0.0
  0
VERTEX
  5
725
  8
LE_ALL
 10
554.1887703497307
 20
-172.7512596220284
 30
0.0
  0
VERTEX
  5
726
  8
LE_ALL
 10
553.6016066996892
 20
-172.5214683707666
 30
0.0
  0
VERTEX
  5
727
  8
LE_ALL
 10
552.8883122300364
 20
-172.3355148738376
 30
0.0
  0
VERTEX
  5
728
  8
LE_ALL
 10
552.0777708698272
 20
-172.2009290755227
 30
0.0
  0
SEQEND
  5
922
  8
LE_ALL
  0
POLYLINE
  5
3E6
  8
LE_ALL
 66
     1
 10
0.0
 20
0.0
 30
0.0
  0
VERTEX
  5
729
  8
LE_ALL
 10
548.8957903571556
 20
-175.0071720878769
 30
0.0
  0
VERTEX
  5
72A
  8
LE_ALL
 10
549.7336628792419
 20
-175.0828944717323
 30
0.0
  0
VERTEX
  5
72B
  8
LE_ALL
 10
550.599563849903
 20
-175.1035793776115
 30
0.0
  0
VERTEX
  5
72C
  8
LE_ALL
 10
551.4612674163166
 20
-175.0684569845361
 30
0.0
  0
VERTEX
  5
72D
  8
LE_ALL
 10
552.2867039385945
 20
-174.9788344270496
 30
0.0
  0
VERTEX
  5
72E
  8
LE_ALL
 10
553.0451535113639
 20
-174.8380471481703
 30
0.0
  0
VERTEX
  5
72F
  8
LE_ALL
 10
553.7083892528753
 20
-174.6513347656861
 30
0.0
  0
VERTEX
  5
730
  8
LE_ALL
 10
554.2517278123573
 20
-174.4256460716204
 30
0.0
  0
VERTEX
  5
731
  8
LE_ALL
 10
554.6549479993458
 20
-174.169380422118
 30
0.0
  0
VERTEX
  5
732
  8
LE_ALL
 10
554.9030433467722
 20
-173.8920751423282
 30
0.0
  0
VERTEX
  5
733
  8
LE_ALL
 10
554.9867806
 20
-173.60405058
 30
0.0
  0
SEQEND
  5
923
  8
LE_ALL
  0
LINE
  5
3E7
  8
LE_ALL
 10
548.89579034
 20
-175.0071721
 30
0.0
 11
529.25208906
 21
-172.53229837
 31
0.0
  0
POLYLINE
  5
3E8
  8
LE_ALL
 66
     1
 10
0.0
 20
0.0
 30
0.0
  0
VERTEX
  5
734
  8
LE_ALL
 10
553.2706627647794
 20
-174.7825618954413
 30
0.0
  0
VERTEX
  5
735
  8
LE_ALL
 10
552.7000110752193
 20
-174.6550354775733
 30
0.0
  0
VERTEX
  5
736
  8
LE_ALL
 10
552.0777708698272
 20
-174.5579516855227
 30
0.0
  0
SEQEND
  5
924
  8
LE_ALL
  0
POLYLINE
  5
3E9
  8
LE_ALL
 66
     1
 10
0.0
 20
0.0
 30
0.0
  0
VERTEX
  5
3EA
  8
LE_ALL
 10
552.07777086
 20
-174.55795167
 30
0.0
  0
VERTEX
  5
3EB
  8
LE_ALL
 10
532.43406958
 20
-172.08307793
 30
0.0
  0
VERTEX
  5
3EC
  8
LE_ALL
 10
532.43406958
 20
-169.72605533
 30
0.0
  0
SEQEND
  5
3ED
  8
LE_ALL
  0
POLYLINE
  5
3EE
  8
LE_ALL
 66
     1
 10
0.0
 20
0.0
 30
0.0
  0
VERTEX
  5
737
  8
LE_ALL
 10
532.4340695898272
 20
-172.0830779455227
 30
0.0
  0
VERTEX
  5
738
  8
LE_ALL
 10
531.5408639244082
 20
-172.0043426474044
 30
0.0
  0
VERTEX
  5
739
  8
LE_ALL
 10
530.6182441539249
 20
-171.9880728886609
 30
0.0
  0
VERTEX
  5
73A
  8
LE_ALL
 10
529.7051019860647
 20
-172.0349544975406
 30
0.0
  0
VERTEX
  5
73B
  8
LE_ALL
 10
528.8399296138258
 20
-172.1430112473391
 30
0.0
  0
VERTEX
  5
73C
  8
LE_ALL
 10
528.0591971325571
 20
-172.3076881613896
 30
0.0
  0
SEQEND
  5
925
  8
LE_ALL
  0
LINE
  5
3EF
  8
LE_ALL
 10
552.07777086
 20
-174.55795167
 30
0.0
 11
552.07777086
 21
-172.20092906
 31
0.0
  0
POLYLINE
  5
3F0
  8
LE_ALL
 66
     1
 10
0.0
 20
0.0
 30
0.0
  0
VERTEX
  5
73D
  8
LE_ALL
 10
547.03281647
 20
-167.57169085
 30
0.0
  0
VERTEX
  5
73E
  8
LE_ALL
 10
546.9943870308939
 20
-167.4416306367699
 30
0.0
  0
VERTEX
  5
73F
  8
LE_ALL
 10
546.880575535366
 20
-167.3165685645842
 30
0.0
  0
VERTEX
  5
740
  8
LE_ALL
 10
546.6957556953529
 20
-167.2013106987305
 30
0.0
  0
VERTEX
  5
741
  8
LE_ALL
 10
546.4470300336422
 20
-167.1002863343461
 30
0.0
  0
VERTEX
  5
742
  8
LE_ALL
 10
546.1439569379047
 20
-167.0173777810903
 30
0.0
  0
VERTEX
  5
743
  8
LE_ALL
 10
545.7981833372176
 20
-166.9557711681618
 30
0.0
  0
VERTEX
  5
744
  8
LE_ALL
 10
545.4229971171129
 20
-166.9178340031407
 30
0.0
  0
VERTEX
  5
745
  8
LE_ALL
 10
545.0328164735897
 20
-166.90502419
 30
0.0
  0
VERTEX
  5
746
  8
LE_ALL
 10
544.6426358299286
 20
-166.9178340026738
 30
0.0
  0
VERTEX
  5
747
  8
LE_ALL
 10
544.2674496094154
 20
-166.955771167246
 30
0.0
  0
VERTEX
  5
748
  8
LE_ALL
 10
543.9216760080649
 20
-167.0173777797607
 30
0.0
  0
VERTEX
  5
749
  8
LE_ALL
 10
543.6186029114344
 20
-167.1002863326538
 30
0.0
  0
VERTEX
  5
74A
  8
LE_ALL
 10
543.3698772486357
 20
-167.2013106967406
 30
0.0
  0
VERTEX
  5
74B
  8
LE_ALL
 10
543.1850574073815
 20
-167.3165685623732
 30
0.0
  0
VERTEX
  5
74C
  8
LE_ALL
 10
543.0712459105066
 20
-167.4416306344227
 30
0.0
  0
VERTEX
  5
74D
  8
LE_ALL
 10
543.03281647
 20
-167.5716908476068
 30
0.0
  0
SEQEND
  5
926
  8
LE_ALL
  0
POLYLINE
  5
3F1
  8
LE_ALL
 66
     1
 10
0.0
 20
0.0
 30
0.0
  0
VERTEX
  5
74E
  8
LE_ALL
 10
543.03281647
 20
-167.5716908476068
 30
0.0
  0
VERTEX
  5
74F
  8
LE_ALL
 10
543.0712459078803
 20
-167.7017510611763
 30
0.0
  0
VERTEX
  5
750
  8
LE_ALL
 10
543.1850574025733
 20
-167.8268131337575
 30
0.0
  0
VERTEX
  5
751
  8
LE_ALL
 10
543.369877242154
 20
-167.9420710000258
 30
0.0
  0
VERTEX
  5
752
  8
LE_ALL
 10
543.6186029038194
 20
-168.0430953648078
 30
0.0
  0
VERTEX
  5
753
  8
LE_ALL
 10
543.9216759998567
 20
-168.1260039184112
 30
0.0
  0
VERTEX
  5
754
  8
LE_ALL
 10
544.2674496011241
 20
-168.1876105316093
 30
0.0
  0
VERTEX
  5
755
  8
LE_ALL
 10
544.6426358220068
 20
-168.225547696801
 30
0.0
  0
VERTEX
  5
756
  8
LE_ALL
 10
545.0328164664102
 20
-168.23835751
 30
0.0
  0
VERTEX
  5
757
  8
LE_ALL
 10
545.4229971109515
 20
-168.2255476972679
 30
0.0
  0
VERTEX
  5
758
  8
LE_ALL
 10
545.7981833322427
 20
-168.1876105325251
 30
0.0
  0
VERTEX
  5
759
  8
LE_ALL
 10
546.1439569341736
 20
-168.1260039197407
 30
0.0
  0
VERTEX
  5
75A
  8
LE_ALL
 10
546.4470300311038
 20
-168.0430953665001
 30
0.0
  0
VERTEX
  5
75B
  8
LE_ALL
 10
546.6957556938571
 20
-167.9420710020157
 30
0.0
  0
VERTEX
  5
75C
  8
LE_ALL
 10
546.8805755346791
 20
-167.8268131359686
 30
0.0
  0
VERTEX
  5
75D
  8
LE_ALL
 10
546.9943870307188
 20
-167.7017510635235
 30
0.0
  0
VERTEX
  5
75E
  8
LE_ALL
 10
547.03281647
 20
-167.57169085
 30
0.0
  0
SEQEND
  5
927
  8
LE_ALL
  0
POLYLINE
  5
3F2
  8
LE_ALL
 66
     1
 10
0.0
 20
0.0
 30
0.0
  0
VERTEX
  5
75F
  8
LE_ALL
 10
536.42621475
 20
-176.92583432
 30
0.0
  0
VERTEX
  5
760
  8
LE_ALL
 10
536.387785310894
 20
-176.7957741067699
 30
0.0
  0
VERTEX
  5
761
  8
LE_ALL
 10
536.273973815366
 20
-176.6707120345842
 30
0.0
  0
VERTEX
  5
762
  8
LE_ALL
 10
536.0891539753529
 20
-176.5554541687305
 30
0.0
  0
VERTEX
  5
763
  8
LE_ALL
 10
535.8404283136423
 20
-176.4544298043461
 30
0.0
  0
VERTEX
  5
764
  8
LE_ALL
 10
535.5373552179047
 20
-176.3715212510903
 30
0.0
  0
VERTEX
  5
765
  8
LE_ALL
 10
535.1915816172176
 20
-176.3099146381618
 30
0.0
  0
VERTEX
  5
766
  8
LE_ALL
 10
534.816395397113
 20
-176.2719774731407
 30
0.0
  0
VERTEX
  5
767
  8
LE_ALL
 10
534.4262147535898
 20
-176.25916766
 30
0.0
  0
VERTEX
  5
768
  8
LE_ALL
 10
534.0360341099287
 20
-176.2719774726738
 30
0.0
  0
VERTEX
  5
769
  8
LE_ALL
 10
533.6608478894154
 20
-176.309914637246
 30
0.0
  0
VERTEX
  5
76A
  8
LE_ALL
 10
533.3150742880649
 20
-176.3715212497607
 30
0.0
  0
VERTEX
  5
76B
  8
LE_ALL
 10
533.0120011914345
 20
-176.4544298026538
 30
0.0
  0
VERTEX
  5
76C
  8
LE_ALL
 10
532.7632755286357
 20
-176.5554541667406
 30
0.0
  0
VERTEX
  5
76D
  8
LE_ALL
 10
532.5784556873815
 20
-176.6707120323732
 30
0.0
  0
VERTEX
  5
76E
  8
LE_ALL
 10
532.4646441905066
 20
-176.7957741044227
 30
0.0
  0
VERTEX
  5
76F
  8
LE_ALL
 10
532.42621475
 20
-176.9258343176068
 30
0.0
  0
SEQEND
  5
928
  8
LE_ALL
  0
POLYLINE
  5
3F3
  8
LE_ALL
 66
     1
 10
0.0
 20
0.0
 30
0.0
  0
VERTEX
  5
770
  8
LE_ALL
 10
532.42621475
 20
-176.9258343176068
 30
0.0
  0
VERTEX
  5
771
  8
LE_ALL
 10
532.4646441878804
 20
-177.0558945311763
 30
0.0
  0
VERTEX
  5
772
  8
LE_ALL
 10
532.5784556825733
 20
-177.1809566037575
 30
0.0
  0
VERTEX
  5
773
  8
LE_ALL
 10
532.763275522154
 20
-177.2962144700258
 30
0.0
  0
VERTEX
  5
774
  8
LE_ALL
 10
533.0120011838194
 20
-177.3972388348078
 30
0.0
  0
VERTEX
  5
775
  8
LE_ALL
 10
533.3150742798567
 20
-177.4801473884112
 30
0.0
  0
VERTEX
  5
776
  8
LE_ALL
 10
533.6608478811241
 20
-177.5417540016093
 30
0.0
  0
VERTEX
  5
777
  8
LE_ALL
 10
534.0360341020069
 20
-177.579691166801
 30
0.0
  0
VERTEX
  5
778
  8
LE_ALL
 10
534.4262147464102
 20
-177.59250098
 30
0.0
  0
VERTEX
  5
779
  8
LE_ALL
 10
534.8163953909516
 20
-177.5796911672679
 30
0.0
  0
VERTEX
  5
77A
  8
LE_ALL
 10
535.1915816122428
 20
-177.5417540025251
 30
0.0
  0
VERTEX
  5
77B
  8
LE_ALL
 10
535.5373552141737
 20
-177.4801473897407
 30
0.0
  0
VERTEX
  5
77C
  8
LE_ALL
 10
535.8404283111039
 20
-177.3972388365001
 30
0.0
  0
VERTEX
  5
77D
  8
LE_ALL
 10
536.0891539738572
 20
-177.2962144720157
 30
0.0
  0
VERTEX
  5
77E
  8
LE_ALL
 10
536.2739738146792
 20
-177.1809566059686
 30
0.0
  0
VERTEX
  5
77F
  8
LE_ALL
 10
536.3877853107189
 20
-177.0558945335235
 30
0.0
  0
VERTEX
  5
780
  8
LE_ALL
 10
536.42621475
 20
-176.92583432
 30
0.0
  0
SEQEND
  5
929
  8
LE_ALL
  0
POLYLINE
  5
3F4
  8
LE_ALL
 66
     1
 10
0.0
 20
0.0
 30
0.0
  0
VERTEX
  5
781
  8
LE_ALL
 10
562.83179863
 20
-167.7804339
 30
0.0
  0
VERTEX
  5
782
  8
LE_ALL
 10
562.7933691908939
 20
-167.6503736867699
 30
0.0
  0
VERTEX
  5
783
  8
LE_ALL
 10
562.679557695366
 20
-167.5253116145842
 30
0.0
  0
VERTEX
  5
784
  8
LE_ALL
 10
562.4947378553529
 20
-167.4100537487305
 30
0.0
  0
VERTEX
  5
785
  8
LE_ALL
 10
562.2460121936423
 20
-167.3090293843461
 30
0.0
  0
VERTEX
  5
786
  8
LE_ALL
 10
561.9429390979047
 20
-167.2261208310902
 30
0.0
  0
VERTEX
  5
787
  8
LE_ALL
 10
561.5971654972176
 20
-167.1645142181618
 30
0.0
  0
VERTEX
  5
788
  8
LE_ALL
 10
561.221979277113
 20
-167.1265770531407
 30
0.0
  0
VERTEX
  5
789
  8
LE_ALL
 10
560.8317986335898
 20
-167.11376724
 30
0.0
  0
VERTEX
  5
78A
  8
LE_ALL
 10
560.4416179899287
 20
-167.1265770526738
 30
0.0
  0
VERTEX
  5
78B
  8
LE_ALL
 10
560.0664317694154
 20
-167.1645142172459
 30
0.0
  0
VERTEX
  5
78C
  8
LE_ALL
 10
559.7206581680649
 20
-167.2261208297607
 30
0.0
  0
VERTEX
  5
78D
  8
LE_ALL
 10
559.4175850714345
 20
-167.3090293826538
 30
0.0
  0
VERTEX
  5
78E
  8
LE_ALL
 10
559.1688594086357
 20
-167.4100537467406
 30
0.0
  0
VERTEX
  5
78F
  8
LE_ALL
 10
558.9840395673815
 20
-167.5253116123732
 30
0.0
  0
VERTEX
  5
790
  8
LE_ALL
 10
558.8702280705066
 20
-167.6503736844227
 30
0.0
  0
VERTEX
  5
791
  8
LE_ALL
 10
558.83179863
 20
-167.7804338976068
 30
0.0
  0
SEQEND
  5
92A
  8
LE_ALL
  0
POLYLINE
  5
3F5
  8
LE_ALL
 66
     1
 10
0.0
 20
0.0
 30
0.0
  0
VERTEX
  5
792
  8
LE_ALL
 10
558.83179863
 20
-167.7804338976068
 30
0.0
  0
VERTEX
  5
793
  8
LE_ALL
 10
558.8702280678804
 20
-167.9104941111763
 30
0.0
  0
VERTEX
  5
794
  8
LE_ALL
 10
558.9840395625733
 20
-168.0355561837575
 30
0.0
  0
VERTEX
  5
795
  8
LE_ALL
 10
559.168859402154
 20
-168.1508140500258
 30
0.0
  0
VERTEX
  5
796
  8
LE_ALL
 10
559.4175850638194
 20
-168.2518384148078
 30
0.0
  0
VERTEX
  5
797
  8
LE_ALL
 10
559.7206581598567
 20
-168.3347469684111
 30
0.0
  0
VERTEX
  5
798
  8
LE_ALL
 10
560.0664317611241
 20
-168.3963535816092
 30
0.0
  0
VERTEX
  5
799
  8
LE_ALL
 10
560.4416179820068
 20
-168.4342907468009
 30
0.0
  0
VERTEX
  5
79A
  8
LE_ALL
 10
560.8317986264102
 20
-168.44710056
 30
0.0
  0
VERTEX
  5
79B
  8
LE_ALL
 10
561.2219792709516
 20
-168.4342907472679
 30
0.0
  0
VERTEX
  5
79C
  8
LE_ALL
 10
561.5971654922428
 20
-168.3963535825251
 30
0.0
  0
VERTEX
  5
79D
  8
LE_ALL
 10
561.9429390941737
 20
-168.3347469697407
 30
0.0
  0
VERTEX
  5
79E
  8
LE_ALL
 10
562.2460121911039
 20
-168.2518384165
 30
0.0
  0
VERTEX
  5
79F
  8
LE_ALL
 10
562.4947378538571
 20
-168.1508140520157
 30
0.0
  0
VERTEX
  5
7A0
  8
LE_ALL
 10
562.6795576946791
 20
-168.0355561859685
 30
0.0
  0
VERTEX
  5
7A1
  8
LE_ALL
 10
562.7933691907189
 20
-167.9104941135235
 30
0.0
  0
VERTEX
  5
7A2
  8
LE_ALL
 10
562.83179863
 20
-167.7804339
 30
0.0
  0
SEQEND
  5
92B
  8
LE_ALL
  0
POLYLINE
  5
3F6
  8
LE_ALL
 66
     1
 10
0.0
 20
0.0
 30
0.0
  0
VERTEX
  5
7A3
  8
LE_ALL
 10
536.64019692
 20
-164.48060225
 30
0.0
  0
VERTEX
  5
7A4
  8
LE_ALL
 10
536.601767480894
 20
-164.3505420367699
 30
0.0
  0
VERTEX
  5
7A5
  8
LE_ALL
 10
536.487955985366
 20
-164.2254799645842
 30
0.0
  0
VERTEX
  5
7A6
  8
LE_ALL
 10
536.3031361453529
 20
-164.1102220987305
 30
0.0
  0
VERTEX
  5
7A7
  8
LE_ALL
 10
536.0544104836423
 20
-164.0091977343461
 30
0.0
  0
VERTEX
  5
7A8
  8
LE_ALL
 10
535.7513373879048
 20
-163.9262891810903
 30
0.0
  0
VERTEX
  5
7A9
  8
LE_ALL
 10
535.4055637872176
 20
-163.8646825681618
 30
0.0
  0
VERTEX
  5
7AA
  8
LE_ALL
 10
535.030377567113
 20
-163.8267454031407
 30
0.0
  0
VERTEX
  5
7AB
  8
LE_ALL
 10
534.6401969235898
 20
-163.81393559
 30
0.0
  0
VERTEX
  5
7AC
  8
LE_ALL
 10
534.2500162799287
 20
-163.8267454026738
 30
0.0
  0
VERTEX
  5
7AD
  8
LE_ALL
 10
533.8748300594154
 20
-163.8646825672459
 30
0.0
  0
VERTEX
  5
7AE
  8
LE_ALL
 10
533.5290564580649
 20
-163.9262891797607
 30
0.0
  0
VERTEX
  5
7AF
  8
LE_ALL
 10
533.2259833614345
 20
-164.0091977326538
 30
0.0
  0
VERTEX
  5
7B0
  8
LE_ALL
 10
532.9772576986358
 20
-164.1102220967406
 30
0.0
  0
VERTEX
  5
7B1
  8
LE_ALL
 10
532.7924378573815
 20
-164.2254799623732
 30
0.0
  0
VERTEX
  5
7B2
  8
LE_ALL
 10
532.6786263605067
 20
-164.3505420344227
 30
0.0
  0
VERTEX
  5
7B3
  8
LE_ALL
 10
532.64019692
 20
-164.4806022476068
 30
0.0
  0
SEQEND
  5
92C
  8
LE_ALL
  0
POLYLINE
  5
3F7
  8
LE_ALL
 66
     1
 10
0.0
 20
0.0
 30
0.0
  0
VERTEX
  5
7B4
  8
LE_ALL
 10
532.64019692
 20
-164.4806022476068
 30
0.0
  0
VERTEX
  5
7B5
  8
LE_ALL
 10
532.6786263578804
 20
-164.6106624611763
 30
0.0
  0
VERTEX
  5
7B6
  8
LE_ALL
 10
532.7924378525734
 20
-164.7357245337575
 30
0.0
  0
VERTEX
  5
7B7
  8
LE_ALL
 10
532.977257692154
 20
-164.8509824000258
 30
0.0
  0
VERTEX
  5
7B8
  8
LE_ALL
 10
533.2259833538194
 20
-164.9520067648078
 30
0.0
  0
VERTEX
  5
7B9
  8
LE_ALL
 10
533.5290564498567
 20
-165.0349153184112
 30
0.0
  0
VERTEX
  5
7BA
  8
LE_ALL
 10
533.8748300511241
 20
-165.0965219316093
 30
0.0
  0
VERTEX
  5
7BB
  8
LE_ALL
 10
534.2500162720069
 20
-165.134459096801
 30
0.0
  0
VERTEX
  5
7BC
  8
LE_ALL
 10
534.6401969164102
 20
-165.14726891
 30
0.0
  0
VERTEX
  5
7BD
  8
LE_ALL
 10
535.0303775609516
 20
-165.1344590972679
 30
0.0
  0
VERTEX
  5
7BE
  8
LE_ALL
 10
535.4055637822428
 20
-165.0965219325251
 30
0.0
  0
VERTEX
  5
7BF
  8
LE_ALL
 10
535.7513373841737
 20
-165.0349153197407
 30
0.0
  0
VERTEX
  5
7C0
  8
LE_ALL
 10
536.0544104811039
 20
-164.9520067665001
 30
0.0
  0
VERTEX
  5
7C1
  8
LE_ALL
 10
536.3031361438572
 20
-164.8509824020157
 30
0.0
  0
VERTEX
  5
7C2
  8
LE_ALL
 10
536.4879559846792
 20
-164.7357245359686
 30
0.0
  0
VERTEX
  5
7C3
  8
LE_ALL
 10
536.6017674807189
 20
-164.6106624635235
 30
0.0
  0
VERTEX
  5
7C4
  8
LE_ALL
 10
536.64019692
 20
-164.48060225
 30
0.0
  0
SEQEND
  5
92D
  8
LE_ALL
  0
POLYLINE
  5
3F8
  8
LE_ALL
 66
     1
 10
0.0
 20
0.0
 30
0.0
  0
VERTEX
  5
7C5
  8
LE_ALL
 10
548.689663
 20
-180.25262518
 30
0.0
  0
VERTEX
  5
7C6
  8
LE_ALL
 10
548.651233560894
 20
-180.1225649667699
 30
0.0
  0
VERTEX
  5
7C7
  8
LE_ALL
 10
548.5374220653661
 20
-179.9975028945842
 30
0.0
  0
VERTEX
  5
7C8
  8
LE_ALL
 10
548.3526022253529
 20
-179.8822450287305
 30
0.0
  0
VERTEX
  5
7C9
  8
LE_ALL
 10
548.1038765636423
 20
-179.7812206643461
 30
0.0
  0
VERTEX
  5
7CA
  8
LE_ALL
 10
547.8008034679048
 20
-179.6983121110902
 30
0.0
  0
VERTEX
  5
7CB
  8
LE_ALL
 10
547.4550298672176
 20
-179.6367054981618
 30
0.0
  0
VERTEX
  5
7CC
  8
LE_ALL
 10
547.079843647113
 20
-179.5987683331407
 30
0.0
  0
VERTEX
  5
7CD
  8
LE_ALL
 10
546.6896630035898
 20
-179.58595852
 30
0.0
  0
VERTEX
  5
7CE
  8
LE_ALL
 10
546.2994823599287
 20
-179.5987683326738
 30
0.0
  0
VERTEX
  5
7CF
  8
LE_ALL
 10
545.9242961394154
 20
-179.6367054972459
 30
0.0
  0
VERTEX
  5
7D0
  8
LE_ALL
 10
545.5785225380649
 20
-179.6983121097607
 30
0.0
  0
VERTEX
  5
7D1
  8
LE_ALL
 10
545.2754494414345
 20
-179.7812206626538
 30
0.0
  0
VERTEX
  5
7D2
  8
LE_ALL
 10
545.0267237786358
 20
-179.8822450267406
 30
0.0
  0
VERTEX
  5
7D3
  8
LE_ALL
 10
544.8419039373815
 20
-179.9975028923732
 30
0.0
  0
VERTEX
  5
7D4
  8
LE_ALL
 10
544.7280924405067
 20
-180.1225649644227
 30
0.0
  0
VERTEX
  5
7D5
  8
LE_ALL
 10
544.689663
 20
-180.2526251776068
 30
0.0
  0
SEQEND
  5
92E
  8
LE_ALL
  0
POLYLINE
  5
3F9
  8
LE_ALL
 66
     1
 10
0.0
 20
0.0
 30
0.0
  0
VERTEX
  5
7D6
  8
LE_ALL
 10
544.689663
 20
-180.2526251776068
 30
0.0
  0
VERTEX
  5
7D7
  8
LE_ALL
 10
544.7280924378804
 20
-180.3826853911763
 30
0.0
  0
VERTEX
  5
7D8
  8
LE_ALL
 10
544.8419039325734
 20
-180.5077474637575
 30
0.0
  0
VERTEX
  5
7D9
  8
LE_ALL
 10
545.026723772154
 20
-180.6230053300258
 30
0.0
  0
VERTEX
  5
7DA
  8
LE_ALL
 10
545.2754494338194
 20
-180.7240296948078
 30
0.0
  0
VERTEX
  5
7DB
  8
LE_ALL
 10
545.5785225298567
 20
-180.8069382484111
 30
0.0
  0
VERTEX
  5
7DC
  8
LE_ALL
 10
545.9242961311242
 20
-180.8685448616093
 30
0.0
  0
VERTEX
  5
7DD
  8
LE_ALL
 10
546.2994823520069
 20
-180.9064820268009
 30
0.0
  0
VERTEX
  5
7DE
  8
LE_ALL
 10
546.6896629964102
 20
-180.91929184
 30
0.0
  0
VERTEX
  5
7DF
  8
LE_ALL
 10
547.0798436409516
 20
-180.9064820272679
 30
0.0
  0
VERTEX
  5
7E0
  8
LE_ALL
 10
547.4550298622428
 20
-180.8685448625251
 30
0.0
  0
VERTEX
  5
7E1
  8
LE_ALL
 10
547.8008034641737
 20
-180.8069382497407
 30
0.0
  0
VERTEX
  5
7E2
  8
LE_ALL
 10
548.1038765611039
 20
-180.7240296965001
 30
0.0
  0
VERTEX
  5
7E3
  8
LE_ALL
 10
548.3526022238572
 20
-180.6230053320157
 30
0.0
  0
VERTEX
  5
7E4
  8
LE_ALL
 10
548.5374220646792
 20
-180.5077474659685
 30
0.0
  0
VERTEX
  5
7E5
  8
LE_ALL
 10
548.6512335607189
 20
-180.3826853935235
 30
0.0
  0
VERTEX
  5
7E6
  8
LE_ALL
 10
548.689663
 20
-180.25262518
 30
0.0
  0
SEQEND
  5
92F
  8
LE_ALL
  0
POLYLINE
  5
3FA
  8
LE_ALL
 66
     1
 10
0.0
 20
0.0
 30
0.0
  0
VERTEX
  5
7E7
  8
LE_ALL
 10
522.49806129
 20
-176.95279354
 30
0.0
  0
VERTEX
  5
7E8
  8
LE_ALL
 10
522.459631850894
 20
-176.8227333267699
 30
0.0
  0
VERTEX
  5
7E9
  8
LE_ALL
 10
522.3458203553661
 20
-176.6976712545842
 30
0.0
  0
VERTEX
  5
7EA
  8
LE_ALL
 10
522.161000515353
 20
-176.5824133887305
 30
0.0
  0
VERTEX
  5
7EB
  8
LE_ALL
 10
521.9122748536423
 20
-176.4813890243461
 30
0.0
  0
VERTEX
  5
7EC
  8
LE_ALL
 10
521.6092017579048
 20
-176.3984804710902
 30
0.0
  0
VERTEX
  5
7ED
  8
LE_ALL
 10
521.2634281572176
 20
-176.3368738581618
 30
0.0
  0
VERTEX
  5
7EE
  8
LE_ALL
 10
520.888241937113
 20
-176.2989366931407
 30
0.0
  0
VERTEX
  5
7EF
  8
LE_ALL
 10
520.4980612935898
 20
-176.28612688
 30
0.0
  0
VERTEX
  5
7F0
  8
LE_ALL
 10
520.1078806499287
 20
-176.2989366926738
 30
0.0
  0
VERTEX
  5
7F1
  8
LE_ALL
 10
519.7326944294155
 20
-176.3368738572459
 30
0.0
  0
VERTEX
  5
7F2
  8
LE_ALL
 10
519.386920828065
 20
-176.3984804697607
 30
0.0
  0
VERTEX
  5
7F3
  8
LE_ALL
 10
519.0838477314345
 20
-176.4813890226538
 30
0.0
  0
VERTEX
  5
7F4
  8
LE_ALL
 10
518.8351220686358
 20
-176.5824133867406
 30
0.0
  0
VERTEX
  5
7F5
  8
LE_ALL
 10
518.6503022273815
 20
-176.6976712523732
 30
0.0
  0
VERTEX
  5
7F6
  8
LE_ALL
 10
518.5364907305067
 20
-176.8227333244227
 30
0.0
  0
VERTEX
  5
7F7
  8
LE_ALL
 10
518.49806129
 20
-176.9527935376068
 30
0.0
  0
SEQEND
  5
930
  8
LE_ALL
  0
POLYLINE
  5
3FB
  8
LE_ALL
 66
     1
 10
0.0
 20
0.0
 30
0.0
  0
VERTEX
  5
7F8
  8
LE_ALL
 10
518.49806129
 20
-176.9527935376068
 30
0.0
  0
VERTEX
  5
7F9
  8
LE_ALL
 10
518.5364907278804
 20
-177.0828537511763
 30
0.0
  0
VERTEX
  5
7FA
  8
LE_ALL
 10
518.6503022225734
 20
-177.2079158237575
 30
0.0
  0
VERTEX
  5
7FB
  8
LE_ALL
 10
518.835122062154
 20
-177.3231736900258
 30
0.0
  0
VERTEX
  5
7FC
  8
LE_ALL
 10
519.0838477238194
 20
-177.4241980548078
 30
0.0
  0
VERTEX
  5
7FD
  8
LE_ALL
 10
519.3869208198568
 20
-177.5071066084111
 30
0.0
  0
VERTEX
  5
7FE
  8
LE_ALL
 10
519.7326944211242
 20
-177.5687132216092
 30
0.0
  0
VERTEX
  5
7FF
  8
LE_ALL
 10
520.1078806420069
 20
-177.6066503868009
 30
0.0
  0
VERTEX
  5
800
  8
LE_ALL
 10
520.4980612864102
 20
-177.6194602
 30
0.0
  0
VERTEX
  5
801
  8
LE_ALL
 10
520.8882419309516
 20
-177.6066503872678
 30
0.0
  0
VERTEX
  5
802
  8
LE_ALL
 10
521.2634281522428
 20
-177.5687132225251
 30
0.0
  0
VERTEX
  5
803
  8
LE_ALL
 10
521.6092017541737
 20
-177.5071066097407
 30
0.0
  0
VERTEX
  5
804
  8
LE_ALL
 10
521.9122748511039
 20
-177.4241980565
 30
0.0
  0
VERTEX
  5
805
  8
LE_ALL
 10
522.1610005138572
 20
-177.3231736920157
 30
0.0
  0
VERTEX
  5
806
  8
LE_ALL
 10
522.3458203546792
 20
-177.2079158259685
 30
0.0
  0
VERTEX
  5
807
  8
LE_ALL
 10
522.4596318507189
 20
-177.0828537535235
 30
0.0
  0
VERTEX
  5
808
  8
LE_ALL
 10
522.49806129
 20
-176.95279354
 30
0.0
  0
SEQEND
  5
931
  8
LE_ALL
  0
LINE
  5
3FC
  8
LE_ALL
 10
545.5862064
 20
-183.67708595
 30
0.0
 11
508.54379827
 21
-179.01018119
 31
0.0
  0
LINE
  5
3FD
  8
LE_ALL
 10
508.54379827
 20
-181.36720379
 30
0.0
 11
545.5862064
 21
-186.03410855
 31
0.0
  0
LINE
  5
3FE
  8
LE_ALL
 10
545.5862064
 20
-183.67708595
 30
0.0
 11
545.5862064
 21
-186.03410855
 31
0.0
  0
LINE
  5
3FF
  8
LE_ALL
 10
545.5862064
 20
-183.67708595
 30
0.0
 11
552.54663218
 21
-182.62973622
 31
0.0
  0
LINE
  5
400
  8
LE_ALL
 10
569.941459
 20
-167.28894094
 30
0.0
 11
552.54663218
 21
-182.62973622
 31
0.0
  0
LINE
  5
401
  8
LE_ALL
 10
569.941459
 20
-167.28894094
 30
0.0
 11
566.79940983
 21
-164.96879901
 31
0.0
  0
LINE
  5
402
  8
LE_ALL
 10
529.7570017
 20
-160.30189426
 30
0.0
 11
566.79940983
 21
-164.96879901
 31
0.0
  0
LINE
  5
403
  8
LE_ALL
 10
508.54379827
 20
-179.01018119
 30
0.0
 11
529.7570017
 21
-160.30189426
 31
0.0
  0
LINE
  5
404
  8
LE_ALL
 10
569.941459
 20
-167.28894094
 30
0.0
 11
569.941459
 21
-169.64596354
 31
0.0
  0
LINE
  5
405
  8
LE_ALL
 10
552.54663218
 20
-184.98675883
 30
0.0
 11
569.941459
 21
-169.64596354
 31
0.0
  0
POLYLINE
  5
406
  8
LE_ALL
 66
     1
 10
0.0
 20
0.0
 30
0.0
  0
VERTEX
  5
407
  8
LE_ALL
 10
552.54663218
 20
-182.62973622
 30
0.0
  0
VERTEX
  5
408
  8
LE_ALL
 10
552.54663218
 20
-184.98675883
 30
0.0
  0
VERTEX
  5
409
  8
LE_ALL
 10
545.5862064
 20
-186.03410855
 30
0.0
  0
SEQEND
  5
40A
  8
LE_ALL
  0
ENDBLK
  8
0
  0
BLOCK
  8
0
  2
_00060
 70
     0
 10
0.0
 20
0.0
 30
0.0
  0
INSERT
  5
40D
  8
0
  2
_00061
 10
520.49806129
 20
-176.0099845
 30
0.0
  0
ENDBLK
  8
0
  0
BLOCK
  8
0
  2
_00061
 70
     0
 10
520.49806129
 20
-176.0099845
 30
0.0
  0
LINE
  5
410
  8
LE_ALL
  6
STRICHPUNKT2
 62
     1
 10
520.49806129
 20
-176.0099845
 30
0.0
 11
520.49806129
 21
-177.61946021
 31
0.0
  0
LINE
  5
411
  8
LE_ALL
  6
STRICHPUNKT2
 62
     1
 10
520.49806129
 20
-176.95279354
 30
0.0
 11
523.30430433
 21
-177.30634693
 31
0.0
  0
LINE
  5
412
  8
LE_ALL
  6
STRICHPUNKT2
 62
     1
 10
520.49806129
 20
-176.95279354
 30
0.0
 11
517.69181825
 21
-176.59924015
 31
0.0
  0
LINE
  5
413
  8
LE_ALL
  6
STRICHPUNKT2
 62
     1
 10
520.49806129
 20
-176.95279354
 30
0.0
 11
521.55872147
 21
-176.01737919
 31
0.0
  0
LINE
  5
414
  8
LE_ALL
  6
STRICHPUNKT2
 62
     1
 10
520.49806129
 20
-176.95279354
 30
0.0
 11
519.43740112
 21
-177.88820789
 31
0.0
  0
LINE
  5
415
  8
LE_ALL
  6
STRICHPUNKT2
 62
     1
 10
546.689663
 20
-179.30981614
 30
0.0
 11
546.689663
 21
-180.91929185
 31
0.0
  0
LINE
  5
416
  8
LE_ALL
  6
STRICHPUNKT2
 62
     1
 10
546.689663
 20
-180.25262518
 30
0.0
 11
549.49590604
 21
-180.60617858
 31
0.0
  0
LINE
  5
417
  8
LE_ALL
  6
STRICHPUNKT2
 62
     1
 10
546.689663
 20
-180.25262518
 30
0.0
 11
543.88341996
 21
-179.89907179
 31
0.0
  0
LINE
  5
418
  8
LE_ALL
  6
STRICHPUNKT2
 62
     1
 10
546.689663
 20
-180.25262518
 30
0.0
 11
547.75032317
 21
-179.31721084
 31
0.0
  0
LINE
  5
419
  8
LE_ALL
  6
STRICHPUNKT2
 62
     1
 10
546.689663
 20
-180.25262518
 30
0.0
 11
545.62900283
 21
-181.18803953
 31
0.0
  0
LINE
  5
41A
  8
LE_ALL
  6
STRICHPUNKT2
 62
     1
 10
534.64019692
 20
-163.53779321
 30
0.0
 11
534.64019692
 21
-165.14726892
 31
0.0
  0
LINE
  5
41B
  8
LE_ALL
  6
STRICHPUNKT2
 62
     1
 10
534.64019692
 20
-164.48060225
 30
0.0
 11
537.44643996
 21
-164.83415564
 31
0.0
  0
LINE
  5
41C
  8
LE_ALL
  6
STRICHPUNKT2
 62
     1
 10
534.64019692
 20
-164.48060225
 30
0.0
 11
531.83395388
 21
-164.12704886
 31
0.0
  0
LINE
  5
41D
  8
LE_ALL
  6
STRICHPUNKT2
 62
     1
 10
534.64019692
 20
-164.48060225
 30
0.0
 11
535.70085709
 21
-163.5451879
 31
0.0
  0
LINE
  5
41E
  8
LE_ALL
  6
STRICHPUNKT2
 62
     1
 10
534.64019692
 20
-164.48060225
 30
0.0
 11
533.57953675
 21
-165.4160166
 31
0.0
  0
LINE
  5
41F
  8
LE_ALL
  6
STRICHPUNKT2
 62
     1
 10
560.83179863
 20
-166.83762485
 30
0.0
 11
560.83179863
 21
-168.44710056
 31
0.0
  0
LINE
  5
420
  8
LE_ALL
  6
STRICHPUNKT2
 62
     1
 10
560.83179863
 20
-167.7804339
 30
0.0
 11
563.63804167
 21
-168.13398729
 31
0.0
  0
LINE
  5
421
  8
LE_ALL
  6
STRICHPUNKT2
 62
     1
 10
560.83179863
 20
-167.7804339
 30
0.0
 11
558.02555559
 21
-167.4268805
 31
0.0
  0
LINE
  5
422
  8
LE_ALL
  6
STRICHPUNKT2
 62
     1
 10
560.83179863
 20
-167.7804339
 30
0.0
 11
561.8924588
 21
-166.84501955
 31
0.0
  0
LINE
  5
423
  8
LE_ALL
  6
STRICHPUNKT2
 62
     1
 10
560.83179863
 20
-167.7804339
 30
0.0
 11
559.77113845
 21
-168.71584824
 31
0.0
  0
LINE
  5
424
  8
LE_ALL
  6
STRICHPUNKT2
 62
     1
 10
534.42621475
 20
-175.98302528
 30
0.0
 11
534.42621475
 21
-177.59250099
 31
0.0
  0
LINE
  5
425
  8
LE_ALL
  6
STRICHPUNKT2
 62
     1
 10
534.42621475
 20
-176.92583432
 30
0.0
 11
537.23245779
 21
-177.27938771
 31
0.0
  0
LINE
  5
426
  8
LE_ALL
  6
STRICHPUNKT2
 62
     1
 10
534.42621475
 20
-176.92583432
 30
0.0
 11
531.61997171
 21
-176.57228093
 31
0.0
  0
LINE
  5
427
  8
LE_ALL
  6
STRICHPUNKT2
 62
     1
 10
534.42621475
 20
-176.92583432
 30
0.0
 11
535.48687493
 21
-175.99041997
 31
0.0
  0
LINE
  5
428
  8
LE_ALL
  6
STRICHPUNKT2
 62
     1
 10
534.42621475
 20
-176.92583432
 30
0.0
 11
533.36555458
 21
-177.86124867
 31
0.0
  0
LINE
  5
429
  8
LE_ALL
  6
STRICHPUNKT2
 62
     1
 10
545.03281647
 20
-166.62888181
 30
0.0
 11
545.03281647
 21
-168.23835752
 31
0.0
  0
LINE
  5
42A
  8
LE_ALL
  6
STRICHPUNKT2
 62
     1
 10
545.03281647
 20
-167.57169085
 30
0.0
 11
547.83905951
 21
-167.92524424
 31
0.0
  0
LINE
  5
42B
  8
LE_ALL
  6
STRICHPUNKT2
 62
     1
 10
545.03281647
 20
-167.57169085
 30
0.0
 11
542.22657343
 21
-167.21813746
 31
0.0
  0
LINE
  5
42C
  8
LE_ALL
  6
STRICHPUNKT2
 62
     1
 10
545.03281647
 20
-167.57169085
 30
0.0
 11
546.09347664
 21
-166.63627651
 31
0.0
  0
LINE
  5
42D
  8
LE_ALL
  6
STRICHPUNKT2
 62
     1
 10
545.03281647
 20
-167.57169085
 30
0.0
 11
543.9721563
 21
-168.5071052
 31
0.0
  0
LINE
  5
42E
  8
LE_ALL
  6
STRICHPUNKT2
 62
     1
 10
530.84307932
 20
-169.00785651
 30
0.0
 11
530.84307932
 21
-172.7327443
 31
0.0
  0
LINE
  5
42F
  8
LE_ALL
  6
STRICHPUNKT2
 62
     1
 10
550.4867806
 20
-171.48273024
 30
0.0
 11
550.4867806
 21
-175.10405058
 31
0.0
  0
LINE
  5
430
  8
LE_ALL
  6
STRICHPUNKT2
 62
     1
 10
524.52903248
 20
-170.33368172
 30
0.0
 11
556.80082744
 21
-174.39954571
 31
0.0
  0
LINE
  5
431
  8
LE_ALL
  6
STRICHPUNKT2
 62
     1
 10
528.45659393
 20
-173.23385913
 30
0.0
 11
533.22956471
 21
-169.02449457
 31
0.0
  0
LINE
  5
432
  8
LE_ALL
  6
STRICHPUNKT2
 62
     1
 10
548.10029521
 20
-175.70873286
 30
0.0
 11
552.87326599
 21
-171.4993683
 31
0.0
  0
LINE
  5
433
  8
LE_ALL
  6
STRICHPUNKT2
 62
     1
 10
531.59062493
 20
-172.8269262
 30
0.0
 11
532.43406958
 21
-172.08307793
 31
0.0
  0
LINE
  5
434
  8
LE_ALL
  6
STRICHPUNKT2
 62
     1
 10
551.50244081
 20
-175.06534508
 30
0.0
 11
552.07777086
 21
-174.55795167
 31
0.0
  0
ENDBLK
  8
0
  0
BLOCK
  8
0
  2
BEND_ZONE_00062
 70
     0
 10
0.0
 20
0.0
 30
0.0
  0
INSERT
  5
437
  8
0
  2
BEND_ZONE_00063
 10
506.2052624
 20
-176.35853076
 30
0.0
  0
ENDBLK
  8
0
  0
BLOCK
  8
0
  2
BEND_ZONE_00063
 70
     0
 10
506.2052624
 20
-176.35853076
 30
0.0
  0
LINE
  5
43A
  8
LE_ALL
 10
506.2052624
 20
-176.35853076
 30
0.0
 11
527.41846584
 21
-157.65024383
 31
0.0
  0
POLYLINE
  5
43B
  8
LE_ALL
 66
     1
 10
0.0
 20
0.0
 30
0.0
  0
VERTEX
  5
809
  8
LE_ALL
 10
503.8667265454856
 20
-176.0639029453177
 30
0.0
  0
VERTEX
  5
80A
  8
LE_ALL
 10
503.9565951712494
 20
-176.9948899196922
 30
0.0
  0
VERTEX
  5
80B
  8
LE_ALL
 10
504.2227474380448
 20
-177.912744350825
 30
0.0
  0
VERTEX
  5
80C
  8
LE_ALL
 10
504.654955263607
 20
-178.7821936079706
 30
0.0
  0
VERTEX
  5
80D
  8
LE_ALL
 10
505.2366091437278
 20
-179.5698252440577
 30
0.0
  0
VERTEX
  5
80E
  8
LE_ALL
 10
505.9453564461822
 20
-180.2453710172815
 30
0.0
  0
VERTEX
  5
80F
  8
LE_ALL
 10
506.7539604098419
 20
-180.7828700826513
 30
0.0
  0
VERTEX
  5
810
  8
LE_ALL
 10
507.6313468381215
 20
-181.161666652696
 30
0.0
  0
VERTEX
  5
811
  8
LE_ALL
 10
508.5437982629173
 20
-181.3672037877859
 30
0.0
  0
SEQEND
  5
932
  8
LE_ALL
  0
POLYLINE
  5
43C
  8
LE_ALL
 66
     1
 10
0.0
 20
0.0
 30
0.0
  0
VERTEX
  5
812
  8
LE_ALL
 10
506.2052624077428
 20
-176.3585307676588
 30
0.0
  0
VERTEX
  5
813
  8
LE_ALL
 10
506.2501967206247
 20
-176.8240242548461
 30
0.0
  0
VERTEX
  5
814
  8
LE_ALL
 10
506.3832728540224
 20
-177.2829514704125
 30
0.0
  0
VERTEX
  5
815
  8
LE_ALL
 10
506.5993767668035
 20
-177.7176760989853
 30
0.0
  0
VERTEX
  5
816
  8
LE_ALL
 10
506.8902037068639
 20
-178.1114919170289
 30
0.0
  0
VERTEX
  5
817
  8
LE_ALL
 10
507.2445773580911
 20
-178.4492648036408
 30
0.0
  0
VERTEX
  5
818
  8
LE_ALL
 10
507.6488793399209
 20
-178.7180143363257
 30
0.0
  0
VERTEX
  5
819
  8
LE_ALL
 10
508.0875725540608
 20
-178.907412621348
 30
0.0
  0
VERTEX
  5
81A
  8
LE_ALL
 10
508.5437982664587
 20
-179.0101811888929
 30
0.0
  0
SEQEND
  5
933
  8
LE_ALL
  0
POLYLINE
  5
43D
  8
LE_ALL
 66
     1
 10
0.0
 20
0.0
 30
0.0
  0
VERTEX
  5
43E
  8
LE_ALL
 10
508.54379827
 20
-179.01018119
 30
0.0
  0
VERTEX
  5
43F
  8
LE_ALL
 10
529.7570017
 20
-160.30189426
 30
0.0
  0
SEQEND
  5
440
  8
LE_ALL
  0
POLYLINE
  5
441
  8
LE_ALL
 66
     1
 10
0.0
 20
0.0
 30
0.0
  0
VERTEX
  5
81B
  8
LE_ALL
 10
527.4184658377428
 20
-157.6502438276588
 30
0.0
  0
VERTEX
  5
81C
  8
LE_ALL
 10
527.4634001506248
 20
-158.1157373148461
 30
0.0
  0
VERTEX
  5
81D
  8
LE_ALL
 10
527.5964762840224
 20
-158.5746645304125
 30
0.0
  0
VERTEX
  5
81E
  8
LE_ALL
 10
527.8125801968035
 20
-159.0093891589853
 30
0.0
  0
VERTEX
  5
81F
  8
LE_ALL
 10
528.103407136864
 20
-159.4032049770289
 30
0.0
  0
VERTEX
  5
820
  8
LE_ALL
 10
528.4577807880911
 20
-159.7409778636408
 30
0.0
  0
VERTEX
  5
821
  8
LE_ALL
 10
528.8620827699209
 20
-160.0097273963257
 30
0.0
  0
VERTEX
  5
822
  8
LE_ALL
 10
529.3007759840608
 20
-160.199125681348
 30
0.0
  0
VERTEX
  5
823
  8
LE_ALL
 10
529.7570016964587
 20
-160.3018942488929
 30
0.0
  0
SEQEND
  5
934
  8
LE_ALL
  0
ENDBLK
  8
0
  0
BLOCK
  8
0
  2
SHEET_FLANGE_00064
 70
     0
 10
0.0
 20
0.0
 30
0.0
  0
INSERT
  5
444
  8
0
  2
SHEET_FLANGE_00065
 10
518.93318446
 20
-151.93423202
 30
0.0
  0
INSERT
  5
445
  8
0
  2
_00066
 10
0.0
 20
0.0
 30
0.0
  0
ENDBLK
  8
0
  0
BLOCK
  8
0
  2
SHEET_FLANGE_00065
 70
     0
 10
518.93318446
 20
-151.93423202
 30
0.0
  0
POLYLINE
  5
448
  8
LE_ALL
 66
     1
 10
0.0
 20
0.0
 30
0.0
  0
VERTEX
  5
824
  8
LE_ALL
 10
516.06186412
 20
-159.75800116
 30
0.0
  0
VERTEX
  5
825
  8
LE_ALL
 10
516.4568410111673
 20
-159.6952312797101
 30
0.0
  0
VERTEX
  5
826
  8
LE_ALL
 10
516.8650306401356
 20
-159.413249530093
 30
0.0
  0
VERTEX
  5
827
  8
LE_ALL
 10
517.2712415942715
 20
-158.9225503010342
 30
0.0
  0
VERTEX
  5
828
  8
LE_ALL
 10
517.6603561004067
 20
-158.24139572841
 30
0.0
  0
VERTEX
  5
829
  8
LE_ALL
 10
518.0178926563053
 20
-157.3951360402654
 30
0.0
  0
VERTEX
  5
82A
  8
LE_ALL
 10
518.3305449823201
 20
-156.4152661086042
 30
0.0
  0
VERTEX
  5
82B
  8
LE_ALL
 10
518.5866772353083
 20
-155.3382533186873
 30
0.0
  0
VERTEX
  5
82C
  8
LE_ALL
 10
518.7767570546515
 20
-154.2041803785063
 30
0.0
  0
VERTEX
  5
82D
  8
LE_ALL
 10
518.8937103238999
 20
-153.0552535783932
 30
0.0
  0
VERTEX
  5
82E
  8
LE_ALL
 10
518.9331844450307
 20
-151.9342320182064
 30
0.0
  0
SEQEND
  5
935
  8
LE_ALL
  0
POLYLINE
  5
449
  8
LE_ALL
 66
     1
 10
0.0
 20
0.0
 30
0.0
  0
VERTEX
  5
82F
  8
LE_ALL
 10
514.6905437949694
 20
-155.6758893814867
 30
0.0
  0
VERTEX
  5
830
  8
LE_ALL
 10
514.7334938419009
 20
-156.7705657908094
 30
0.0
  0
VERTEX
  5
831
  8
LE_ALL
 10
514.8606047830027
 20
-157.74515793897
 30
0.0
  0
VERTEX
  5
832
  8
LE_ALL
 10
515.0667294264703
 20
-158.5602009878187
 30
0.0
  0
VERTEX
  5
833
  8
LE_ALL
 10
515.3435210236574
 20
-159.1826908319268
 30
0.0
  0
VERTEX
  5
834
  8
LE_ALL
 10
515.6797712597787
 20
-159.5874205567979
 30
0.0
  0
VERTEX
  5
835
  8
LE_ALL
 10
516.06186412
 20
-159.75800116
 30
0.0
  0
SEQEND
  5
936
  8
LE_ALL
  0
POLYLINE
  5
44A
  8
LE_ALL
 66
     1
 10
0.0
 20
0.0
 30
0.0
  0
VERTEX
  5
44B
  8
LE_ALL
 10
514.69054378
 20
-155.6758894
 30
0.0
  0
VERTEX
  5
44C
  8
LE_ALL
 10
514.69054378
 20
-138.70532666
 30
0.0
  0
SEQEND
  5
44D
  8
LE_ALL
  0
POLYLINE
  5
44E
  8
LE_ALL
 66
     1
 10
0.0
 20
0.0
 30
0.0
  0
VERTEX
  5
836
  8
LE_ALL
 10
517.5618641271233
 20
-130.8815575108974
 30
0.0
  0
VERTEX
  5
837
  8
LE_ALL
 10
517.1668872363405
 20
-130.9443273870673
 30
0.0
  0
VERTEX
  5
838
  8
LE_ALL
 10
516.7586976074771
 20
-131.2263091326843
 30
0.0
  0
VERTEX
  5
839
  8
LE_ALL
 10
516.3524866531628
 20
-131.7170083580118
 30
0.0
  0
VERTEX
  5
83A
  8
LE_ALL
 10
515.9633721465727
 20
-132.3981629273123
 30
0.0
  0
VERTEX
  5
83B
  8
LE_ALL
 10
515.6058355899594
 20
-133.2444226126647
 30
0.0
  0
VERTEX
  5
83C
  8
LE_ALL
 10
515.2931832629965
 20
-134.2242925421688
 30
0.0
  0
VERTEX
  5
83D
  8
LE_ALL
 10
515.0370510088627
 20
-135.3013053306443
 30
0.0
  0
VERTEX
  5
83E
  8
LE_ALL
 10
514.8469711882185
 20
-136.4353782701531
 30
0.0
  0
VERTEX
  5
83F
  8
LE_ALL
 10
514.7300179175623
 20
-137.5843050703882
 30
0.0
  0
VERTEX
  5
840
  8
LE_ALL
 10
514.6905437949694
 20
-138.7053266314867
 30
0.0
  0
SEQEND
  5
937
  8
LE_ALL
  0
POLYLINE
  5
44F
  8
LE_ALL
 66
     1
 10
0.0
 20
0.0
 30
0.0
  0
VERTEX
  5
841
  8
LE_ALL
 10
518.9331844450307
 20
-134.9636692682064
 30
0.0
  0
VERTEX
  5
842
  8
LE_ALL
 10
518.8902343970826
 20
-133.8689928668231
 30
0.0
  0
VERTEX
  5
843
  8
LE_ALL
 10
518.7631234560014
 20
-132.8944007256819
 30
0.0
  0
VERTEX
  5
844
  8
LE_ALL
 10
518.5569988135297
 20
-132.0793576821813
 30
0.0
  0
VERTEX
  5
845
  8
LE_ALL
 10
518.2802072181745
 20
-131.4568678411429
 30
0.0
  0
VERTEX
  5
846
  8
LE_ALL
 10
517.9439569845147
 20
-131.0521381166406
 30
0.0
  0
VERTEX
  5
847
  8
LE_ALL
 10
517.5618641271233
 20
-130.8815575108974
 30
0.0
  0
SEQEND
  5
938
  8
LE_ALL
  0
LINE
  5
450
  8
LE_ALL
 10
518.93318446
 20
-134.96366927
 30
0.0
 11
518.93318446
 21
-151.93423202
 31
0.0
  0
LINE
  5
451
  8
LE_ALL
 10
516.5946486
 20
-151.63960419
 30
0.0
 11
518.93318446
 21
-151.93423202
 31
0.0
  0
POLYLINE
  5
452
  8
LE_ALL
 66
     1
 10
0.0
 20
0.0
 30
0.0
  0
VERTEX
  5
848
  8
LE_ALL
 10
515.0366361975663
 20
-158.4674050402415
 30
0.0
  0
VERTEX
  5
849
  8
LE_ALL
 10
515.4051376656645
 20
-157.7705479549226
 30
0.0
  0
VERTEX
  5
84A
  8
LE_ALL
 10
515.7414937970851
 20
-156.9267264466808
 30
0.0
  0
VERTEX
  5
84B
  8
LE_ALL
 10
516.0341010590603
 20
-155.9650504665664
 30
0.0
  0
VERTEX
  5
84C
  8
LE_ALL
 10
516.2728651567777
 20
-154.9186956808002
 30
0.0
  0
VERTEX
  5
84D
  8
LE_ALL
 10
516.4495492639309
 20
-153.823758984635
 30
0.0
  0
VERTEX
  5
84E
  8
LE_ALL
 10
516.5580581747679
 20
-152.7180132403612
 30
0.0
  0
VERTEX
  5
84F
  8
LE_ALL
 10
516.5946485750308
 20
-151.6396041982064
 30
0.0
  0
SEQEND
  5
939
  8
LE_ALL
  0
POLYLINE
  5
453
  8
LE_ALL
 66
     1
 10
0.0
 20
0.0
 30
0.0
  0
VERTEX
  5
454
  8
LE_ALL
 10
516.5946486
 20
-151.63960419
 30
0.0
  0
VERTEX
  5
455
  8
LE_ALL
 10
516.5946486
 20
-134.66904144
 30
0.0
  0
VERTEX
  5
456
  8
LE_ALL
 10
518.93318446
 20
-134.96366927
 30
0.0
  0
SEQEND
  5
457
  8
LE_ALL
  0
POLYLINE
  5
458
  8
LE_ALL
 66
     1
 10
0.0
 20
0.0
 30
0.0
  0
VERTEX
  5
850
  8
LE_ALL
 10
516.5946485750308
 20
-134.6690414482064
 30
0.0
  0
VERTEX
  5
851
  8
LE_ALL
 10
516.5552229246573
 20
-133.6182637322179
 30
0.0
  0
VERTEX
  5
852
  8
LE_ALL
 10
516.4384114556678
 20
-132.6760846433802
 30
0.0
  0
VERTEX
  5
853
  8
LE_ALL
 10
516.2485561509978
 20
-131.8775257901159
 30
0.0
  0
SEQEND
  5
93A
  8
LE_ALL
  0
POLYLINE
  5
459
  8
LE_ALL
 66
     1
 10
0.0
 20
0.0
 30
0.0
  0
VERTEX
  5
854
  8
LE_ALL
 10
521.86516498
 20
-143.56983012
 30
0.0
  0
VERTEX
  5
855
  8
LE_ALL
 10
521.9990087770503
 20
-143.5479596196303
 30
0.0
  0
VERTEX
  5
856
  8
LE_ALL
 10
522.1373163918288
 20
-143.450673536276
 30
0.0
  0
VERTEX
  5
857
  8
LE_ALL
 10
522.2747727402752
 20
-143.281710519553
 30
0.0
  0
VERTEX
  5
858
  8
LE_ALL
 10
522.4060954520172
 20
-143.0475637234238
 30
0.0
  0
VERTEX
  5
859
  8
LE_ALL
 10
522.5262378689008
 20
-142.7572312779321
 30
0.0
  0
VERTEX
  5
85A
  8
LE_ALL
 10
522.6305829852323
 20
-142.4218704961124
 30
0.0
  0
VERTEX
  5
85B
  8
LE_ALL
 10
522.7151208767175
 20
-142.0543691047081
 30
0.0
  0
VERTEX
  5
85C
  8
LE_ALL
 10
522.7766027996036
 20
-141.6688499760616
 30
0.0
  0
VERTEX
  5
85D
  8
LE_ALL
 10
522.8126660380789
 20
-141.2801283940515
 30
0.0
  0
VERTEX
  5
85E
  8
LE_ALL
 10
522.8219247021162
 20
-140.9031427110427
 30
0.0
  0
VERTEX
  5
85F
  8
LE_ALL
 10
522.8040229864499
 20
-140.5523802753843
 30
0.0
  0
VERTEX
  5
860
  8
LE_ALL
 10
522.7596488439722
 20
-140.2413206907381
 30
0.0
  0
VERTEX
  5
861
  8
LE_ALL
 10
522.6905075480892
 20
-139.9819178024706
 30
0.0
  0
VERTEX
  5
862
  8
LE_ALL
 10
522.5992561600206
 20
-139.7841403180803
 30
0.0
  0
VERTEX
  5
863
  8
LE_ALL
 10
522.4894014194276
 20
-139.6555887153603
 30
0.0
  0
VERTEX
  5
864
  8
LE_ALL
 10
522.3651649823745
 20
-139.6012031602991
 30
0.0
  0
SEQEND
  5
93B
  8
LE_ALL
  0
POLYLINE
  5
45A
  8
LE_ALL
 66
     1
 10
0.0
 20
0.0
 30
0.0
  0
VERTEX
  5
865
  8
LE_ALL
 10
522.3651649823745
 20
-139.6012031602991
 30
0.0
  0
VERTEX
  5
866
  8
LE_ALL
 10
522.2313211851406
 20
-139.6230736594104
 30
0.0
  0
VERTEX
  5
867
  8
LE_ALL
 10
522.0930135700742
 20
-139.7203597418869
 30
0.0
  0
VERTEX
  5
868
  8
LE_ALL
 10
521.9555572212704
 20
-139.889322758129
 30
0.0
  0
VERTEX
  5
869
  8
LE_ALL
 10
521.8242345091396
 20
-140.1234695541635
 30
0.0
  0
VERTEX
  5
86A
  8
LE_ALL
 10
521.7040920918737
 20
-140.4138019999092
 30
0.0
  0
VERTEX
  5
86B
  8
LE_ALL
 10
521.5997469752023
 20
-140.749162782271
 30
0.0
  0
VERTEX
  5
86C
  8
LE_ALL
 10
521.5152090834505
 20
-141.1166641744259
 30
0.0
  0
VERTEX
  5
86D
  8
LE_ALL
 10
521.4537271603965
 20
-141.5021833039384
 30
0.0
  0
VERTEX
  5
86E
  8
LE_ALL
 10
521.4176639218691
 20
-141.8909048868291
 30
0.0
  0
VERTEX
  5
86F
  8
LE_ALL
 10
521.4084052579038
 20
-142.2678905706312
 30
0.0
  0
VERTEX
  5
870
  8
LE_ALL
 10
521.426306973765
 20
-142.6186530068991
 30
0.0
  0
VERTEX
  5
871
  8
LE_ALL
 10
521.47068111655
 20
-142.9297125918861
 30
0.0
  0
VERTEX
  5
872
  8
LE_ALL
 10
521.5398224128332
 20
-143.1891154801583
 30
0.0
  0
VERTEX
  5
873
  8
LE_ALL
 10
521.6310738013673
 20
-143.3868929641714
 30
0.0
  0
VERTEX
  5
874
  8
LE_ALL
 10
521.7409285424569
 20
-143.5154445661124
 30
0.0
  0
VERTEX
  5
875
  8
LE_ALL
 10
521.86516498
 20
-143.56983012
 30
0.0
  0
SEQEND
  5
93C
  8
LE_ALL
  0
POLYLINE
  5
45B
  8
LE_ALL
 66
     1
 10
0.0
 20
0.0
 30
0.0
  0
VERTEX
  5
876
  8
LE_ALL
 10
511.25856326
 20
-152.92397359
 30
0.0
  0
VERTEX
  5
877
  8
LE_ALL
 10
511.3924070570504
 20
-152.9021030896303
 30
0.0
  0
VERTEX
  5
878
  8
LE_ALL
 10
511.5307146718287
 20
-152.804817006276
 30
0.0
  0
VERTEX
  5
879
  8
LE_ALL
 10
511.6681710202751
 20
-152.635853989553
 30
0.0
  0
VERTEX
  5
87A
  8
LE_ALL
 10
511.7994937320173
 20
-152.4017071934238
 30
0.0
  0
VERTEX
  5
87B
  8
LE_ALL
 10
511.9196361489008
 20
-152.1113747479321
 30
0.0
  0
VERTEX
  5
87C
  8
LE_ALL
 10
512.0239812652322
 20
-151.7760139661124
 30
0.0
  0
VERTEX
  5
87D
  8
LE_ALL
 10
512.1085191567175
 20
-151.4085125747081
 30
0.0
  0
VERTEX
  5
87E
  8
LE_ALL
 10
512.1700010796036
 20
-151.0229934460616
 30
0.0
  0
VERTEX
  5
87F
  8
LE_ALL
 10
512.2060643180788
 20
-150.6342718640515
 30
0.0
  0
VERTEX
  5
880
  8
LE_ALL
 10
512.2153229821162
 20
-150.2572861810427
 30
0.0
  0
VERTEX
  5
881
  8
LE_ALL
 10
512.19742126645
 20
-149.9065237453843
 30
0.0
  0
VERTEX
  5
882
  8
LE_ALL
 10
512.1530471239722
 20
-149.5954641607381
 30
0.0
  0
VERTEX
  5
883
  8
LE_ALL
 10
512.0839058280891
 20
-149.3360612724706
 30
0.0
  0
VERTEX
  5
884
  8
LE_ALL
 10
511.9926544400205
 20
-149.1382837880803
 30
0.0
  0
VERTEX
  5
885
  8
LE_ALL
 10
511.8827996994276
 20
-149.0097321853603
 30
0.0
  0
VERTEX
  5
886
  8
LE_ALL
 10
511.7585632623744
 20
-148.9553466302991
 30
0.0
  0
SEQEND
  5
93D
  8
LE_ALL
  0
POLYLINE
  5
45C
  8
LE_ALL
 66
     1
 10
0.0
 20
0.0
 30
0.0
  0
VERTEX
  5
887
  8
LE_ALL
 10
511.7585632623744
 20
-148.9553466302991
 30
0.0
  0
VERTEX
  5
888
  8
LE_ALL
 10
511.6247194651406
 20
-148.9772171294104
 30
0.0
  0
VERTEX
  5
889
  8
LE_ALL
 10
511.4864118500741
 20
-149.0745032118868
 30
0.0
  0
VERTEX
  5
88A
  8
LE_ALL
 10
511.3489555012704
 20
-149.243466228129
 30
0.0
  0
VERTEX
  5
88B
  8
LE_ALL
 10
511.2176327891396
 20
-149.4776130241635
 30
0.0
  0
VERTEX
  5
88C
  8
LE_ALL
 10
511.0974903718737
 20
-149.7679454699092
 30
0.0
  0
VERTEX
  5
88D
  8
LE_ALL
 10
510.9931452552022
 20
-150.103306252271
 30
0.0
  0
VERTEX
  5
88E
  8
LE_ALL
 10
510.9086073634504
 20
-150.4708076444259
 30
0.0
  0
VERTEX
  5
88F
  8
LE_ALL
 10
510.8471254403964
 20
-150.8563267739384
 30
0.0
  0
VERTEX
  5
890
  8
LE_ALL
 10
510.8110622018691
 20
-151.2450483568291
 30
0.0
  0
VERTEX
  5
891
  8
LE_ALL
 10
510.8018035379037
 20
-151.6220340406312
 30
0.0
  0
VERTEX
  5
892
  8
LE_ALL
 10
510.8197052537649
 20
-151.9727964768991
 30
0.0
  0
VERTEX
  5
893
  8
LE_ALL
 10
510.86407939655
 20
-152.2838560618861
 30
0.0
  0
VERTEX
  5
894
  8
LE_ALL
 10
510.9332206928332
 20
-152.5432589501583
 30
0.0
  0
VERTEX
  5
895
  8
LE_ALL
 10
511.0244720813673
 20
-152.7410364341714
 30
0.0
  0
VERTEX
  5
896
  8
LE_ALL
 10
511.134326822457
 20
-152.8695880361124
 30
0.0
  0
VERTEX
  5
897
  8
LE_ALL
 10
511.25856326
 20
-152.92397359
 30
0.0
  0
SEQEND
  5
93E
  8
LE_ALL
  0
POLYLINE
  5
45D
  8
LE_ALL
 66
     1
 10
0.0
 20
0.0
 30
0.0
  0
VERTEX
  5
898
  8
LE_ALL
 10
523.63293193
 20
-127.86867059
 30
0.0
  0
VERTEX
  5
899
  8
LE_ALL
 10
523.7667757270503
 20
-127.8468000896303
 30
0.0
  0
VERTEX
  5
89A
  8
LE_ALL
 10
523.9050833418288
 20
-127.749514006276
 30
0.0
  0
VERTEX
  5
89B
  8
LE_ALL
 10
524.0425396902752
 20
-127.580550989553
 30
0.0
  0
VERTEX
  5
89C
  8
LE_ALL
 10
524.1738624020172
 20
-127.3464041934239
 30
0.0
  0
VERTEX
  5
89D
  8
LE_ALL
 10
524.2940048189008
 20
-127.0560717479321
 30
0.0
  0
VERTEX
  5
89E
  8
LE_ALL
 10
524.3983499352323
 20
-126.7207109661124
 30
0.0
  0
VERTEX
  5
89F
  8
LE_ALL
 10
524.4828878267175
 20
-126.3532095747081
 30
0.0
  0
VERTEX
  5
8A0
  8
LE_ALL
 10
524.5443697496036
 20
-125.9676904460616
 30
0.0
  0
VERTEX
  5
8A1
  8
LE_ALL
 10
524.5804329880789
 20
-125.5789688640515
 30
0.0
  0
VERTEX
  5
8A2
  8
LE_ALL
 10
524.5896916521162
 20
-125.2019831810427
 30
0.0
  0
VERTEX
  5
8A3
  8
LE_ALL
 10
524.5717899364499
 20
-124.8512207453843
 30
0.0
  0
VERTEX
  5
8A4
  8
LE_ALL
 10
524.5274157939722
 20
-124.5401611607381
 30
0.0
  0
VERTEX
  5
8A5
  8
LE_ALL
 10
524.4582744980892
 20
-124.2807582724705
 30
0.0
  0
VERTEX
  5
8A6
  8
LE_ALL
 10
524.3670231100206
 20
-124.0829807880803
 30
0.0
  0
VERTEX
  5
8A7
  8
LE_ALL
 10
524.2571683694276
 20
-123.9544291853603
 30
0.0
  0
VERTEX
  5
8A8
  8
LE_ALL
 10
524.1329319323745
 20
-123.9000436302992
 30
0.0
  0
SEQEND
  5
93F
  8
LE_ALL
  0
POLYLINE
  5
45E
  8
LE_ALL
 66
     1
 10
0.0
 20
0.0
 30
0.0
  0
VERTEX
  5
8A9
  8
LE_ALL
 10
524.1329319323745
 20
-123.9000436302992
 30
0.0
  0
VERTEX
  5
8AA
  8
LE_ALL
 10
523.9990881351406
 20
-123.9219141294104
 30
0.0
  0
VERTEX
  5
8AB
  8
LE_ALL
 10
523.8607805200742
 20
-124.0192002118869
 30
0.0
  0
VERTEX
  5
8AC
  8
LE_ALL
 10
523.7233241712704
 20
-124.188163228129
 30
0.0
  0
VERTEX
  5
8AD
  8
LE_ALL
 10
523.5920014591396
 20
-124.4223100241635
 30
0.0
  0
VERTEX
  5
8AE
  8
LE_ALL
 10
523.4718590418737
 20
-124.7126424699092
 30
0.0
  0
VERTEX
  5
8AF
  8
LE_ALL
 10
523.3675139252023
 20
-125.048003252271
 30
0.0
  0
VERTEX
  5
8B0
  8
LE_ALL
 10
523.2829760334505
 20
-125.4155046444259
 30
0.0
  0
VERTEX
  5
8B1
  8
LE_ALL
 10
523.2214941103965
 20
-125.8010237739384
 30
0.0
  0
VERTEX
  5
8B2
  8
LE_ALL
 10
523.1854308718691
 20
-126.1897453568291
 30
0.0
  0
VERTEX
  5
8B3
  8
LE_ALL
 10
523.1761722079038
 20
-126.5667310406312
 30
0.0
  0
VERTEX
  5
8B4
  8
LE_ALL
 10
523.194073923765
 20
-126.9174934768991
 30
0.0
  0
VERTEX
  5
8B5
  8
LE_ALL
 10
523.2384480665501
 20
-127.2285530618861
 30
0.0
  0
VERTEX
  5
8B6
  8
LE_ALL
 10
523.3075893628333
 20
-127.4879559501583
 30
0.0
  0
VERTEX
  5
8B7
  8
LE_ALL
 10
523.3988407513673
 20
-127.6857334341714
 30
0.0
  0
VERTEX
  5
8B8
  8
LE_ALL
 10
523.5086954924569
 20
-127.8142850361124
 30
0.0
  0
VERTEX
  5
8B9
  8
LE_ALL
 10
523.63293193
 20
-127.86867059
 30
0.0
  0
SEQEND
  5
940
  8
LE_ALL
  0
POLYLINE
  5
45F
  8
LE_ALL
 66
     1
 10
0.0
 20
0.0
 30
0.0
  0
VERTEX
  5
8BA
  8
LE_ALL
 10
509.49079631
 20
-140.34086188
 30
0.0
  0
VERTEX
  5
8BB
  8
LE_ALL
 10
509.6246401070504
 20
-140.3189913796303
 30
0.0
  0
VERTEX
  5
8BC
  8
LE_ALL
 10
509.7629477218287
 20
-140.221705296276
 30
0.0
  0
VERTEX
  5
8BD
  8
LE_ALL
 10
509.9004040702751
 20
-140.052742279553
 30
0.0
  0
VERTEX
  5
8BE
  8
LE_ALL
 10
510.0317267820172
 20
-139.8185954834238
 30
0.0
  0
VERTEX
  5
8BF
  8
LE_ALL
 10
510.1518691989008
 20
-139.5282630379321
 30
0.0
  0
VERTEX
  5
8C0
  8
LE_ALL
 10
510.2562143152323
 20
-139.1929022561124
 30
0.0
  0
VERTEX
  5
8C1
  8
LE_ALL
 10
510.3407522067175
 20
-138.8254008647081
 30
0.0
  0
VERTEX
  5
8C2
  8
LE_ALL
 10
510.4022341296036
 20
-138.4398817360616
 30
0.0
  0
VERTEX
  5
8C3
  8
LE_ALL
 10
510.4382973680788
 20
-138.0511601540515
 30
0.0
  0
VERTEX
  5
8C4
  8
LE_ALL
 10
510.4475560321162
 20
-137.6741744710427
 30
0.0
  0
VERTEX
  5
8C5
  8
LE_ALL
 10
510.42965431645
 20
-137.3234120353843
 30
0.0
  0
VERTEX
  5
8C6
  8
LE_ALL
 10
510.3852801739721
 20
-137.0123524507381
 30
0.0
  0
VERTEX
  5
8C7
  8
LE_ALL
 10
510.316138878089
 20
-136.7529495624706
 30
0.0
  0
VERTEX
  5
8C8
  8
LE_ALL
 10
510.2248874900205
 20
-136.5551720780803
 30
0.0
  0
VERTEX
  5
8C9
  8
LE_ALL
 10
510.1150327494276
 20
-136.4266204753603
 30
0.0
  0
VERTEX
  5
8CA
  8
LE_ALL
 10
509.9907963123744
 20
-136.3722349202991
 30
0.0
  0
SEQEND
  5
941
  8
LE_ALL
  0
POLYLINE
  5
460
  8
LE_ALL
 66
     1
 10
0.0
 20
0.0
 30
0.0
  0
VERTEX
  5
8CB
  8
LE_ALL
 10
509.9907963123744
 20
-136.3722349202991
 30
0.0
  0
VERTEX
  5
8CC
  8
LE_ALL
 10
509.8569525151406
 20
-136.3941054194104
 30
0.0
  0
VERTEX
  5
8CD
  8
LE_ALL
 10
509.7186449000741
 20
-136.4913915018869
 30
0.0
  0
VERTEX
  5
8CE
  8
LE_ALL
 10
509.5811885512704
 20
-136.660354518129
 30
0.0
  0
VERTEX
  5
8CF
  8
LE_ALL
 10
509.4498658391396
 20
-136.8945013141635
 30
0.0
  0
VERTEX
  5
8D0
  8
LE_ALL
 10
509.3297234218737
 20
-137.1848337599092
 30
0.0
  0
VERTEX
  5
8D1
  8
LE_ALL
 10
509.2253783052022
 20
-137.520194542271
 30
0.0
  0
VERTEX
  5
8D2
  8
LE_ALL
 10
509.1408404134504
 20
-137.8876959344259
 30
0.0
  0
VERTEX
  5
8D3
  8
LE_ALL
 10
509.0793584903964
 20
-138.2732150639384
 30
0.0
  0
VERTEX
  5
8D4
  8
LE_ALL
 10
509.0432952518691
 20
-138.6619366468291
 30
0.0
  0
VERTEX
  5
8D5
  8
LE_ALL
 10
509.0340365879037
 20
-139.0389223306312
 30
0.0
  0
VERTEX
  5
8D6
  8
LE_ALL
 10
509.0519383037649
 20
-139.3896847668991
 30
0.0
  0
VERTEX
  5
8D7
  8
LE_ALL
 10
509.09631244655
 20
-139.7007443518861
 30
0.0
  0
VERTEX
  5
8D8
  8
LE_ALL
 10
509.1654537428332
 20
-139.9601472401583
 30
0.0
  0
VERTEX
  5
8D9
  8
LE_ALL
 10
509.2567051313673
 20
-140.1579247241714
 30
0.0
  0
VERTEX
  5
8DA
  8
LE_ALL
 10
509.3665598724569
 20
-140.2864763261124
 30
0.0
  0
VERTEX
  5
8DB
  8
LE_ALL
 10
509.49079631
 20
-140.34086188
 30
0.0
  0
SEQEND
  5
942
  8
LE_ALL
  0
POLYLINE
  5
461
  8
LE_ALL
 66
     1
 10
0.0
 20
0.0
 30
0.0
  0
VERTEX
  5
8DC
  8
LE_ALL
 10
523.63293193
 20
-154.26732375
 30
0.0
  0
VERTEX
  5
8DD
  8
LE_ALL
 10
523.7667757270503
 20
-154.2454532496303
 30
0.0
  0
VERTEX
  5
8DE
  8
LE_ALL
 10
523.9050833418288
 20
-154.148167166276
 30
0.0
  0
VERTEX
  5
8DF
  8
LE_ALL
 10
524.0425396902752
 20
-153.979204149553
 30
0.0
  0
VERTEX
  5
8E0
  8
LE_ALL
 10
524.1738624020172
 20
-153.7450573534238
 30
0.0
  0
VERTEX
  5
8E1
  8
LE_ALL
 10
524.2940048189008
 20
-153.4547249079321
 30
0.0
  0
VERTEX
  5
8E2
  8
LE_ALL
 10
524.3983499352323
 20
-153.1193641261124
 30
0.0
  0
VERTEX
  5
8E3
  8
LE_ALL
 10
524.4828878267175
 20
-152.7518627347081
 30
0.0
  0
VERTEX
  5
8E4
  8
LE_ALL
 10
524.5443697496036
 20
-152.3663436060616
 30
0.0
  0
VERTEX
  5
8E5
  8
LE_ALL
 10
524.5804329880789
 20
-151.9776220240515
 30
0.0
  0
VERTEX
  5
8E6
  8
LE_ALL
 10
524.5896916521162
 20
-151.6006363410427
 30
0.0
  0
VERTEX
  5
8E7
  8
LE_ALL
 10
524.5717899364499
 20
-151.2498739053843
 30
0.0
  0
VERTEX
  5
8E8
  8
LE_ALL
 10
524.5274157939722
 20
-150.9388143207381
 30
0.0
  0
VERTEX
  5
8E9
  8
LE_ALL
 10
524.4582744980892
 20
-150.6794114324706
 30
0.0
  0
VERTEX
  5
8EA
  8
LE_ALL
 10
524.3670231100206
 20
-150.4816339480803
 30
0.0
  0
VERTEX
  5
8EB
  8
LE_ALL
 10
524.2571683694276
 20
-150.3530823453603
 30
0.0
  0
VERTEX
  5
8EC
  8
LE_ALL
 10
524.1329319323745
 20
-150.2986967902991
 30
0.0
  0
SEQEND
  5
943
  8
LE_ALL
  0
POLYLINE
  5
462
  8
LE_ALL
 66
     1
 10
0.0
 20
0.0
 30
0.0
  0
VERTEX
  5
8ED
  8
LE_ALL
 10
524.1329319323745
 20
-150.2986967902991
 30
0.0
  0
VERTEX
  5
8EE
  8
LE_ALL
 10
523.9990881351406
 20
-150.3205672894104
 30
0.0
  0
VERTEX
  5
8EF
  8
LE_ALL
 10
523.8607805200742
 20
-150.4178533718868
 30
0.0
  0
VERTEX
  5
8F0
  8
LE_ALL
 10
523.7233241712704
 20
-150.586816388129
 30
0.0
  0
VERTEX
  5
8F1
  8
LE_ALL
 10
523.5920014591396
 20
-150.8209631841635
 30
0.0
  0
VERTEX
  5
8F2
  8
LE_ALL
 10
523.4718590418737
 20
-151.1112956299092
 30
0.0
  0
VERTEX
  5
8F3
  8
LE_ALL
 10
523.3675139252023
 20
-151.446656412271
 30
0.0
  0
VERTEX
  5
8F4
  8
LE_ALL
 10
523.2829760334505
 20
-151.8141578044259
 30
0.0
  0
VERTEX
  5
8F5
  8
LE_ALL
 10
523.2214941103965
 20
-152.1996769339384
 30
0.0
  0
VERTEX
  5
8F6
  8
LE_ALL
 10
523.1854308718691
 20
-152.5883985168291
 30
0.0
  0
VERTEX
  5
8F7
  8
LE_ALL
 10
523.1761722079038
 20
-152.9653842006312
 30
0.0
  0
VERTEX
  5
8F8
  8
LE_ALL
 10
523.194073923765
 20
-153.3161466368991
 30
0.0
  0
VERTEX
  5
8F9
  8
LE_ALL
 10
523.2384480665501
 20
-153.6272062218861
 30
0.0
  0
VERTEX
  5
8FA
  8
LE_ALL
 10
523.3075893628333
 20
-153.8866091101583
 30
0.0
  0
VERTEX
  5
8FB
  8
LE_ALL
 10
523.3988407513673
 20
-154.0843865941714
 30
0.0
  0
VERTEX
  5
8FC
  8
LE_ALL
 10
523.5086954924569
 20
-154.2129381961124
 30
0.0
  0
VERTEX
  5
8FD
  8
LE_ALL
 10
523.63293193
 20
-154.26732375
 30
0.0
  0
SEQEND
  5
944
  8
LE_ALL
  0
POLYLINE
  5
463
  8
LE_ALL
 66
     1
 10
0.0
 20
0.0
 30
0.0
  0
VERTEX
  5
8FE
  8
LE_ALL
 10
509.49079631
 20
-166.73951504
 30
0.0
  0
VERTEX
  5
8FF
  8
LE_ALL
 10
509.6246401070504
 20
-166.7176445396303
 30
0.0
  0
VERTEX
  5
900
  8
LE_ALL
 10
509.7629477218287
 20
-166.620358456276
 30
0.0
  0
VERTEX
  5
901
  8
LE_ALL
 10
509.9004040702751
 20
-166.451395439553
 30
0.0
  0
VERTEX
  5
902
  8
LE_ALL
 10
510.0317267820172
 20
-166.2172486434238
 30
0.0
  0
VERTEX
  5
903
  8
LE_ALL
 10
510.1518691989008
 20
-165.9269161979321
 30
0.0
  0
VERTEX
  5
904
  8
LE_ALL
 10
510.2562143152323
 20
-165.5915554161124
 30
0.0
  0
VERTEX
  5
905
  8
LE_ALL
 10
510.3407522067175
 20
-165.2240540247081
 30
0.0
  0
VERTEX
  5
906
  8
LE_ALL
 10
510.4022341296036
 20
-164.8385348960616
 30
0.0
  0
VERTEX
  5
907
  8
LE_ALL
 10
510.4382973680788
 20
-164.4498133140515
 30
0.0
  0
VERTEX
  5
908
  8
LE_ALL
 10
510.4475560321162
 20
-164.0728276310427
 30
0.0
  0
VERTEX
  5
909
  8
LE_ALL
 10
510.42965431645
 20
-163.7220651953843
 30
0.0
  0
VERTEX
  5
90A
  8
LE_ALL
 10
510.3852801739721
 20
-163.4110056107381
 30
0.0
  0
VERTEX
  5
90B
  8
LE_ALL
 10
510.316138878089
 20
-163.1516027224706
 30
0.0
  0
VERTEX
  5
90C
  8
LE_ALL
 10
510.2248874900205
 20
-162.9538252380803
 30
0.0
  0
VERTEX
  5
90D
  8
LE_ALL
 10
510.1150327494276
 20
-162.8252736353603
 30
0.0
  0
VERTEX
  5
90E
  8
LE_ALL
 10
509.9907963123744
 20
-162.7708880802991
 30
0.0
  0
SEQEND
  5
945
  8
LE_ALL
  0
POLYLINE
  5
464
  8
LE_ALL
 66
     1
 10
0.0
 20
0.0
 30
0.0
  0
VERTEX
  5
90F
  8
LE_ALL
 10
509.9907963123744
 20
-162.7708880802991
 30
0.0
  0
VERTEX
  5
910
  8
LE_ALL
 10
509.8569525151406
 20
-162.7927585794104
 30
0.0
  0
VERTEX
  5
911
  8
LE_ALL
 10
509.7186449000741
 20
-162.8900446618868
 30
0.0
  0
VERTEX
  5
912
  8
LE_ALL
 10
509.5811885512704
 20
-163.059007678129
 30
0.0
  0
VERTEX
  5
913
  8
LE_ALL
 10
509.4498658391396
 20
-163.2931544741635
 30
0.0
  0
VERTEX
  5
914
  8
LE_ALL
 10
509.3297234218737
 20
-163.5834869199091
 30
0.0
  0
VERTEX
  5
915
  8
LE_ALL
 10
509.2253783052022
 20
-163.918847702271
 30
0.0
  0
VERTEX
  5
916
  8
LE_ALL
 10
509.1408404134504
 20
-164.2863490944259
 30
0.0
  0
VERTEX
  5
917
  8
LE_ALL
 10
509.0793584903964
 20
-164.6718682239384
 30
0.0
  0
VERTEX
  5
918
  8
LE_ALL
 10
509.0432952518691
 20
-165.0605898068291
 30
0.0
  0
VERTEX
  5
919
  8
LE_ALL
 10
509.0340365879037
 20
-165.4375754906312
 30
0.0
  0
VERTEX
  5
91A
  8
LE_ALL
 10
509.0519383037649
 20
-165.7883379268991
 30
0.0
  0
VERTEX
  5
91B
  8
LE_ALL
 10
509.09631244655
 20
-166.0993975118861
 30
0.0
  0
VERTEX
  5
91C
  8
LE_ALL
 10
509.1654537428332
 20
-166.3588004001583
 30
0.0
  0
VERTEX
  5
91D
  8
LE_ALL
 10
509.2567051313673
 20
-166.5565778841714
 30
0.0
  0
VERTEX
  5
91E
  8
LE_ALL
 10
509.3665598724569
 20
-166.6851294861124
 30
0.0
  0
VERTEX
  5
91F
  8
LE_ALL
 10
509.49079631
 20
-166.73951504
 30
0.0
  0
SEQEND
  5
946
  8
LE_ALL
  0
LINE
  5
465
  8
LE_ALL
 10
503.86672653
 20
-176.06390293
 30
0.0
 11
503.86672653
 21
-138.72866489
 31
0.0
  0
LINE
  5
466
  8
LE_ALL
 10
506.2052624
 20
-139.02329271
 30
0.0
 11
503.86672653
 21
-138.72866489
 31
0.0
  0
POLYLINE
  5
467
  8
LE_ALL
 66
     1
 10
0.0
 20
0.0
 30
0.0
 70
     1
  0
VERTEX
  5
468
  8
LE_ALL
 10
506.2052624
 20
-139.02329271
 30
0.0
  0
VERTEX
  5
469
  8
LE_ALL
 10
506.2052624
 20
-176.35853076
 30
0.0
  0
VERTEX
  5
46A
  8
LE_ALL
 10
527.41846584
 20
-157.65024383
 30
0.0
  0
VERTEX
  5
46B
  8
LE_ALL
 10
527.41846584
 20
-120.31500578
 30
0.0
  0
VERTEX
  5
46C
  8
LE_ALL
 10
525.50927753
 20
-116.90758278
 30
0.0
  0
VERTEX
  5
46D
  8
LE_ALL
 10
508.11445071
 20
-132.24837806
 30
0.0
  0
SEQEND
  5
46E
  8
LE_ALL
  0
POLYLINE
  5
46F
  8
LE_ALL
 66
     1
 10
0.0
 20
0.0
 30
0.0
  0
VERTEX
  5
470
  8
LE_ALL
 10
508.11445071
 20
-132.24837806
 30
0.0
  0
VERTEX
  5
471
  8
LE_ALL
 10
505.77591484
 20
-131.95375024
 30
0.0
  0
VERTEX
  5
472
  8
LE_ALL
 10
523.17074166
 20
-116.61295495
 30
0.0
  0
VERTEX
  5
473
  8
LE_ALL
 10
525.50927753
 20
-116.90758278
 30
0.0
  0
SEQEND
  5
474
  8
LE_ALL
  0
LINE
  5
475
  8
LE_ALL
 10
503.86672653
 20
-138.72866489
 30
0.0
 11
505.77591484
 21
-131.95375024
 31
0.0
  0
ENDBLK
  8
0
  0
BLOCK
  8
0
  2
_00066
 70
     0
 10
0.0
 20
0.0
 30
0.0
  0
INSERT
  5
478
  8
0
  2
_00067
 10
510.67621065
 20
-164.87305269
 30
0.0
  0
ENDBLK
  8
0
  0
BLOCK
  8
0
  2
_00067
 70
     0
 10
510.67621065
 20
-164.87305269
 30
0.0
  0
LINE
  5
47B
  8
LE_ALL
  6
STRICHPUNKT2
 62
     1
 10
510.67621065
 20
-164.87305269
 30
0.0
 11
509.07935848
 21
-164.67186823
 31
0.0
  0
LINE
  5
47C
  8
LE_ALL
  6
STRICHPUNKT2
 62
     1
 10
509.74079631
 20
-164.75520156
 30
0.0
 11
510.80145648
 21
-163.81978722
 31
0.0
  0
LINE
  5
47D
  8
LE_ALL
  6
STRICHPUNKT2
 62
     1
 10
509.74079631
 20
-164.75520156
 30
0.0
 11
508.68013614
 21
-165.69061591
 31
0.0
  0
LINE
  5
47E
  8
LE_ALL
  6
STRICHPUNKT2
 62
     1
 10
509.74079631
 20
-164.75520156
 30
0.0
 11
509.74079631
 21
-161.92677444
 31
0.0
  0
LINE
  5
47F
  8
LE_ALL
  6
STRICHPUNKT2
 62
     1
 10
509.74079631
 20
-164.75520156
 30
0.0
 11
509.74079631
 21
-167.58362869
 31
0.0
  0
LINE
  5
480
  8
LE_ALL
  6
STRICHPUNKT2
 62
     1
 10
524.81834628
 20
-152.4008614
 30
0.0
 11
523.2214941
 21
-152.19967694
 31
0.0
  0
LINE
  5
481
  8
LE_ALL
  6
STRICHPUNKT2
 62
     1
 10
523.88293193
 20
-152.28301027
 30
0.0
 11
524.9435921
 21
-151.34759593
 31
0.0
  0
LINE
  5
482
  8
LE_ALL
  6
STRICHPUNKT2
 62
     1
 10
523.88293193
 20
-152.28301027
 30
0.0
 11
522.82227176
 21
-153.21842462
 31
0.0
  0
LINE
  5
483
  8
LE_ALL
  6
STRICHPUNKT2
 62
     1
 10
523.88293193
 20
-152.28301027
 30
0.0
 11
523.88293193
 21
-149.45458315
 31
0.0
  0
LINE
  5
484
  8
LE_ALL
  6
STRICHPUNKT2
 62
     1
 10
523.88293193
 20
-152.28301027
 30
0.0
 11
523.88293193
 21
-155.1114374
 31
0.0
  0
LINE
  5
485
  8
LE_ALL
  6
STRICHPUNKT2
 62
     1
 10
510.67621065
 20
-138.47439953
 30
0.0
 11
509.07935848
 21
-138.27321507
 31
0.0
  0
LINE
  5
486
  8
LE_ALL
  6
STRICHPUNKT2
 62
     1
 10
509.74079631
 20
-138.3565484
 30
0.0
 11
510.80145648
 21
-137.42113405
 31
0.0
  0
LINE
  5
487
  8
LE_ALL
  6
STRICHPUNKT2
 62
     1
 10
509.74079631
 20
-138.3565484
 30
0.0
 11
508.68013614
 21
-139.29196275
 31
0.0
  0
LINE
  5
488
  8
LE_ALL
  6
STRICHPUNKT2
 62
     1
 10
509.74079631
 20
-138.3565484
 30
0.0
 11
509.74079631
 21
-135.52812127
 31
0.0
  0
LINE
  5
489
  8
LE_ALL
  6
STRICHPUNKT2
 62
     1
 10
509.74079631
 20
-138.3565484
 30
0.0
 11
509.74079631
 21
-141.18497552
 31
0.0
  0
LINE
  5
48A
  8
LE_ALL
  6
STRICHPUNKT2
 62
     1
 10
524.81834628
 20
-126.00220824
 30
0.0
 11
523.2214941
 21
-125.80102378
 31
0.0
  0
LINE
  5
48B
  8
LE_ALL
  6
STRICHPUNKT2
 62
     1
 10
523.88293193
 20
-125.88435711
 30
0.0
 11
524.9435921
 21
-124.94894276
 31
0.0
  0
LINE
  5
48C
  8
LE_ALL
  6
STRICHPUNKT2
 62
     1
 10
523.88293193
 20
-125.88435711
 30
0.0
 11
522.82227176
 21
-126.81977146
 31
0.0
  0
LINE
  5
48D
  8
LE_ALL
  6
STRICHPUNKT2
 62
     1
 10
523.88293193
 20
-125.88435711
 30
0.0
 11
523.88293193
 21
-123.05592999
 31
0.0
  0
LINE
  5
48E
  8
LE_ALL
  6
STRICHPUNKT2
 62
     1
 10
523.88293193
 20
-125.88435711
 30
0.0
 11
523.88293193
 21
-128.71278423
 31
0.0
  0
LINE
  5
48F
  8
LE_ALL
  6
STRICHPUNKT2
 62
     1
 10
512.44397761
 20
-151.05751124
 30
0.0
 11
510.84712543
 21
-150.85632678
 31
0.0
  0
LINE
  5
490
  8
LE_ALL
  6
STRICHPUNKT2
 62
     1
 10
511.50856326
 20
-150.93966011
 30
0.0
 11
512.56922343
 21
-150.00424577
 31
0.0
  0
LINE
  5
491
  8
LE_ALL
  6
STRICHPUNKT2
 62
     1
 10
511.50856326
 20
-150.93966011
 30
0.0
 11
510.44790309
 21
-151.87507446
 31
0.0
  0
LINE
  5
492
  8
LE_ALL
  6
STRICHPUNKT2
 62
     1
 10
511.50856326
 20
-150.93966011
 30
0.0
 11
511.50856326
 21
-148.11123299
 31
0.0
  0
LINE
  5
493
  8
LE_ALL
  6
STRICHPUNKT2
 62
     1
 10
511.50856326
 20
-150.93966011
 30
0.0
 11
511.50856326
 21
-153.76808724
 31
0.0
  0
LINE
  5
494
  8
LE_ALL
  6
STRICHPUNKT2
 62
     1
 10
523.05057933
 20
-141.70336777
 30
0.0
 11
521.45372715
 21
-141.50218331
 31
0.0
  0
LINE
  5
495
  8
LE_ALL
  6
STRICHPUNKT2
 62
     1
 10
522.11516498
 20
-141.58551664
 30
0.0
 11
523.17582515
 21
-140.6501023
 31
0.0
  0
LINE
  5
496
  8
LE_ALL
  6
STRICHPUNKT2
 62
     1
 10
522.11516498
 20
-141.58551664
 30
0.0
 11
521.05450481
 21
-142.52093099
 31
0.0
  0
LINE
  5
497
  8
LE_ALL
  6
STRICHPUNKT2
 62
     1
 10
522.11516498
 20
-141.58551664
 30
0.0
 11
522.11516498
 21
-138.75708952
 31
0.0
  0
LINE
  5
498
  8
LE_ALL
  6
STRICHPUNKT2
 62
     1
 10
522.11516498
 20
-141.58551664
 30
0.0
 11
522.11516498
 21
-144.41394377
 31
0.0
  0
LINE
  5
499
  8
LE_ALL
  6
STRICHPUNKT2
 62
     1
 10
519.61810716
 20
-154.1586141
 30
0.0
 11
514.69054378
 21
-153.53779947
 31
0.0
  0
LINE
  5
49A
  8
LE_ALL
  6
STRICHPUNKT2
 62
     1
 10
519.61810716
 20
-137.18805135
 30
0.0
 11
514.82755064
 21
-136.58449796
 31
0.0
  0
LINE
  5
49B
  8
LE_ALL
  6
STRICHPUNKT2
 62
     1
 10
516.81186412
 20
-162.29034209
 30
0.0
 11
516.81186412
 21
-128.34921659
 31
0.0
  0
LINE
  5
49C
  8
LE_ALL
  6
STRICHPUNKT2
 62
     1
 10
519.99384463
 20
-150.99881767
 30
0.0
 11
513.6298836
 21
-156.61130375
 31
0.0
  0
LINE
  5
49D
  8
LE_ALL
  6
STRICHPUNKT2
 62
     1
 10
519.99384463
 20
-134.02825492
 30
0.0
 11
513.6298836
 21
-139.640741
 31
0.0
  0
LINE
  5
49E
  8
LE_ALL
  6
STRICHPUNKT2
 62
     1
 10
516.5946486
 20
-151.63960419
 30
0.0
 11
514.69054378
 21
-153.3188668
 31
0.0
  0
LINE
  5
49F
  8
LE_ALL
  6
STRICHPUNKT2
 62
     1
 10
516.5946486
 20
-134.66904144
 30
0.0
 11
514.88345804
 21
-136.17816966
 31
0.0
  0
ENDBLK
  8
0
  0
BLOCK
  8
0
  2
DVI_FIGURE_00068
 70
     0
 10
0.0
 20
0.0
 30
0.0
  0
INSERT
  5
4A2
  8
0
  2
VIEW_3_00069
 10
0.0
 20
0.0
 30
0.0
  0
INSERT
  5
4A3
  8
0
  2
VIEW_4_00075
 10
0.0
 20
0.0
 30
0.0
  0
INSERT
  5
4A4
  8
0
  2
VIEW_5_00095
 10
0.0
 20
0.0
 30
0.0
  0
ENDBLK
  8
0
  0
BLOCK
  8
0
  2
VIEW_3_00069
 70
     0
 10
0.0
 20
0.0
 30
0.0
  0
INSERT
  5
4A7
  8
0
  2
PART_2_00070
 10
0.0
 20
0.0
 30
0.0
  0
ENDBLK
  8
0
  0
BLOCK
  8
0
  2
PART_2_00070
 70
     0
 10
0.0
 20
0.0
 30
0.0
  0
INSERT
  5
4AA
  8
0
  2
_D1
 10
328.31498673
 20
-292.46326079
 30
0.0
  0
INSERT
  5
4AB
  8
0
  2
_D2
 10
292.89515128
 20
-303.1258269
 30
0.0
  0
INSERT
  5
4AC
  8
0
  2
_D3
 10
260.78327155
 20
-273.57446255
 30
0.0
  0
INSERT
  5
4AD
  8
0
  2
_D4
 10
274.27827313
 20
-239.02366364
 30
0.0
  0
ENDBLK
  8
0
  0
BLOCK
  8
0
  2
VIEW_4_00075
 70
     0
 10
0.0
 20
0.0
 30
0.0
  0
INSERT
  5
4D0
  8
0
  2
PART_2_00076
 10
0.0
 20
0.0
 30
0.0
  0
ENDBLK
  8
0
  0
BLOCK
  8
0
  2
PART_2_00076
 70
     0
 10
0.0
 20
0.0
 30
0.0
  0
INSERT
  5
4D3
  8
0
  2
_D5
 10
443.25974303
 20
-251.61454482
 30
0.0
  0
INSERT
  5
4D4
  8
0
  2
_D6
 10
443.25974303
 20
-264.07446255
 30
0.0
  0
INSERT
  5
4D5
  8
0
  2
_D7
 10
443.25974303
 20
-278.07446255
 30
0.0
  0
INSERT
  5
4D6
  8
0
  2
_D8
 10
443.25974303
 20
-291.57446255
 30
0.0
  0
INSERT
  5
4D7
  8
0
  2
_D9
 10
390.92648867
 20
-221.52492394
 30
0.0
  0
INSERT
  5
4D8
  8
0
  2
_D10
 10
420.92648867
 20
-221.52492394
 30
0.0
  0
INSERT
  5
4D9
  8
0
  2
_D11
 10
368.36097486
 20
-251.11454482
 30
0.0
  0
INSERT
  5
4DA
  8
0
  2
_D12
 10
368.36097486
 20
-270.57446255
 30
0.0
  0
INSERT
  5
4DB
  8
0
  2
_D13
 10
368.36097486
 20
-292.07446255
 30
0.0
  0
INSERT
  5
4DC
  8
0
  2
_D14
 10
384.69916707
 20
-239.68251794
 30
0.0
  0
INSERT
  5
4DD
  8
0
  2
_D15
 10
439.75401893
 20
-239.68251794
 30
0.0
  0
INSERT
  5
4DE
  8
0
  2
_D16
 10
380.92648867
 20
-230.30343492
 30
0.0
  0
INSERT
  5
4DF
  8
0
  2
_D17
 10
389.38640639
 20
-230.30343492
 30
0.0
  0
INSERT
  5
4E0
  8
0
  2
_D18
 10
405.92648867
 20
-230.30343492
 30
0.0
  0
INSERT
  5
4E1
  8
0
  2
_D19
 10
424.38640639
 20
-230.30343492
 30
0.0
  0
INSERT
  5
4E2
  8
0
  2
_D20
 10
430.92648867
 20
-230.30343492
 30
0.0
  0
INSERT
  5
4E3
  8
0
  2
_D21
 10
390.92592648
 20
-260.28007382
 30
0.0
  0
INSERT
  5
4E4
  8
0
  2
_D22
 10
404.0839521
 20
-288.1546271
 30
0.0
  0
ENDBLK
  8
0
  0
BLOCK
  8
0
  2
VIEW_5_00095
 70
     0
 10
0.0
 20
0.0
 30
0.0
  0
INSERT
  5
57B
  8
0
  2
PART_2_00096
 10
0.0
 20
0.0
 30
0.0
  0
ENDBLK
  8
0
  0
BLOCK
  8
0
  2
PART_2_00096
 70
     0
 10
0.0
 20
0.0
 30
0.0
  0
INSERT
  5
57E
  8
0
  2
_D23
 10
325.9667912
 20
-138.84164171
 30
0.0
  0
INSERT
  5
57F
  8
0
  2
_D24
 10
325.73537033
 20
-191.90183296
 30
0.0
  0
INSERT
  5
580
  8
0
  2
_D25
 10
274.89515128
 20
-208.07770882
 30
0.0
  0
INSERT
  5
581
  8
0
  2
_D26
 10
288.39515128
 20
-208.07770882
 30
0.0
  0
INSERT
  5
582
  8
0
  2
_D27
 10
302.5125471
 20
-208.07770882
 30
0.0
  0
INSERT
  5
583
  8
0
  2
_D28
 10
314.85506901
 20
-208.07770882
 30
0.0
  0
INSERT
  5
584
  8
0
  2
_D29
 10
261.82370297
 20
-197.86144178
 30
0.0
  0
INSERT
  5
585
  8
0
  2
_D30
 10
261.82370297
 20
-189.40152405
 30
0.0
  0
INSERT
  5
586
  8
0
  2
_D31
 10
261.82370297
 20
-172.86144178
 30
0.0
  0
INSERT
  5
587
  8
0
  2
_D32
 10
261.82370297
 20
-154.40152405
 30
0.0
  0
INSERT
  5
588
  8
0
  2
_D33
 10
261.82370297
 20
-147.86144178
 30
0.0
  0
INSERT
  5
589
  8
0
  2
_D34
 10
335.17825623
 20
-157.86144178
 30
0.0
  0
INSERT
  5
58A
  8
0
  2
_D35
 10
335.17825623
 20
-187.86144178
 30
0.0
  0
INSERT
  5
58B
  8
0
  2
_D36
 10
253.33683824
 20
-172.86144178
 30
0.0
  0
INSERT
  5
58C
  8
0
  2
_D37
 10
315.35506901
 20
-133.77047852
 30
0.0
  0
INSERT
  5
58D
  8
0
  2
_D38
 10
295.89515128
 20
-133.77047852
 30
0.0
  0
INSERT
  5
58E
  8
0
  2
_D39
 10
274.39515128
 20
-133.77047852
 30
0.0
  0
INSERT
  5
58F
  8
0
  2
_D40
 10
324.74443775
 20
-173.74406056
 30
0.0
  0
INSERT
  5
590
  8
0
  2
_D41
 10
302.48256114
 20
-159.44160633
 30
0.0
  0
ENDBLK
  8
0
  0
ENDSEC
  0
SECTION
  2
ENTITIES
  0
INSERT
  5
62E
  8
0
  2
_ZBL0002_00001
 10
0.0
 20
0.0
 30
0.0
  0
INSERT
  5
62F
  8
0
  2
_ANS0003_00016
 10
0.0
 20
0.0
 30
0.0
  0
INSERT
  5
630
  8
0
  2
_ANS0004_00029
 10
0.0
 20
0.0
 30
0.0
  0
INSERT
  5
631
  8
0
  2
_ANS0005_00042
 10
0.0
 20
0.0
 30
0.0
  0
INSERT
  5
632
  8
0
  2
_ANS0006_00055
 10
0.0
 20
0.0
 30
0.0
  0
INSERT
  5
633
  8
0
  2
DVI_FIGURE_00068
 10
0.0
 20
0.0
 30
0.0
  0
ENDSEC
  0
EOF
