999
NT  : - 1800
  0
SECTION
  2
HEADER
  9
$ACADVER
  1
AC1015
  9
$DWGCODEPAGE
  3
ANSI_1252
  9
$INSBASE
 10
0.0
 20
0.0
 30
0.0
  9
$EXTMIN
 10
-36.00817235
 20
-393.70894674
 30
0.0
  9
$EXTMAX
 10
895.45213474
 20
-15.03394674
 30
0.0
  9
$LIMMIN
 10
-36.00817235
 20
-393.70894674
  9
$LIMMAX
 10
895.45213474
 20
-15.03394674
  9
$INSUNITS
 70
     4
  9
$FILLMODE
 70
     1
  9
$QTEXTMODE
 70
     0
  9
$LTSCALE
 40
1.000000000
  9
$ATTMODE
 70
     1
  9
$TEXTSTYLE
  7
Standard
  9
$LUNITS
 70
     2
  9
$LUPREC
 70
     4
  9
$AUNITS
 70
     0
  9
$AUPREC
 70
     0
  9
$ANGBASE
 50
0.0
  9
$ANGDIR
 70
     0
  9
$HANDSEED
  5
4D7
  9
$TILEMODE
 70
     1
  9
$VISRETAIN
 70
     0
  9
$MEASUREMENT
 70
     1
  0
ENDSEC
  0
SECTION
  2
CLASSES
  0
ENDSEC
  0
SECTION
  2
TABLES
  0
TABLE
  2
VPORT
  5
1
100
AcDbSymbolTable
 70
     1
  0
VPORT
  5
2
100
AcDbSymbolTableRecord
100
AcDbViewportTableRecord
  2
*Active
 70
     0
 10
0.0
 20
0.0
 11
1.0
 21
1.0
 12
429.72198119
 22
-204.37144674
 13
0.0
 23
0.0
 14
1.0
 24
1.0
 15
0.0
 25
0.0
 16
0.0
 26
0.0
 36
1.0
 17
0.0
 27
0.0
 37
0.0
 40
378.675000000
 41
2.459788228
 42
50.0
 43
0.0
 44
0.0
 50
0.0
 51
0.0
 71
     0
 72
   100
 73
     1
 74
     1
 75
     0
 76
     0
 77
     0
 78
     0
  0
ENDTAB
  0
TABLE
  2
LTYPE
  5
3
100
AcDbSymbolTable
 70
    21
  0
LTYPE
  5
4
100
AcDbSymbolTableRecord
100
AcDbLinetypeTableRecord
  2
ByBlock
 70
    64
  3

 72
    65
 73
     0
 40
0.0
  0
LTYPE
  5
5
100
AcDbSymbolTableRecord
100
AcDbLinetypeTableRecord
  2
ByLayer
 70
    64
  3

 72
    65
 73
     0
 40
0.0
  0
LTYPE
  5
6
100
AcDbSymbolTableRecord
100
AcDbLinetypeTableRecord
  2
CONTINUOUS
 70
    64
  3
Solid line
 72
    65
 73
     0
 40
0.0
  0
LTYPE
  5
7
100
AcDbSymbolTableRecord
100
AcDbLinetypeTableRecord
  2
DOT
 70
    64
  3
..............
 72
    65
 73
     2
 40
2.000
 49
0.500
 74
     0
 49
-1.500
 74
     0
  0
LTYPE
  5
8
100
AcDbSymbolTableRecord
100
AcDbLinetypeTableRecord
  2
HIDDEN
 70
    64
  3
-- -- -- -- --
 72
    65
 73
     2
 40
7.000
 49
4.000
 74
     0
 49
-3.000
 74
     0
  0
LTYPE
  5
9
100
AcDbSymbolTableRecord
100
AcDbLinetypeTableRecord
  2
DASHDOT
 70
    64
  3
--.--.--.--.--
 72
    65
 73
     4
 40
8.500
 49
4.000
 74
     0
 49
-2.000
 74
     0
 49
0.500
 74
     0
 49
-2.000
 74
     0
  0
LTYPE
  5
A
100
AcDbSymbolTableRecord
100
AcDbLinetypeTableRecord
  2
STRICHPUNKT2
 70
    64
  3
--.--.--.--.--
 72
    65
 73
     4
 40
18.500
 49
10.000
 74
     0
 49
-4.000
 74
     0
 49
0.500
 74
     0
 49
-4.000
 74
     0
  0
LTYPE
  5
B
100
AcDbSymbolTableRecord
100
AcDbLinetypeTableRecord
  2
STRICHPUNKT3
 70
    64
  3
--.--.--.--.--
 72
    65
 73
     4
 40
35.500
 49
25.000
 74
     0
 49
-5.000
 74
     0
 49
0.500
 74
     0
 49
-5.000
 74
     0
  0
LTYPE
  5
13F
100
AcDbSymbolTableRecord
100
AcDbLinetypeTableRecord
  2
PHANTOM
 70
    64
  3
--..--..--..--
 72
    65
 73
     6
 40
23.000
 49
10.000
 74
     0
 49
-4.000
 74
     0
 49
0.500
 74
     0
 49
-4.000
 74
     0
 49
0.500
 74
     0
 49
-4.000
 74
     0
  0
LTYPE
  5
140
100
AcDbSymbolTableRecord
100
AcDbLinetypeTableRecord
  2
PHANTOM2
 70
    64
  3
--..--..--..--
 72
    65
 73
     6
 40
33.000
 49
20.000
 74
     0
 49
-4.000
 74
     0
 49
0.500
 74
     0
 49
-4.000
 74
     0
 49
0.500
 74
     0
 49
-4.000
 74
     0
  0
LTYPE
  5
141
100
AcDbSymbolTableRecord
100
AcDbLinetypeTableRecord
  2
PHANTOM3
 70
    64
  3
--..--..--..--
 72
    65
 73
     6
 40
50.000
 49
37.000
 74
     0
 49
-4.000
 74
     0
 49
0.500
 74
     0
 49
-4.000
 74
     0
 49
0.500
 74
     0
 49
-4.000
 74
     0
  0
LTYPE
  5
142
100
AcDbSymbolTableRecord
100
AcDbLinetypeTableRecord
  2
STR3PKT
 70
    64
  3
--...--...--...
 72
    65
 73
     8
 40
31.500
 49
20.000
 74
     0
 49
-2.500
 74
     0
 49
0.500
 74
     0
 49
-2.500
 74
     0
 49
0.500
 74
     0
 49
-2.500
 74
     0
 49
0.500
 74
     0
 49
-2.500
 74
     0
  0
LTYPE
  5
143
100
AcDbSymbolTableRecord
100
AcDbLinetypeTableRecord
  2
2STRPKT
 70
    64
  3
--.--.--.--.--
 72
    65
 73
     6
 40
28.000
 49
10.000
 74
     0
 49
-2.500
 74
     0
 49
10.000
 74
     0
 49
-2.500
 74
     0
 49
0.500
 74
     0
 49
-2.500
 74
     0
  0
LTYPE
  5
144
100
AcDbSymbolTableRecord
100
AcDbLinetypeTableRecord
  2
GESTRICHELT2
 70
    64
  3
-- -- -- -- --
 72
    65
 73
     2
 40
25.000
 49
10.000
 74
     0
 49
-15.000
 74
     0
  0
LTYPE
  5
145
100
AcDbSymbolTableRecord
100
AcDbLinetypeTableRecord
  2
2STR2PKT
 70
    64
  3
--..--..--..--
 72
    65
 73
     8
 40
31.000
 49
10.000
 74
     0
 49
-2.500
 74
     0
 49
10.000
 74
     0
 49
-2.500
 74
     0
 49
0.500
 74
     0
 49
-2.500
 74
     0
 49
0.500
 74
     0
 49
-2.500
 74
     0
  0
LTYPE
  5
146
100
AcDbSymbolTableRecord
100
AcDbLinetypeTableRecord
  2
STR3PKT2
 70
    64
  3
--...--...--...
 72
    65
 73
     8
 40
21.000
 49
10.000
 74
     0
 49
-2.500
 74
     0
 49
0.500
 74
     0
 49
-2.500
 74
     0
 49
0.500
 74
     0
 49
-2.500
 74
     0
 49
0.500
 74
     0
 49
-2.000
 74
     0
  0
LTYPE
  5
147
100
AcDbSymbolTableRecord
100
AcDbLinetypeTableRecord
  2
2STR3PKT
 70
    64
  3
--...--...--...
 72
    65
 73
    10
 40
34.000
 49
10.000
 74
     0
 49
-2.500
 74
     0
 49
10.000
 74
     0
 49
-2.500
 74
     0
 49
0.500
 74
     0
 49
-2.500
 74
     0
 49
0.500
 74
     0
 49
-2.500
 74
     0
 49
0.500
 74
     0
 49
-2.500
 74
     0
  0
LTYPE
  5
148
100
AcDbSymbolTableRecord
100
AcDbLinetypeTableRecord
  2
STRKSTR
 70
    64
  3
-- - -- - -- -
 72
    65
 73
     4
 40
30.000
 49
20.000
 74
     0
 49
-2.500
 74
     0
 49
5.000
 74
     0
 49
-2.500
 74
     0
  0
LTYPE
  5
149
100
AcDbSymbolTableRecord
100
AcDbLinetypeTableRecord
  2
STRKSTR2
 70
    64
  3
-- - -- - -- -
 72
    65
 73
     6
 40
37.500
 49
20.000
 74
     0
 49
-2.500
 74
     0
 49
5.000
 74
     0
 49
-2.500
 74
     0
 49
5.000
 74
     0
 49
-2.500
 74
     0
  0
LTYPE
  5
14A
100
AcDbSymbolTableRecord
100
AcDbLinetypeTableRecord
  2
STRKSTR3
 70
    64
  3
-- - -- - -- -
 72
    65
 73
     8
 40
45.000
 49
20.000
 74
     0
 49
-2.500
 74
     0
 49
5.000
 74
     0
 49
-2.500
 74
     0
 49
5.000
 74
     0
 49
-2.500
 74
     0
 49
5.000
 74
     0
 49
-2.500
 74
     0
  0
LTYPE
  5
14B
100
AcDbSymbolTableRecord
100
AcDbLinetypeTableRecord
  2
PUNKT2
 70
    64
  3
..............
 72
    65
 73
     2
 40
3.500
 49
0.500
 74
     0
 49
-3.000
 74
     0
  0
ENDTAB
  0
TABLE
  2
LAYER
  5
14C
100
AcDbSymbolTable
 70
    16
  0
LAYER
  5
14D
100
AcDbSymbolTableRecord
100
AcDbLayerTableRecord
  2
0
 70
    64
 62
     7
  6
CONTINUOUS
370
    -3
390
F
  0
LAYER
  5
14E
100
AcDbSymbolTableRecord
100
AcDbLayerTableRecord
  2
LE_GREEN
 70
    64
 62
     3
  6
CONTINUOUS
370
    -3
390
F
  0
LAYER
  5
14F
100
AcDbSymbolTableRecord
100
AcDbLayerTableRecord
  2
LE_RED
 70
    64
 62
     1
  6
CONTINUOUS
370
    -3
390
F
  0
LAYER
  5
150
100
AcDbSymbolTableRecord
100
AcDbLayerTableRecord
  2
LE_ALL
 70
    64
 62
     7
  6
CONTINUOUS
370
    50
390
F
  0
LAYER
  5
151
100
AcDbSymbolTableRecord
100
AcDbLayerTableRecord
  2
LE_HIDDEN1
 70
    64
 62
     3
  6
HIDDEN
370
    -3
390
F
  0
LAYER
  5
152
100
AcDbSymbolTableRecord
100
AcDbLayerTableRecord
  2
LE_HIDDEN
 70
    64
 62
     7
  6
CONTINUOUS
370
    -3
390
F
  0
LAYER
  5
153
100
AcDbSymbolTableRecord
100
AcDbLayerTableRecord
  2
LE_MIDDLE
 70
    64
 62
     7
  6
CONTINUOUS
370
    -3
390
F
  0
LAYER
  5
154
100
AcDbSymbolTableRecord
100
AcDbLayerTableRecord
  2
TXT_YELLOW
 70
    64
 62
     2
  6
CONTINUOUS
370
    -3
390
F
  0
LAYER
  5
155
100
AcDbSymbolTableRecord
100
AcDbLayerTableRecord
  2
TXT_DIM49
 70
    64
 62
     2
  6
CONTINUOUS
370
    -3
390
F
  0
LAYER
  5
156
100
AcDbSymbolTableRecord
100
AcDbLayerTableRecord
  2
TXT_ALL
 70
    64
 62
     7
  6
CONTINUOUS
370
    -3
390
F
  0
LAYER
  5
157
100
AcDbSymbolTableRecord
100
AcDbLayerTableRecord
  2
DIM49
 70
    64
 62
     4
  6
CONTINUOUS
370
    -3
390
F
  0
LAYER
  5
158
100
AcDbSymbolTableRecord
100
AcDbLayerTableRecord
  2
HATCH
 70
    64
 62
     3
  6
CONTINUOUS
370
    -3
390
F
  0
LAYER
  5
159
100
AcDbSymbolTableRecord
100
AcDbLayerTableRecord
  2
APPLE
 70
    64
 62
     7
  6
CONTINUOUS
370
    -3
390
F
  0
LAYER
  5
15A
100
AcDbSymbolTableRecord
100
AcDbLayerTableRecord
  2
10
 70
    64
 62
     7
  6
CONTINUOUS
370
    -3
390
F
  0
LAYER
  5
15B
100
AcDbSymbolTableRecord
100
AcDbLayerTableRecord
  2
20
 70
    64
 62
     7
  6
CONTINUOUS
370
    -3
390
F
  0
LAYER
  5
15C
100
AcDbSymbolTableRecord
100
AcDbLayerTableRecord
  2
49
 70
    64
 62
     7
  6
CONTINUOUS
370
    -3
390
F
  0
ENDTAB
  0
TABLE
  2
STYLE
  5
15D
100
AcDbSymbolTable
 70
     5
  0
STYLE
  5
15E
100
AcDbSymbolTableRecord
100
AcDbTextStyleTableRecord
  2
MONOTXT
 70
     0
 40
0.0
 41
1.000
 50
0.0
 71
     0
 42
1.000
  3
monotxt.shx
  4

  0
STYLE
  5
15F
100
AcDbSymbolTableRecord
100
AcDbTextStyleTableRecord
  2
STANDARD
 70
     0
 40
0.0
 41
1.000
 50
0.0
 71
     0
 42
1.000
  3
txt
  4

  0
STYLE
  5
160
100
AcDbSymbolTableRecord
100
AcDbTextStyleTableRecord
  2
ARIAL
 70
     0
 40
0.0
 41
1.000
 50
0.0
 71
     0
 42
1.000
  3
arial.ttf
  4

  0
STYLE
  5
161
100
AcDbSymbolTableRecord
100
AcDbTextStyleTableRecord
  2
ARIAL Narrow
 70
     0
 40
0.0
 41
1.000
 50
0.0
 71
     0
 42
1.000
  3
ArialN.ttf
  4

  0
STYLE
  5
162
100
AcDbSymbolTableRecord
100
AcDbTextStyleTableRecord
  2
ISOCPEUR
 70
     0
 40
0.0
 41
1.000
 50
0.0
 71
     0
 42
1.000
  3
ISOCPEUR.ttf
  4

  0
ENDTAB
  0
TABLE
  2
VIEW
  5
163
100
AcDbSymbolTable
 70
     0
  0
ENDTAB
  0
TABLE
  2
UCS
  5
164
100
AcDbSymbolTable
 70
     0
  0
ENDTAB
  0
TABLE
  2
APPID
  5
165
100
AcDbSymbolTable
 70
     1
  0
APPID
  5
166
100
AcDbSymbolTableRecord
100
AcDbRegAppTableRecord
  2
ACAD
 70
     0
  0
ENDTAB
  0
TABLE
  2
DIMSTYLE
  5
167
100
AcDbSymbolTable
100
AcDbDimStyleTable
 70
     0
  0
ENDTAB
  0
TABLE
  2
BLOCK_RECORD
  5
168
100
AcDbSymbolTable
 70
     2
  0
BLOCK_RECORD
  5
1E
100
AcDbSymbolTableRecord
100
AcDbBlockTableRecord
  2
*Model_Space
  0
BLOCK_RECORD
  5
1A
100
AcDbSymbolTableRecord
100
AcDbBlockTableRecord
  2
*Paper_Space
  0
ENDTAB
  0
ENDSEC
  0
SECTION
  2
BLOCKS
  0
BLOCK
  5
169
100
AcDbEntity
  8
0
100
AcDbBlockBegin
  2
*Model_Space
 70
     0
 10
0.0
 20
0.0
 30
0.0
  3
*Model_Space
  1

  0
ENDBLK
  5
16A
100
AcDbEntity
  8
0
100
AcDbBlockEnd
  0
BLOCK
  5
16B
100
AcDbEntity
100
AcDbBlockBegin
 67
     1
  8
0
  2
*Paper_Space
 70
     0
 10
0.0
 20
0.0
 30
0.0
  3
*Paper_Space
  1

  0
ENDBLK
  5
16C
100
AcDbEntity
100
AcDbBlockEnd
 67
     1
  8
0
  0
ENDSEC
  0
SECTION
  2
ENTITIES
  0
POLYLINE
  5
16D
100
AcDbEntity
  8
0
100
AcDb2dPolyline
 66
     1
 70
     1
  0
VERTEX
  5
16E
100
AcDbEntity
  8
0
100
AcDbVertex
100
AcDb2dVertex
 10
171.18634987
 20
-336.86924975
 30
0.0
  0
VERTEX
  5
16F
100
AcDbEntity
  8
0
100
AcDbVertex
100
AcDb2dVertex
 10
591.18634987
 20
-336.86924975
 30
0.0
  0
VERTEX
  5
170
100
AcDbEntity
  8
0
100
AcDbVertex
100
AcDb2dVertex
 10
591.18634987
 20
-39.86924975
 30
0.0
  0
VERTEX
  5
171
100
AcDbEntity
  8
0
100
AcDbVertex
100
AcDb2dVertex
 10
171.18634987
 20
-39.86924975
 30
0.0
  0
SEQEND
  5
172
100
AcDbEntity
  8
0
  0
POLYLINE
  5
173
100
AcDbEntity
  8
0
100
AcDb2dPolyline
 66
     1
 70
     1
  0
VERTEX
  5
174
100
AcDbEntity
  8
0
100
AcDbVertex
100
AcDb2dVertex
 10
176.18634987
 20
-331.86924975
 30
0.0
  0
VERTEX
  5
175
100
AcDbEntity
  8
0
100
AcDbVertex
100
AcDb2dVertex
 10
586.18634987
 20
-331.86924975
 30
0.0
  0
VERTEX
  5
176
100
AcDbEntity
  8
0
100
AcDbVertex
100
AcDb2dVertex
 10
586.18634987
 20
-44.86924975
 30
0.0
  0
VERTEX
  5
177
100
AcDbEntity
  8
0
100
AcDbVertex
100
AcDb2dVertex
 10
176.18634987
 20
-44.86924975
 30
0.0
  0
SEQEND
  5
178
100
AcDbEntity
  8
0
  0
LINE
  5
179
100
AcDbEntity
  8
0
100
AcDbLine
 10
401.18634987
 20
-331.86924975
 30
0.0
 11
401.18634987
 21
-336.86924975
 31
0.0
  0
LINE
  5
17A
100
AcDbEntity
  8
0
100
AcDbLine
 10
401.18634987
 20
-44.86924975
 30
0.0
 11
401.18634987
 21
-39.86924975
 31
0.0
  0
LINE
  5
17B
100
AcDbEntity
  8
0
100
AcDbLine
 10
191.18634987
 20
-331.86924975
 30
0.0
 11
191.18634987
 21
-336.86924975
 31
0.0
  0
LINE
  5
17C
100
AcDbEntity
  8
0
100
AcDbLine
 10
191.18634987
 20
-44.86924975
 30
0.0
 11
191.18634987
 21
-39.86924975
 31
0.0
  0
TEXT
  5
17D
100
AcDbEntity
  8
TXT_ALL
100
AcDbText
 62
     4
 10
590.18634987
 20
-335.86924975
 30
0.0
 40
2.50000000
  1

  7
MONOTXT
 41
1.000
 50
90.000207410
 51
0.0
100
AcDbText
  0
POLYLINE
  5
17E
100
AcDbEntity
  8
0
100
AcDb2dPolyline
 66
     1
  0
VERTEX
  5
17F
100
AcDbEntity
  8
0
100
AcDbVertex
100
AcDb2dVertex
 10
586.18634987
 20
-54.86924975
 30
0.0
  0
VERTEX
  5
180
100
AcDbEntity
  8
0
100
AcDbVertex
100
AcDb2dVertex
 10
517.19304987
 20
-54.86924975
 30
0.0
  0
VERTEX
  5
181
100
AcDbEntity
  8
0
100
AcDbVertex
100
AcDb2dVertex
 10
517.19304987
 20
-44.86924975
 30
0.0
  0
SEQEND
  5
182
100
AcDbEntity
  8
0
  0
LINE
  5
183
100
AcDbEntity
  8
0
100
AcDbLine
 10
519.09634987
 20
-312.36924975
 30
0.0
 11
379.20634987
 21
-312.36924975
 31
0.0
  0
LINE
  5
184
100
AcDbEntity
  8
0
100
AcDbLine
 10
379.20634987
 20
-322.11924975
 30
0.0
 11
519.09634987
 21
-322.11924975
 31
0.0
  0
POLYLINE
  5
185
100
AcDbEntity
  8
0
100
AcDb2dPolyline
 66
     1
  0
VERTEX
  5
186
100
AcDbEntity
  8
0
100
AcDbVertex
100
AcDb2dVertex
 10
379.20634987
 20
-312.36924975
 30
0.0
  0
VERTEX
  5
187
100
AcDbEntity
  8
0
100
AcDbVertex
100
AcDb2dVertex
 10
379.20634987
 20
-322.11924975
 30
0.0
  0
VERTEX
  5
188
100
AcDbEntity
  8
0
100
AcDbVertex
100
AcDb2dVertex
 10
379.20634987
 20
-331.86924975
 30
0.0
  0
SEQEND
  5
189
100
AcDbEntity
  8
0
  0
POLYLINE
  5
18A
100
AcDbEntity
  8
0
100
AcDb2dPolyline
 66
     1
  0
VERTEX
  5
18B
100
AcDbEntity
  8
0
100
AcDbVertex
100
AcDb2dVertex
 10
449.15134987
 20
-312.36924975
 30
0.0
  0
VERTEX
  5
18C
100
AcDbEntity
  8
0
100
AcDbVertex
100
AcDb2dVertex
 10
449.15134987
 20
-322.11924975
 30
0.0
  0
VERTEX
  5
18D
100
AcDbEntity
  8
0
100
AcDbVertex
100
AcDb2dVertex
 10
449.15134987
 20
-331.86924975
 30
0.0
  0
SEQEND
  5
18E
100
AcDbEntity
  8
0
  0
TEXT
  5
18F
100
AcDbEntity
  8
TXT_ALL
100
AcDbText
 10
381.20634987
 20
-318.54424970
 30
0.0
 40
2.59999990
  1
E-mail: verkoop@jonkers-bouwmetaal.nl
  7
Arial
 41
1.000
 50
0.0
 51
0.0
 72
     0
 11
381.20634987
 21
-317.24424975
 31
0.0
100
AcDbText
 73
     2
  0
TEXT
  5
190
100
AcDbEntity
  8
TXT_ALL
100
AcDbText
 10
381.20634987
 20
-328.29424970
 30
0.0
 40
2.59999990
  1
Telefoon: 0527-685156
  7
Arial
 41
1.000
 50
0.0
 51
0.0
 72
     0
 11
381.20634987
 21
-326.99424975
 31
0.0
100
AcDbText
 73
     2
  0
TEXT
  5
191
100
AcDbEntity
  8
TXT_ALL
100
AcDbText
 10
451.15134987
 20
-328.29424970
 30
0.0
 40
2.59999990
  1
Website: www.jonkers-bouwmetaal.nl
  7
Arial
 41
1.000
 50
0.0
 51
0.0
 72
     0
 11
451.15134987
 21
-326.99424975
 31
0.0
100
AcDbText
 73
     2
  0
TEXT
  5
192
100
AcDbEntity
  8
TXT_ALL
100
AcDbText
 10
451.15134987
 20
-318.54424970
 30
0.0
 40
2.59999990
  1
Adres: Hoornse Hop 10, 8321 WX Urk
  7
Arial
 41
1.000
 50
0.0
 51
0.0
 72
     0
 11
451.15134987
 21
-317.24424975
 31
0.0
100
AcDbText
 73
     2
  0
TEXT
  5
193
100
AcDbEntity
  8
TXT_ALL
100
AcDbText
 10
179.62831012
 20
-51.11924975
 30
0.0
 40
2.50000000
  1
Art. nr. 91017439
  7
Arial
 41
1.000
 50
0.0
 51
0.0
 72
     0
 11
179.62831012
 21
-49.86924975
 31
0.0
100
AcDbText
 73
     2
  0
TEXT
  5
194
100
AcDbEntity
  8
TXT_ALL
100
AcDbText
 10
222.36634693
 20
-51.11924975
 30
0.0
 40
2.50000000
  1
Omschrijving: SVH03-anker z. ril 60x40 60x2
  7
Arial
 41
1.000
 50
0.0
 51
0.0
 72
     0
 11
222.36634693
 21
-49.86924975
 31
0.0
100
AcDbText
 73
     2
  0
LINE
  5
195
100
AcDbEntity
  8
0
100
AcDbLine
 10
586.18634987
 20
-54.86924975
 30
0.0
 11
176.18634987
 21
-54.86924975
 31
0.0
  0
LINE
  5
196
100
AcDbEntity
  8
0
100
AcDbLine
 10
219.20634987
 20
-54.86924975
 30
0.0
 11
219.20634987
 21
-44.86924975
 31
0.0
  0
LINE
  5
197
100
AcDbEntity
  8
0
100
AcDbLine
 10
379.20634987
 20
-54.86924975
 30
0.0
 11
379.20634987
 21
-44.86924975
 31
0.0
  0
TEXT
  5
198
100
AcDbEntity
  8
TXT_ALL
100
AcDbText
 10
450.20004987
 20
-51.11924975
 30
0.0
 40
2.50000000
  1
Behandeling: Sendzimir verzinkt
  7
Arial
 41
1.000
 50
0.0
 51
0.0
 72
     0
 11
450.20004987
 21
-49.86924975
 31
0.0
100
AcDbText
 73
     2
  0
LINE
  5
199
100
AcDbEntity
  8
0
100
AcDbLine
 10
519.09634987
 20
-312.36924975
 30
0.0
 11
586.18634987
 21
-312.36924975
 31
0.0
  0
LINE
  5
19A
100
AcDbEntity
  8
0
100
AcDbLine
 10
519.09634987
 20
-331.86924975
 30
0.0
 11
519.09634987
 21
-312.36924975
 31
0.0
  0
LINE
  5
19B
100
AcDbEntity
  8
0
100
AcDbLine
 10
519.09634987
 20
-331.86924975
 30
0.0
 11
519.09634987
 21
-312.36924975
 31
0.0
  0
TEXT
  5
19C
100
AcDbEntity
  8
TXT_ALL
100
AcDbText
 10
313.55154796
 20
-330.71471633
 30
0.0
 40
2.50000000
  1

  7
MONOTXT
 41
1.000
 50
0.0
 51
0.0
 72
     0
 11
313.55154796
 21
-329.46471633
 31
0.0
100
AcDbText
 73
     2
  0
TEXT
  5
19D
100
AcDbEntity
  8
TXT_ALL
100
AcDbText
 10
434.68673092
 20
-320.61924975
 30
0.0
 40
2.50000000
  1

  7
MONOTXT
 41
1.000
 50
0.0
 51
0.0
 72
     0
 11
434.68673092
 21
-319.36924975
 31
0.0
100
AcDbText
 73
     2
  0
POLYLINE
  5
19E
100
AcDbEntity
  8
0
100
AcDb2dPolyline
 66
     1
  0
VERTEX
  5
19F
100
AcDbEntity
  8
0
100
AcDbVertex
100
AcDb2dVertex
 10
517.19304987
 20
-54.86924975
 30
0.0
  0
VERTEX
  5
1A0
100
AcDbEntity
  8
0
100
AcDbVertex
100
AcDb2dVertex
 10
448.20004987
 20
-54.86924975
 30
0.0
  0
VERTEX
  5
1A1
100
AcDbEntity
  8
0
100
AcDbVertex
100
AcDb2dVertex
 10
448.20004987
 20
-44.86924975
 30
0.0
  0
SEQEND
  5
1A2
100
AcDbEntity
  8
0
  0
TEXT
  5
1A3
100
AcDbEntity
  8
TXT_ALL
100
AcDbText
 10
519.19304987
 20
-51.11924975
 30
0.0
 40
2.50000000
  1
Verpakkingshoeveelheid: 100 st.
  7
Arial
 41
1.000
 50
0.0
 51
0.0
 72
     0
 11
519.19304987
 21
-49.86924975
 31
0.0
100
AcDbText
 73
     2
  0
TEXT
  5
1A4
100
AcDbEntity
  8
TXT_ALL
100
AcDbText
 10
381.20634987
 20
-51.11924975
 30
0.0
 40
2.50000000
  1
Materiaal: S350
  7
Arial
 41
1.000
 50
0.0
 51
0.0
 72
     0
 11
381.20634987
 21
-49.86924975
 31
0.0
100
AcDbText
 73
     2
  0
TEXT
  5
1A5
100
AcDbEntity
  8
TXT_ALL
100
AcDbText
 10
553.96799709
 20
-335.11875959
 30
0.0
 40
1.50000000
  1
Onderdeel van
  7
Arial
 41
1.000
 50
0.0
 51
0.0
 72
     0
 11
553.96799709
 21
-334.36875959
 31
0.0
100
AcDbText
 73
     2
  0
LINE
  5
1A6
100
AcDbEntity
  8
0
100
AcDbLine
  6
DOT
 62
     3
 10
282.76861697
 20
-264.24690037
 30
0.0
 11
282.76861697
 21
-262.24690037
 31
0.0
  0
LINE
  5
1A7
100
AcDbEntity
  8
0
100
AcDbLine
  6
DOT
 62
     3
 10
263.76861697
 20
-264.24690037
 30
0.0
 11
263.76861697
 21
-262.24690037
 31
0.0
  0
LINE
  5
1A8
100
AcDbEntity
  8
0
100
AcDbLine
  6
DOT
 62
     3
 10
260.76861697
 20
-262.24690037
 30
0.0
 11
260.76861697
 21
-264.24690037
 31
0.0
  0
LINE
  5
1A9
100
AcDbEntity
  8
0
100
AcDbLine
  6
DOT
 62
     3
 10
264.76861697
 20
-262.24690037
 30
0.0
 11
264.76861697
 21
-264.24690037
 31
0.0
  0
LINE
  5
1AA
100
AcDbEntity
  8
0
100
AcDbLine
  6
DOT
 62
     3
 10
298.76861697
 20
-262.24690037
 30
0.0
 11
298.76861697
 21
-264.24690037
 31
0.0
  0
LINE
  5
1AB
100
AcDbEntity
  8
0
100
AcDbLine
  6
DOT
 62
     3
 10
302.76861697
 20
-262.24690037
 30
0.0
 11
302.76861697
 21
-264.24690037
 31
0.0
  0
LINE
  5
1AC
100
AcDbEntity
  8
0
100
AcDbLine
  6
DOT
 62
     3
 10
279.76861697
 20
-262.24690037
 30
0.0
 11
279.76861697
 21
-264.24690037
 31
0.0
  0
LINE
  5
1AD
100
AcDbEntity
  8
0
100
AcDbLine
  6
DOT
 62
     3
 10
285.76861697
 20
-262.24690037
 30
0.0
 11
285.76861697
 21
-264.24690037
 31
0.0
  0
LINE
  5
1AE
100
AcDbEntity
  8
0
100
AcDbLine
  6
DOT
 62
     3
 10
258.26861697
 20
-264.24690037
 30
0.0
 11
258.26861697
 21
-262.24690037
 31
0.0
  0
LINE
  5
1AF
100
AcDbEntity
  8
0
100
AcDbLine
  6
DOT
 62
     3
 10
288.26861697
 20
-264.24690037
 30
0.0
 11
288.26861697
 21
-262.24690037
 31
0.0
  0
LINE
  5
1B0
100
AcDbEntity
  8
0
100
AcDbLine
 10
303.26861697
 20
-262.24690037
 30
0.0
 11
251.26861697
 21
-262.24690037
 31
0.0
  0
POLYLINE
  5
1B1
100
AcDbEntity
  8
0
100
AcDb2dPolyline
 66
     1
  0
VERTEX
  5
1B2
100
AcDbEntity
  8
0
100
AcDbVertex
100
AcDb2dVertex
 10
251.26861697
 20
-264.24690037
 30
0.0
  0
VERTEX
  5
1B3
100
AcDbEntity
  8
0
100
AcDbVertex
100
AcDb2dVertex
 10
303.26861697
 20
-264.24690037
 30
0.0
  0
VERTEX
  5
1B4
100
AcDbEntity
  8
0
100
AcDbVertex
100
AcDb2dVertex
 10
303.26861697
 20
-262.24690037
 30
0.0
  0
VERTEX
  5
1B5
100
AcDbEntity
  8
0
100
AcDbVertex
100
AcDb2dVertex
 10
306.76861697
 20
-262.24690037
 30
0.0
  0
SEQEND
  5
1B6
100
AcDbEntity
  8
0
  0
LINE
  5
1B7
100
AcDbEntity
  8
0
100
AcDbLine
 10
306.76861697
 20
-264.24690037
 30
0.0
 11
306.76861697
 21
-262.24690037
 31
0.0
  0
LINE
  5
1B8
100
AcDbEntity
  8
0
100
AcDbLine
 10
306.76861697
 20
-264.24690037
 30
0.0
 11
303.26861697
 21
-264.24690037
 31
0.0
  0
LINE
  5
1B9
100
AcDbEntity
  8
0
100
AcDbLine
  6
STRICHPUNKT2
 62
     1
 10
300.76861697
 20
-261.24690037
 30
0.0
 11
300.76861697
 21
-265.24690037
 31
0.0
  0
LINE
  5
1BA
100
AcDbEntity
  8
0
100
AcDbLine
  6
STRICHPUNKT2
 62
     1
 10
262.76861697
 20
-261.24690037
 30
0.0
 11
262.76861697
 21
-265.24690037
 31
0.0
  0
LINE
  5
1BB
100
AcDbEntity
  8
0
100
AcDbLine
  6
STRICHPUNKT2
 62
     1
 10
282.76861697
 20
-260.74690037
 30
0.0
 11
282.76861697
 21
-265.74690037
 31
0.0
  0
LINE
  5
1BC
100
AcDbEntity
  8
0
100
AcDbLine
  6
STRICHPUNKT2
 62
     1
 10
282.76861697
 20
-259.49690037
 30
0.0
 11
282.76861697
 21
-266.99690037
 31
0.0
  0
LINE
  5
1BD
100
AcDbEntity
  8
0
100
AcDbLine
  6
STRICHPUNKT2
 62
     1
 10
263.76861697
 20
-259.49690037
 30
0.0
 11
263.76861697
 21
-266.99690037
 31
0.0
  0
LINE
  5
1BE
100
AcDbEntity
  8
0
100
AcDbLine
  6
STRICHPUNKT2
 62
     1
 10
282.76861697
 20
-260.74690037
 30
0.0
 11
282.76861697
 21
-265.74690037
 31
0.0
  0
LINE
  5
1BF
100
AcDbEntity
  8
0
100
AcDbLine
  6
STRICHPUNKT2
 62
     1
 10
262.76861697
 20
-261.24690037
 30
0.0
 11
262.76861697
 21
-265.24690037
 31
0.0
  0
LINE
  5
1C0
100
AcDbEntity
  8
0
100
AcDbLine
  6
STRICHPUNKT2
 62
     1
 10
300.76861697
 20
-261.24690037
 30
0.0
 11
300.76861697
 21
-265.24690037
 31
0.0
  0
LINE
  5
1C1
100
AcDbEntity
  8
0
100
AcDbLine
  6
STRICHPUNKT2
 62
     1
 10
300.76861697
 20
-261.24690037
 30
0.0
 11
300.76861697
 21
-265.24690037
 31
0.0
  0
ARC
  5
1C2
100
AcDbEntity
  8
0
100
AcDbCircle
 10
251.26861697
 20
-259.74690037
 30
0.0
 40
4.50000000
100
AcDbArc
 50
180.000000000
 51
-90.000000000
  0
ARC
  5
1C3
100
AcDbEntity
  8
0
100
AcDbCircle
 10
251.26861697
 20
-259.74690037
 30
0.0
 40
2.50000000
100
AcDbArc
 50
180.000000000
 51
-90.000000000
  0
LINE
  5
1C4
100
AcDbEntity
  8
0
100
AcDbLine
  6
DOT
 62
     3
 10
248.76861697
 20
-247.24690037
 30
0.0
 11
246.76861697
 21
-247.24690037
 31
0.0
  0
LINE
  5
1C5
100
AcDbEntity
  8
0
100
AcDbLine
  6
DOT
 62
     3
 10
248.76861697
 20
-251.24690037
 30
0.0
 11
246.76861697
 21
-251.24690037
 31
0.0
  0
LINE
  5
1C6
100
AcDbEntity
  8
0
100
AcDbLine
  6
DOT
 62
     3
 10
248.76861697
 20
-228.24690037
 30
0.0
 11
246.76861697
 21
-228.24690037
 31
0.0
  0
LINE
  5
1C7
100
AcDbEntity
  8
0
100
AcDbLine
  6
DOT
 62
     3
 10
248.76861697
 20
-232.24690037
 30
0.0
 11
246.76861697
 21
-232.24690037
 31
0.0
  0
LINE
  5
1C8
100
AcDbEntity
  8
0
100
AcDbLine
  6
DOT
 62
     3
 10
248.76861697
 20
-234.74690037
 30
0.0
 11
246.76861697
 21
-234.74690037
 31
0.0
  0
LINE
  5
1C9
100
AcDbEntity
  8
0
100
AcDbLine
  6
DOT
 62
     3
 10
248.76861697
 20
-243.74690037
 30
0.0
 11
246.76861697
 21
-243.74690037
 31
0.0
  0
LINE
  5
1CA
100
AcDbEntity
  8
0
100
AcDbLine
  6
DOT
 62
     3
 10
248.76861697
 20
-237.74690037
 30
0.0
 11
246.76861697
 21
-237.74690037
 31
0.0
  0
LINE
  5
1CB
100
AcDbEntity
  8
0
100
AcDbLine
  6
DOT
 62
     3
 10
248.76861697
 20
-248.74690037
 30
0.0
 11
246.76861697
 21
-248.74690037
 31
0.0
  0
LINE
  5
1CC
100
AcDbEntity
  8
0
100
AcDbLine
 10
246.76861697
 20
-259.74690037
 30
0.0
 11
246.76861697
 21
-227.74690037
 31
0.0
  0
LINE
  5
1CD
100
AcDbEntity
  8
0
100
AcDbLine
 10
248.76861697
 20
-227.74690037
 30
0.0
 11
246.76861697
 21
-227.74690037
 31
0.0
  0
LINE
  5
1CE
100
AcDbEntity
  8
0
100
AcDbLine
 10
248.76861697
 20
-227.74690037
 30
0.0
 11
248.76861697
 21
-259.74690037
 31
0.0
  0
LINE
  5
1CF
100
AcDbEntity
  8
0
100
AcDbLine
 10
248.76861697
 20
-224.24690037
 30
0.0
 11
248.76861697
 21
-227.74690037
 31
0.0
  0
LINE
  5
1D0
100
AcDbEntity
  8
0
100
AcDbLine
 10
248.76861697
 20
-224.24690037
 30
0.0
 11
246.76861697
 21
-224.24690037
 31
0.0
  0
LINE
  5
1D1
100
AcDbEntity
  8
0
100
AcDbLine
 10
246.76861697
 20
-227.74690037
 30
0.0
 11
246.76861697
 21
-224.24690037
 31
0.0
  0
LINE
  5
1D2
100
AcDbEntity
  8
0
100
AcDbLine
  6
STRICHPUNKT2
 62
     1
 10
249.76861697
 20
-230.24690037
 30
0.0
 11
245.76861697
 21
-230.24690037
 31
0.0
  0
LINE
  5
1D3
100
AcDbEntity
  8
0
100
AcDbLine
  6
STRICHPUNKT2
 62
     1
 10
249.76861697
 20
-230.24690037
 30
0.0
 11
245.76861697
 21
-230.24690037
 31
0.0
  0
LINE
  5
1D4
100
AcDbEntity
  8
0
100
AcDbLine
  6
STRICHPUNKT2
 62
     1
 10
251.01861697
 20
-239.24690037
 30
0.0
 11
244.51861697
 21
-239.24690037
 31
0.0
  0
LINE
  5
1D5
100
AcDbEntity
  8
0
100
AcDbLine
  6
STRICHPUNKT2
 62
     1
 10
249.76861697
 20
-249.24690037
 30
0.0
 11
245.76861697
 21
-249.24690037
 31
0.0
  0
LINE
  5
1D6
100
AcDbEntity
  8
0
100
AcDbLine
  6
STRICHPUNKT2
 62
     1
 10
249.76861697
 20
-249.24690037
 30
0.0
 11
245.76861697
 21
-249.24690037
 31
0.0
  0
LINE
  5
1D7
100
AcDbEntity
  8
0
100
AcDbLine
  6
STRICHPUNKT2
 62
     1
 10
251.01861697
 20
-239.24690037
 30
0.0
 11
244.51861697
 21
-239.24690037
 31
0.0
  0
LINE
  5
1D8
100
AcDbEntity
  8
0
100
AcDbLine
  6
STRICHPUNKT2
 62
     1
 10
251.51861697
 20
-243.24690037
 30
0.0
 11
244.01861697
 21
-243.24690037
 31
0.0
  0
LINE
  5
1D9
100
AcDbEntity
  8
0
100
AcDbLine
  6
STRICHPUNKT2
 62
     1
 10
249.76861697
 20
-230.24690037
 30
0.0
 11
245.76861697
 21
-230.24690037
 31
0.0
  0
LINE
  5
1DA
100
AcDbEntity
  8
0
100
AcDbLine
  6
DOT
 62
     3
 10
442.73869114
 20
-264.24690037
 30
0.0
 11
442.73869114
 21
-262.24690037
 31
0.0
  0
LINE
  5
1DB
100
AcDbEntity
  8
0
100
AcDbLine
  6
DOT
 62
     3
 10
431.73869114
 20
-264.24690037
 30
0.0
 11
431.73869114
 21
-262.24690037
 31
0.0
  0
LINE
  5
1DC
100
AcDbEntity
  8
0
100
AcDbLine
  6
DOT
 62
     3
 10
435.23869114
 20
-262.24690037
 30
0.0
 11
435.23869114
 21
-264.24690037
 31
0.0
  0
LINE
  5
1DD
100
AcDbEntity
  8
0
100
AcDbLine
  6
DOT
 62
     3
 10
439.23869114
 20
-262.24690037
 30
0.0
 11
439.23869114
 21
-264.24690037
 31
0.0
  0
LINE
  5
1DE
100
AcDbEntity
  8
0
100
AcDbLine
  6
DOT
 62
     3
 10
457.23869114
 20
-262.24690037
 30
0.0
 11
457.23869114
 21
-264.24690037
 31
0.0
  0
LINE
  5
1DF
100
AcDbEntity
  8
0
100
AcDbLine
  6
DOT
 62
     3
 10
461.23869114
 20
-262.24690037
 30
0.0
 11
461.23869114
 21
-264.24690037
 31
0.0
  0
LINE
  5
1E0
100
AcDbEntity
  8
0
100
AcDbLine
  6
DOT
 62
     3
 10
413.23869114
 20
-262.24690037
 30
0.0
 11
413.23869114
 21
-264.24690037
 31
0.0
  0
LINE
  5
1E1
100
AcDbEntity
  8
0
100
AcDbLine
  6
DOT
 62
     3
 10
417.23869114
 20
-262.24690037
 30
0.0
 11
417.23869114
 21
-264.24690037
 31
0.0
  0
LINE
  5
1E2
100
AcDbEntity
  8
0
100
AcDbLine
  6
DOT
 62
     3
 10
421.23869114
 20
-262.24690037
 30
0.0
 11
421.23869114
 21
-264.24690037
 31
0.0
  0
LINE
  5
1E3
100
AcDbEntity
  8
0
100
AcDbLine
  6
DOT
 62
     3
 10
427.23869114
 20
-262.24690037
 30
0.0
 11
427.23869114
 21
-264.24690037
 31
0.0
  0
LINE
  5
1E4
100
AcDbEntity
  8
0
100
AcDbLine
  6
DOT
 62
     3
 10
447.23869114
 20
-262.24690037
 30
0.0
 11
447.23869114
 21
-264.24690037
 31
0.0
  0
LINE
  5
1E5
100
AcDbEntity
  8
0
100
AcDbLine
  6
DOT
 62
     3
 10
453.23869114
 20
-262.24690037
 30
0.0
 11
453.23869114
 21
-264.24690037
 31
0.0
  0
LINE
  5
1E6
100
AcDbEntity
  8
0
100
AcDbLine
 10
463.73869114
 20
-262.24690037
 30
0.0
 11
410.73869114
 21
-262.24690037
 31
0.0
  0
LINE
  5
1E7
100
AcDbEntity
  8
0
100
AcDbLine
 10
410.73869114
 20
-264.24690037
 30
0.0
 11
410.73869114
 21
-262.24690037
 31
0.0
  0
POLYLINE
  5
1E8
100
AcDbEntity
  8
0
100
AcDb2dPolyline
 66
     1
  0
VERTEX
  5
1E9
100
AcDbEntity
  8
0
100
AcDbVertex
100
AcDb2dVertex
 10
410.73869114
 20
-264.24690037
 30
0.0
  0
VERTEX
  5
1EA
100
AcDbEntity
  8
0
100
AcDbVertex
100
AcDb2dVertex
 10
463.73869114
 20
-264.24690037
 30
0.0
  0
VERTEX
  5
1EB
100
AcDbEntity
  8
0
100
AcDbVertex
100
AcDb2dVertex
 10
463.73869114
 20
-262.24690037
 30
0.0
  0
VERTEX
  5
1EC
100
AcDbEntity
  8
0
100
AcDbVertex
100
AcDb2dVertex
 10
467.23869114
 20
-262.24690037
 30
0.0
  0
SEQEND
  5
1ED
100
AcDbEntity
  8
0
  0
LINE
  5
1EE
100
AcDbEntity
  8
0
100
AcDbLine
 10
467.23869114
 20
-264.24690037
 30
0.0
 11
467.23869114
 21
-262.24690037
 31
0.0
  0
LINE
  5
1EF
100
AcDbEntity
  8
0
100
AcDbLine
 10
467.23869114
 20
-264.24690037
 30
0.0
 11
463.73869114
 21
-264.24690037
 31
0.0
  0
POLYLINE
  5
1F0
100
AcDbEntity
  8
0
100
AcDb2dPolyline
 66
     1
  0
VERTEX
  5
1F1
100
AcDbEntity
  8
0
100
AcDbVertex
100
AcDb2dVertex
 10
410.73869114
 20
-264.24690037
 30
0.0
  0
VERTEX
  5
1F2
100
AcDbEntity
  8
0
100
AcDbVertex
100
AcDb2dVertex
 10
407.23869114
 20
-264.24690037
 30
0.0
  0
VERTEX
  5
1F3
100
AcDbEntity
  8
0
100
AcDbVertex
100
AcDb2dVertex
 10
407.23869114
 20
-262.24690037
 30
0.0
  0
VERTEX
  5
1F4
100
AcDbEntity
  8
0
100
AcDbVertex
100
AcDb2dVertex
 10
410.73869114
 20
-262.24690037
 30
0.0
  0
SEQEND
  5
1F5
100
AcDbEntity
  8
0
  0
LINE
  5
1F6
100
AcDbEntity
  8
0
100
AcDbLine
  6
STRICHPUNKT2
 62
     1
 10
415.23869114
 20
-261.24690037
 30
0.0
 11
415.23869114
 21
-265.24690037
 31
0.0
  0
LINE
  5
1F7
100
AcDbEntity
  8
0
100
AcDbLine
  6
STRICHPUNKT2
 62
     1
 10
437.23869114
 20
-259.49690037
 30
0.0
 11
437.23869114
 21
-266.99690037
 31
0.0
  0
LINE
  5
1F8
100
AcDbEntity
  8
0
100
AcDbLine
  6
STRICHPUNKT2
 62
     1
 10
437.23869114
 20
-259.49690037
 30
0.0
 11
437.23869114
 21
-266.99690037
 31
0.0
  0
LINE
  5
1F9
100
AcDbEntity
  8
0
100
AcDbLine
  6
STRICHPUNKT2
 62
     1
 10
424.23869114
 20
-260.74690037
 30
0.0
 11
424.23869114
 21
-265.74690037
 31
0.0
  0
LINE
  5
1FA
100
AcDbEntity
  8
0
100
AcDbLine
  6
STRICHPUNKT2
 62
     1
 10
415.23869114
 20
-261.24690037
 30
0.0
 11
415.23869114
 21
-265.24690037
 31
0.0
  0
LINE
  5
1FB
100
AcDbEntity
  8
0
100
AcDbLine
  6
STRICHPUNKT2
 62
     1
 10
459.23869114
 20
-261.24690037
 30
0.0
 11
459.23869114
 21
-265.24690037
 31
0.0
  0
LINE
  5
1FC
100
AcDbEntity
  8
0
100
AcDbLine
  6
STRICHPUNKT2
 62
     1
 10
450.23869114
 20
-260.74690037
 30
0.0
 11
450.23869114
 21
-265.74690037
 31
0.0
  0
LINE
  5
1FD
100
AcDbEntity
  8
0
100
AcDbLine
  6
STRICHPUNKT2
 62
     1
 10
459.23869114
 20
-261.24690037
 30
0.0
 11
459.23869114
 21
-265.24690037
 31
0.0
  0
LINE
  5
1FE
100
AcDbEntity
  8
0
100
AcDbLine
  6
STRICHPUNKT2
 62
     1
 10
437.23869114
 20
-261.24690037
 30
0.0
 11
437.23869114
 21
-265.24690037
 31
0.0
  0
LINE
  5
1FF
100
AcDbEntity
  8
0
100
AcDbLine
  6
DOT
 62
     3
 10
407.23869114
 20
-262.24690037
 30
0.0
 11
467.23869114
 21
-262.24690037
 31
0.0
  0
LINE
  5
200
100
AcDbEntity
  8
0
100
AcDbLine
 10
407.23869114
 20
-259.74690037
 30
0.0
 11
407.23869114
 21
-262.24690037
 31
0.0
  0
LINE
  5
201
100
AcDbEntity
  8
0
100
AcDbLine
 10
407.23869114
 20
-259.74690037
 30
0.0
 11
467.23869114
 21
-259.74690037
 31
0.0
  0
LINE
  5
202
100
AcDbEntity
  8
0
100
AcDbLine
 10
467.23869114
 20
-262.24690037
 30
0.0
 11
467.23869114
 21
-259.74690037
 31
0.0
  0
CIRCLE
  5
203
100
AcDbEntity
  8
0
100
AcDbCircle
 10
437.23869114
 20
-243.24690037
 30
0.0
 40
5.50000000
  0
CIRCLE
  5
204
100
AcDbEntity
  8
0
100
AcDbCircle
 10
452.23869114
 20
-239.24690037
 30
0.0
 40
4.50000000
  0
CIRCLE
  5
205
100
AcDbEntity
  8
0
100
AcDbCircle
 10
422.23869114
 20
-239.24690037
 30
0.0
 40
4.50000000
  0
CIRCLE
  5
206
100
AcDbEntity
  8
0
100
AcDbCircle
 10
450.23869114
 20
-249.24690037
 30
0.0
 40
2.00000000
  0
CIRCLE
  5
207
100
AcDbEntity
  8
0
100
AcDbCircle
 10
424.23869114
 20
-249.24690037
 30
0.0
 40
2.00000000
  0
CIRCLE
  5
208
100
AcDbEntity
  8
0
100
AcDbCircle
 10
459.23869114
 20
-230.24690037
 30
0.0
 40
2.00000000
  0
CIRCLE
  5
209
100
AcDbEntity
  8
0
100
AcDbCircle
 10
437.23869114
 20
-230.24690037
 30
0.0
 40
2.00000000
  0
CIRCLE
  5
20A
100
AcDbEntity
  8
0
100
AcDbCircle
 10
415.23869114
 20
-230.24690037
 30
0.0
 40
2.00000000
  0
POLYLINE
  5
20B
100
AcDbEntity
  8
0
100
AcDb2dPolyline
 66
     1
 70
     1
  0
VERTEX
  5
20C
100
AcDbEntity
  8
0
100
AcDbVertex
100
AcDb2dVertex
 10
407.23869114
 20
-227.74690037
 30
0.0
  0
VERTEX
  5
20D
100
AcDbEntity
  8
0
100
AcDbVertex
100
AcDb2dVertex
 10
407.23869114
 20
-259.74690037
 30
0.0
  0
VERTEX
  5
20E
100
AcDbEntity
  8
0
100
AcDbVertex
100
AcDb2dVertex
 10
467.23869114
 20
-259.74690037
 30
0.0
  0
VERTEX
  5
20F
100
AcDbEntity
  8
0
100
AcDbVertex
100
AcDb2dVertex
 10
467.23869114
 20
-227.74690037
 30
0.0
  0
VERTEX
  5
210
100
AcDbEntity
  8
0
100
AcDbVertex
100
AcDb2dVertex
 10
463.73869114
 20
-224.24690037
 30
0.0
  0
VERTEX
  5
211
100
AcDbEntity
  8
0
100
AcDbVertex
100
AcDb2dVertex
 10
410.73869114
 20
-224.24690037
 30
0.0
  0
SEQEND
  5
212
100
AcDbEntity
  8
0
  0
LINE
  5
213
100
AcDbEntity
  8
0
100
AcDbLine
  6
STRICHPUNKT2
 62
     1
 10
415.23869114
 20
-230.24690037
 30
0.0
 11
418.23869114
 21
-230.24690037
 31
0.0
  0
LINE
  5
214
100
AcDbEntity
  8
0
100
AcDbLine
  6
STRICHPUNKT2
 62
     1
 10
415.23869114
 20
-230.24690037
 30
0.0
 11
412.23869114
 21
-230.24690037
 31
0.0
  0
LINE
  5
215
100
AcDbEntity
  8
0
100
AcDbLine
  6
STRICHPUNKT2
 62
     1
 10
415.23869114
 20
-230.24690037
 30
0.0
 11
415.23869114
 21
-227.24690037
 31
0.0
  0
LINE
  5
216
100
AcDbEntity
  8
0
100
AcDbLine
  6
STRICHPUNKT2
 62
     1
 10
415.23869114
 20
-230.24690037
 30
0.0
 11
415.23869114
 21
-233.24690037
 31
0.0
  0
LINE
  5
217
100
AcDbEntity
  8
0
100
AcDbLine
  6
STRICHPUNKT2
 62
     1
 10
415.23869114
 20
-230.24690037
 30
0.0
 11
418.23869114
 21
-230.24690037
 31
0.0
  0
LINE
  5
218
100
AcDbEntity
  8
0
100
AcDbLine
  6
STRICHPUNKT2
 62
     1
 10
415.23869114
 20
-230.24690037
 30
0.0
 11
412.23869114
 21
-230.24690037
 31
0.0
  0
LINE
  5
219
100
AcDbEntity
  8
0
100
AcDbLine
  6
STRICHPUNKT2
 62
     1
 10
415.23869114
 20
-230.24690037
 30
0.0
 11
415.23869114
 21
-227.24690037
 31
0.0
  0
LINE
  5
21A
100
AcDbEntity
  8
0
100
AcDbLine
  6
STRICHPUNKT2
 62
     1
 10
415.23869114
 20
-230.24690037
 30
0.0
 11
415.23869114
 21
-233.24690037
 31
0.0
  0
LINE
  5
21B
100
AcDbEntity
  8
0
100
AcDbLine
  6
STRICHPUNKT2
 62
     1
 10
437.23869114
 20
-230.24690037
 30
0.0
 11
440.23869114
 21
-230.24690037
 31
0.0
  0
LINE
  5
21C
100
AcDbEntity
  8
0
100
AcDbLine
  6
STRICHPUNKT2
 62
     1
 10
437.23869114
 20
-230.24690037
 30
0.0
 11
434.23869114
 21
-230.24690037
 31
0.0
  0
LINE
  5
21D
100
AcDbEntity
  8
0
100
AcDbLine
  6
STRICHPUNKT2
 62
     1
 10
437.23869114
 20
-230.24690037
 30
0.0
 11
437.23869114
 21
-227.24690037
 31
0.0
  0
LINE
  5
21E
100
AcDbEntity
  8
0
100
AcDbLine
  6
STRICHPUNKT2
 62
     1
 10
437.23869114
 20
-230.24690037
 30
0.0
 11
437.23869114
 21
-233.24690037
 31
0.0
  0
LINE
  5
21F
100
AcDbEntity
  8
0
100
AcDbLine
  6
STRICHPUNKT2
 62
     1
 10
437.23869114
 20
-230.24690037
 30
0.0
 11
440.23869114
 21
-230.24690037
 31
0.0
  0
LINE
  5
220
100
AcDbEntity
  8
0
100
AcDbLine
  6
STRICHPUNKT2
 62
     1
 10
437.23869114
 20
-230.24690037
 30
0.0
 11
434.23869114
 21
-230.24690037
 31
0.0
  0
LINE
  5
221
100
AcDbEntity
  8
0
100
AcDbLine
  6
STRICHPUNKT2
 62
     1
 10
437.23869114
 20
-230.24690037
 30
0.0
 11
437.23869114
 21
-227.24690037
 31
0.0
  0
LINE
  5
222
100
AcDbEntity
  8
0
100
AcDbLine
  6
STRICHPUNKT2
 62
     1
 10
437.23869114
 20
-230.24690037
 30
0.0
 11
437.23869114
 21
-233.24690037
 31
0.0
  0
LINE
  5
223
100
AcDbEntity
  8
0
100
AcDbLine
  6
STRICHPUNKT2
 62
     1
 10
459.23869114
 20
-230.24690037
 30
0.0
 11
462.23869114
 21
-230.24690037
 31
0.0
  0
LINE
  5
224
100
AcDbEntity
  8
0
100
AcDbLine
  6
STRICHPUNKT2
 62
     1
 10
459.23869114
 20
-230.24690037
 30
0.0
 11
456.23869114
 21
-230.24690037
 31
0.0
  0
LINE
  5
225
100
AcDbEntity
  8
0
100
AcDbLine
  6
STRICHPUNKT2
 62
     1
 10
459.23869114
 20
-230.24690037
 30
0.0
 11
459.23869114
 21
-227.24690037
 31
0.0
  0
LINE
  5
226
100
AcDbEntity
  8
0
100
AcDbLine
  6
STRICHPUNKT2
 62
     1
 10
459.23869114
 20
-230.24690037
 30
0.0
 11
459.23869114
 21
-233.24690037
 31
0.0
  0
LINE
  5
227
100
AcDbEntity
  8
0
100
AcDbLine
  6
STRICHPUNKT2
 62
     1
 10
459.23869114
 20
-230.24690037
 30
0.0
 11
462.23869114
 21
-230.24690037
 31
0.0
  0
LINE
  5
228
100
AcDbEntity
  8
0
100
AcDbLine
  6
STRICHPUNKT2
 62
     1
 10
459.23869114
 20
-230.24690037
 30
0.0
 11
456.23869114
 21
-230.24690037
 31
0.0
  0
LINE
  5
229
100
AcDbEntity
  8
0
100
AcDbLine
  6
STRICHPUNKT2
 62
     1
 10
459.23869114
 20
-230.24690037
 30
0.0
 11
459.23869114
 21
-227.24690037
 31
0.0
  0
LINE
  5
22A
100
AcDbEntity
  8
0
100
AcDbLine
  6
STRICHPUNKT2
 62
     1
 10
459.23869114
 20
-230.24690037
 30
0.0
 11
459.23869114
 21
-233.24690037
 31
0.0
  0
LINE
  5
22B
100
AcDbEntity
  8
0
100
AcDbLine
  6
STRICHPUNKT2
 62
     1
 10
424.23869114
 20
-249.24690037
 30
0.0
 11
427.23869114
 21
-249.24690037
 31
0.0
  0
LINE
  5
22C
100
AcDbEntity
  8
0
100
AcDbLine
  6
STRICHPUNKT2
 62
     1
 10
424.23869114
 20
-249.24690037
 30
0.0
 11
421.23869114
 21
-249.24690037
 31
0.0
  0
LINE
  5
22D
100
AcDbEntity
  8
0
100
AcDbLine
  6
STRICHPUNKT2
 62
     1
 10
424.23869114
 20
-249.24690037
 30
0.0
 11
424.23869114
 21
-246.24690037
 31
0.0
  0
LINE
  5
22E
100
AcDbEntity
  8
0
100
AcDbLine
  6
STRICHPUNKT2
 62
     1
 10
424.23869114
 20
-249.24690037
 30
0.0
 11
424.23869114
 21
-252.24690037
 31
0.0
  0
LINE
  5
22F
100
AcDbEntity
  8
0
100
AcDbLine
  6
STRICHPUNKT2
 62
     1
 10
424.23869114
 20
-249.24690037
 30
0.0
 11
427.23869114
 21
-249.24690037
 31
0.0
  0
LINE
  5
230
100
AcDbEntity
  8
0
100
AcDbLine
  6
STRICHPUNKT2
 62
     1
 10
424.23869114
 20
-249.24690037
 30
0.0
 11
421.23869114
 21
-249.24690037
 31
0.0
  0
LINE
  5
231
100
AcDbEntity
  8
0
100
AcDbLine
  6
STRICHPUNKT2
 62
     1
 10
424.23869114
 20
-249.24690037
 30
0.0
 11
424.23869114
 21
-246.24690037
 31
0.0
  0
LINE
  5
232
100
AcDbEntity
  8
0
100
AcDbLine
  6
STRICHPUNKT2
 62
     1
 10
424.23869114
 20
-249.24690037
 30
0.0
 11
424.23869114
 21
-252.24690037
 31
0.0
  0
LINE
  5
233
100
AcDbEntity
  8
0
100
AcDbLine
  6
STRICHPUNKT2
 62
     1
 10
450.23869114
 20
-249.24690037
 30
0.0
 11
453.23869114
 21
-249.24690037
 31
0.0
  0
LINE
  5
234
100
AcDbEntity
  8
0
100
AcDbLine
  6
STRICHPUNKT2
 62
     1
 10
450.23869114
 20
-249.24690037
 30
0.0
 11
447.23869114
 21
-249.24690037
 31
0.0
  0
LINE
  5
235
100
AcDbEntity
  8
0
100
AcDbLine
  6
STRICHPUNKT2
 62
     1
 10
450.23869114
 20
-249.24690037
 30
0.0
 11
450.23869114
 21
-246.24690037
 31
0.0
  0
LINE
  5
236
100
AcDbEntity
  8
0
100
AcDbLine
  6
STRICHPUNKT2
 62
     1
 10
450.23869114
 20
-249.24690037
 30
0.0
 11
450.23869114
 21
-252.24690037
 31
0.0
  0
LINE
  5
237
100
AcDbEntity
  8
0
100
AcDbLine
  6
STRICHPUNKT2
 62
     1
 10
450.23869114
 20
-249.24690037
 30
0.0
 11
453.23869114
 21
-249.24690037
 31
0.0
  0
LINE
  5
238
100
AcDbEntity
  8
0
100
AcDbLine
  6
STRICHPUNKT2
 62
     1
 10
450.23869114
 20
-249.24690037
 30
0.0
 11
447.23869114
 21
-249.24690037
 31
0.0
  0
LINE
  5
239
100
AcDbEntity
  8
0
100
AcDbLine
  6
STRICHPUNKT2
 62
     1
 10
450.23869114
 20
-249.24690037
 30
0.0
 11
450.23869114
 21
-246.24690037
 31
0.0
  0
LINE
  5
23A
100
AcDbEntity
  8
0
100
AcDbLine
  6
STRICHPUNKT2
 62
     1
 10
450.23869114
 20
-249.24690037
 30
0.0
 11
450.23869114
 21
-252.24690037
 31
0.0
  0
LINE
  5
23B
100
AcDbEntity
  8
0
100
AcDbLine
  6
STRICHPUNKT2
 62
     1
 10
422.23869114
 20
-239.24690037
 30
0.0
 11
428.98869114
 21
-239.24690037
 31
0.0
  0
LINE
  5
23C
100
AcDbEntity
  8
0
100
AcDbLine
  6
STRICHPUNKT2
 62
     1
 10
422.23869114
 20
-239.24690037
 30
0.0
 11
415.48869114
 21
-239.24690037
 31
0.0
  0
LINE
  5
23D
100
AcDbEntity
  8
0
100
AcDbLine
  6
STRICHPUNKT2
 62
     1
 10
422.23869114
 20
-239.24690037
 30
0.0
 11
422.23869114
 21
-232.49690037
 31
0.0
  0
LINE
  5
23E
100
AcDbEntity
  8
0
100
AcDbLine
  6
STRICHPUNKT2
 62
     1
 10
422.23869114
 20
-239.24690037
 30
0.0
 11
422.23869114
 21
-245.99690037
 31
0.0
  0
LINE
  5
23F
100
AcDbEntity
  8
0
100
AcDbLine
  6
STRICHPUNKT2
 62
     1
 10
422.23869114
 20
-239.24690037
 30
0.0
 11
428.98869114
 21
-239.24690037
 31
0.0
  0
LINE
  5
240
100
AcDbEntity
  8
0
100
AcDbLine
  6
STRICHPUNKT2
 62
     1
 10
422.23869114
 20
-239.24690037
 30
0.0
 11
415.48869114
 21
-239.24690037
 31
0.0
  0
LINE
  5
241
100
AcDbEntity
  8
0
100
AcDbLine
  6
STRICHPUNKT2
 62
     1
 10
422.23869114
 20
-239.24690037
 30
0.0
 11
422.23869114
 21
-232.49690037
 31
0.0
  0
LINE
  5
242
100
AcDbEntity
  8
0
100
AcDbLine
  6
STRICHPUNKT2
 62
     1
 10
422.23869114
 20
-239.24690037
 30
0.0
 11
422.23869114
 21
-245.99690037
 31
0.0
  0
LINE
  5
243
100
AcDbEntity
  8
0
100
AcDbLine
  6
STRICHPUNKT2
 62
     1
 10
452.23869114
 20
-239.24690037
 30
0.0
 11
458.98869114
 21
-239.24690037
 31
0.0
  0
LINE
  5
244
100
AcDbEntity
  8
0
100
AcDbLine
  6
STRICHPUNKT2
 62
     1
 10
452.23869114
 20
-239.24690037
 30
0.0
 11
445.48869114
 21
-239.24690037
 31
0.0
  0
LINE
  5
245
100
AcDbEntity
  8
0
100
AcDbLine
  6
STRICHPUNKT2
 62
     1
 10
452.23869114
 20
-239.24690037
 30
0.0
 11
452.23869114
 21
-232.49690037
 31
0.0
  0
LINE
  5
246
100
AcDbEntity
  8
0
100
AcDbLine
  6
STRICHPUNKT2
 62
     1
 10
452.23869114
 20
-239.24690037
 30
0.0
 11
452.23869114
 21
-245.99690037
 31
0.0
  0
LINE
  5
247
100
AcDbEntity
  8
0
100
AcDbLine
  6
STRICHPUNKT2
 62
     1
 10
452.23869114
 20
-239.24690037
 30
0.0
 11
458.98869114
 21
-239.24690037
 31
0.0
  0
LINE
  5
248
100
AcDbEntity
  8
0
100
AcDbLine
  6
STRICHPUNKT2
 62
     1
 10
452.23869114
 20
-239.24690037
 30
0.0
 11
445.48869114
 21
-239.24690037
 31
0.0
  0
LINE
  5
249
100
AcDbEntity
  8
0
100
AcDbLine
  6
STRICHPUNKT2
 62
     1
 10
452.23869114
 20
-239.24690037
 30
0.0
 11
452.23869114
 21
-232.49690037
 31
0.0
  0
LINE
  5
24A
100
AcDbEntity
  8
0
100
AcDbLine
  6
STRICHPUNKT2
 62
     1
 10
452.23869114
 20
-239.24690037
 30
0.0
 11
452.23869114
 21
-245.99690037
 31
0.0
  0
LINE
  5
24B
100
AcDbEntity
  8
0
100
AcDbLine
  6
STRICHPUNKT2
 62
     1
 10
437.23869114
 20
-243.24690037
 30
0.0
 11
445.48869114
 21
-243.24690037
 31
0.0
  0
LINE
  5
24C
100
AcDbEntity
  8
0
100
AcDbLine
  6
STRICHPUNKT2
 62
     1
 10
437.23869114
 20
-243.24690037
 30
0.0
 11
428.98869114
 21
-243.24690037
 31
0.0
  0
LINE
  5
24D
100
AcDbEntity
  8
0
100
AcDbLine
  6
STRICHPUNKT2
 62
     1
 10
437.23869114
 20
-243.24690037
 30
0.0
 11
437.23869114
 21
-234.99690037
 31
0.0
  0
LINE
  5
24E
100
AcDbEntity
  8
0
100
AcDbLine
  6
STRICHPUNKT2
 62
     1
 10
437.23869114
 20
-243.24690037
 30
0.0
 11
437.23869114
 21
-251.49690037
 31
0.0
  0
LINE
  5
24F
100
AcDbEntity
  8
0
100
AcDbLine
  6
STRICHPUNKT2
 62
     1
 10
437.23869114
 20
-243.24690037
 30
0.0
 11
445.48869114
 21
-243.24690037
 31
0.0
  0
LINE
  5
250
100
AcDbEntity
  8
0
100
AcDbLine
  6
STRICHPUNKT2
 62
     1
 10
437.23869114
 20
-243.24690037
 30
0.0
 11
428.98869114
 21
-243.24690037
 31
0.0
  0
LINE
  5
251
100
AcDbEntity
  8
0
100
AcDbLine
  6
STRICHPUNKT2
 62
     1
 10
437.23869114
 20
-243.24690037
 30
0.0
 11
437.23869114
 21
-234.99690037
 31
0.0
  0
LINE
  5
252
100
AcDbEntity
  8
0
100
AcDbLine
  6
STRICHPUNKT2
 62
     1
 10
437.23869114
 20
-243.24690037
 30
0.0
 11
437.23869114
 21
-251.49690037
 31
0.0
  0
POLYLINE
  5
253
100
AcDbEntity
  8
0
100
AcDb2dPolyline
 66
     1
 70
     1
  0
VERTEX
  5
254
100
AcDbEntity
  8
0
100
AcDbVertex
100
AcDb2dVertex
 10
263.76861697
 20
-136.08926556
 30
0.0
 42
-1.000000000
  0
VERTEX
  5
255
100
AcDbEntity
  8
0
100
AcDbVertex
100
AcDb2dVertex
 10
263.76861697
 20
-125.08926556
 30
0.0
  0
VERTEX
  5
256
100
AcDbEntity
  8
0
100
AcDbVertex
100
AcDb2dVertex
 10
282.76861697
 20
-125.08926556
 30
0.0
 42
-1.000000000
  0
VERTEX
  5
257
100
AcDbEntity
  8
0
100
AcDbVertex
100
AcDb2dVertex
 10
282.76861697
 20
-136.08926556
 30
0.0
  0
SEQEND
  5
258
100
AcDbEntity
  8
0
  0
CIRCLE
  5
259
100
AcDbEntity
  8
0
100
AcDbCircle
 10
282.76861697
 20
-117.58926556
 30
0.0
 40
3.00000000
  0
CIRCLE
  5
25A
100
AcDbEntity
  8
0
100
AcDbCircle
 10
282.76861697
 20
-143.58926556
 30
0.0
 40
3.00000000
  0
CIRCLE
  5
25B
100
AcDbEntity
  8
0
100
AcDbCircle
 10
262.76861697
 20
-108.58926556
 30
0.0
 40
2.00000000
  0
CIRCLE
  5
25C
100
AcDbEntity
  8
0
100
AcDbCircle
 10
262.76861697
 20
-152.58926556
 30
0.0
 40
2.00000000
  0
CIRCLE
  5
25D
100
AcDbEntity
  8
0
100
AcDbCircle
 10
300.76861697
 20
-108.58926556
 30
0.0
 40
2.00000000
  0
CIRCLE
  5
25E
100
AcDbEntity
  8
0
100
AcDbCircle
 10
300.76861697
 20
-130.58926556
 30
0.0
 40
2.00000000
  0
CIRCLE
  5
25F
100
AcDbEntity
  8
0
100
AcDbCircle
 10
300.76861697
 20
-152.58926556
 30
0.0
 40
2.00000000
  0
LINE
  5
260
100
AcDbEntity
  8
0
100
AcDbLine
 10
251.26861697
 20
-100.58926556
 30
0.0
 11
303.26861697
 21
-100.58926556
 31
0.0
  0
LINE
  5
261
100
AcDbEntity
  8
0
100
AcDbLine
 10
306.76861697
 20
-104.08926556
 30
0.0
 11
303.26861697
 21
-100.58926556
 31
0.0
  0
LINE
  5
262
100
AcDbEntity
  8
0
100
AcDbLine
 10
306.76861697
 20
-104.08926556
 30
0.0
 11
306.76861697
 21
-157.08926556
 31
0.0
  0
LINE
  5
263
100
AcDbEntity
  8
0
100
AcDbLine
 10
303.26861697
 20
-160.58926556
 30
0.0
 11
306.76861697
 21
-157.08926556
 31
0.0
  0
POLYLINE
  5
264
100
AcDbEntity
  8
0
100
AcDb2dPolyline
 66
     1
  0
VERTEX
  5
265
100
AcDbEntity
  8
0
100
AcDbVertex
100
AcDb2dVertex
 10
303.26861697
 20
-160.58926556
 30
0.0
  0
VERTEX
  5
266
100
AcDbEntity
  8
0
100
AcDbVertex
100
AcDb2dVertex
 10
251.26861697
 20
-160.58926556
 30
0.0
  0
VERTEX
  5
267
100
AcDbEntity
  8
0
100
AcDbVertex
100
AcDb2dVertex
 10
251.26861697
 20
-100.58926556
 30
0.0
  0
SEQEND
  5
268
100
AcDbEntity
  8
0
  0
LINE
  5
269
100
AcDbEntity
  8
0
100
AcDbLine
  6
STRICHPUNKT2
 62
     1
 10
300.76861697
 20
-152.58926556
 30
0.0
 11
303.76861697
 21
-152.58926556
 31
0.0
  0
LINE
  5
26A
100
AcDbEntity
  8
0
100
AcDbLine
  6
STRICHPUNKT2
 62
     1
 10
300.76861697
 20
-152.58926556
 30
0.0
 11
297.76861697
 21
-152.58926556
 31
0.0
  0
LINE
  5
26B
100
AcDbEntity
  8
0
100
AcDbLine
  6
STRICHPUNKT2
 62
     1
 10
300.76861697
 20
-152.58926556
 30
0.0
 11
300.76861697
 21
-149.58926556
 31
0.0
  0
LINE
  5
26C
100
AcDbEntity
  8
0
100
AcDbLine
  6
STRICHPUNKT2
 62
     1
 10
300.76861697
 20
-152.58926556
 30
0.0
 11
300.76861697
 21
-155.58926556
 31
0.0
  0
LINE
  5
26D
100
AcDbEntity
  8
0
100
AcDbLine
  6
STRICHPUNKT2
 62
     1
 10
300.76861697
 20
-152.58926556
 30
0.0
 11
303.76861697
 21
-152.58926556
 31
0.0
  0
LINE
  5
26E
100
AcDbEntity
  8
0
100
AcDbLine
  6
STRICHPUNKT2
 62
     1
 10
300.76861697
 20
-152.58926556
 30
0.0
 11
297.76861697
 21
-152.58926556
 31
0.0
  0
LINE
  5
26F
100
AcDbEntity
  8
0
100
AcDbLine
  6
STRICHPUNKT2
 62
     1
 10
300.76861697
 20
-152.58926556
 30
0.0
 11
300.76861697
 21
-149.58926556
 31
0.0
  0
LINE
  5
270
100
AcDbEntity
  8
0
100
AcDbLine
  6
STRICHPUNKT2
 62
     1
 10
300.76861697
 20
-152.58926556
 30
0.0
 11
300.76861697
 21
-155.58926556
 31
0.0
  0
LINE
  5
271
100
AcDbEntity
  8
0
100
AcDbLine
  6
STRICHPUNKT2
 62
     1
 10
300.76861697
 20
-130.58926556
 30
0.0
 11
303.76861697
 21
-130.58926556
 31
0.0
  0
LINE
  5
272
100
AcDbEntity
  8
0
100
AcDbLine
  6
STRICHPUNKT2
 62
     1
 10
300.76861697
 20
-130.58926556
 30
0.0
 11
297.76861697
 21
-130.58926556
 31
0.0
  0
LINE
  5
273
100
AcDbEntity
  8
0
100
AcDbLine
  6
STRICHPUNKT2
 62
     1
 10
300.76861697
 20
-130.58926556
 30
0.0
 11
300.76861697
 21
-127.58926556
 31
0.0
  0
LINE
  5
274
100
AcDbEntity
  8
0
100
AcDbLine
  6
STRICHPUNKT2
 62
     1
 10
300.76861697
 20
-130.58926556
 30
0.0
 11
300.76861697
 21
-133.58926556
 31
0.0
  0
LINE
  5
275
100
AcDbEntity
  8
0
100
AcDbLine
  6
STRICHPUNKT2
 62
     1
 10
300.76861697
 20
-130.58926556
 30
0.0
 11
303.76861697
 21
-130.58926556
 31
0.0
  0
LINE
  5
276
100
AcDbEntity
  8
0
100
AcDbLine
  6
STRICHPUNKT2
 62
     1
 10
300.76861697
 20
-130.58926556
 30
0.0
 11
297.76861697
 21
-130.58926556
 31
0.0
  0
LINE
  5
277
100
AcDbEntity
  8
0
100
AcDbLine
  6
STRICHPUNKT2
 62
     1
 10
300.76861697
 20
-130.58926556
 30
0.0
 11
300.76861697
 21
-127.58926556
 31
0.0
  0
LINE
  5
278
100
AcDbEntity
  8
0
100
AcDbLine
  6
STRICHPUNKT2
 62
     1
 10
300.76861697
 20
-130.58926556
 30
0.0
 11
300.76861697
 21
-133.58926556
 31
0.0
  0
LINE
  5
279
100
AcDbEntity
  8
0
100
AcDbLine
  6
STRICHPUNKT2
 62
     1
 10
300.76861697
 20
-108.58926556
 30
0.0
 11
303.76861697
 21
-108.58926556
 31
0.0
  0
LINE
  5
27A
100
AcDbEntity
  8
0
100
AcDbLine
  6
STRICHPUNKT2
 62
     1
 10
300.76861697
 20
-108.58926556
 30
0.0
 11
297.76861697
 21
-108.58926556
 31
0.0
  0
LINE
  5
27B
100
AcDbEntity
  8
0
100
AcDbLine
  6
STRICHPUNKT2
 62
     1
 10
300.76861697
 20
-108.58926556
 30
0.0
 11
300.76861697
 21
-105.58926556
 31
0.0
  0
LINE
  5
27C
100
AcDbEntity
  8
0
100
AcDbLine
  6
STRICHPUNKT2
 62
     1
 10
300.76861697
 20
-108.58926556
 30
0.0
 11
300.76861697
 21
-111.58926556
 31
0.0
  0
LINE
  5
27D
100
AcDbEntity
  8
0
100
AcDbLine
  6
STRICHPUNKT2
 62
     1
 10
300.76861697
 20
-108.58926556
 30
0.0
 11
303.76861697
 21
-108.58926556
 31
0.0
  0
LINE
  5
27E
100
AcDbEntity
  8
0
100
AcDbLine
  6
STRICHPUNKT2
 62
     1
 10
300.76861697
 20
-108.58926556
 30
0.0
 11
297.76861697
 21
-108.58926556
 31
0.0
  0
LINE
  5
27F
100
AcDbEntity
  8
0
100
AcDbLine
  6
STRICHPUNKT2
 62
     1
 10
300.76861697
 20
-108.58926556
 30
0.0
 11
300.76861697
 21
-105.58926556
 31
0.0
  0
LINE
  5
280
100
AcDbEntity
  8
0
100
AcDbLine
  6
STRICHPUNKT2
 62
     1
 10
300.76861697
 20
-108.58926556
 30
0.0
 11
300.76861697
 21
-111.58926556
 31
0.0
  0
LINE
  5
281
100
AcDbEntity
  8
0
100
AcDbLine
  6
STRICHPUNKT2
 62
     1
 10
262.76861697
 20
-152.58926556
 30
0.0
 11
265.76861697
 21
-152.58926556
 31
0.0
  0
LINE
  5
282
100
AcDbEntity
  8
0
100
AcDbLine
  6
STRICHPUNKT2
 62
     1
 10
262.76861697
 20
-152.58926556
 30
0.0
 11
259.76861697
 21
-152.58926556
 31
0.0
  0
LINE
  5
283
100
AcDbEntity
  8
0
100
AcDbLine
  6
STRICHPUNKT2
 62
     1
 10
262.76861697
 20
-152.58926556
 30
0.0
 11
262.76861697
 21
-149.58926556
 31
0.0
  0
LINE
  5
284
100
AcDbEntity
  8
0
100
AcDbLine
  6
STRICHPUNKT2
 62
     1
 10
262.76861697
 20
-152.58926556
 30
0.0
 11
262.76861697
 21
-155.58926556
 31
0.0
  0
LINE
  5
285
100
AcDbEntity
  8
0
100
AcDbLine
  6
STRICHPUNKT2
 62
     1
 10
262.76861697
 20
-152.58926556
 30
0.0
 11
265.76861697
 21
-152.58926556
 31
0.0
  0
LINE
  5
286
100
AcDbEntity
  8
0
100
AcDbLine
  6
STRICHPUNKT2
 62
     1
 10
262.76861697
 20
-152.58926556
 30
0.0
 11
259.76861697
 21
-152.58926556
 31
0.0
  0
LINE
  5
287
100
AcDbEntity
  8
0
100
AcDbLine
  6
STRICHPUNKT2
 62
     1
 10
262.76861697
 20
-152.58926556
 30
0.0
 11
262.76861697
 21
-149.58926556
 31
0.0
  0
LINE
  5
288
100
AcDbEntity
  8
0
100
AcDbLine
  6
STRICHPUNKT2
 62
     1
 10
262.76861697
 20
-152.58926556
 30
0.0
 11
262.76861697
 21
-155.58926556
 31
0.0
  0
LINE
  5
289
100
AcDbEntity
  8
0
100
AcDbLine
  6
STRICHPUNKT2
 62
     1
 10
262.76861697
 20
-108.58926556
 30
0.0
 11
265.76861697
 21
-108.58926556
 31
0.0
  0
LINE
  5
28A
100
AcDbEntity
  8
0
100
AcDbLine
  6
STRICHPUNKT2
 62
     1
 10
262.76861697
 20
-108.58926556
 30
0.0
 11
259.76861697
 21
-108.58926556
 31
0.0
  0
LINE
  5
28B
100
AcDbEntity
  8
0
100
AcDbLine
  6
STRICHPUNKT2
 62
     1
 10
262.76861697
 20
-108.58926556
 30
0.0
 11
262.76861697
 21
-105.58926556
 31
0.0
  0
LINE
  5
28C
100
AcDbEntity
  8
0
100
AcDbLine
  6
STRICHPUNKT2
 62
     1
 10
262.76861697
 20
-108.58926556
 30
0.0
 11
262.76861697
 21
-111.58926556
 31
0.0
  0
LINE
  5
28D
100
AcDbEntity
  8
0
100
AcDbLine
  6
STRICHPUNKT2
 62
     1
 10
262.76861697
 20
-108.58926556
 30
0.0
 11
265.76861697
 21
-108.58926556
 31
0.0
  0
LINE
  5
28E
100
AcDbEntity
  8
0
100
AcDbLine
  6
STRICHPUNKT2
 62
     1
 10
262.76861697
 20
-108.58926556
 30
0.0
 11
259.76861697
 21
-108.58926556
 31
0.0
  0
LINE
  5
28F
100
AcDbEntity
  8
0
100
AcDbLine
  6
STRICHPUNKT2
 62
     1
 10
262.76861697
 20
-108.58926556
 30
0.0
 11
262.76861697
 21
-105.58926556
 31
0.0
  0
LINE
  5
290
100
AcDbEntity
  8
0
100
AcDbLine
  6
STRICHPUNKT2
 62
     1
 10
262.76861697
 20
-108.58926556
 30
0.0
 11
262.76861697
 21
-111.58926556
 31
0.0
  0
LINE
  5
291
100
AcDbEntity
  8
0
100
AcDbLine
  6
STRICHPUNKT2
 62
     1
 10
282.76861697
 20
-143.58926556
 30
0.0
 11
287.26861697
 21
-143.58926556
 31
0.0
  0
LINE
  5
292
100
AcDbEntity
  8
0
100
AcDbLine
  6
STRICHPUNKT2
 62
     1
 10
282.76861697
 20
-143.58926556
 30
0.0
 11
278.26861697
 21
-143.58926556
 31
0.0
  0
LINE
  5
293
100
AcDbEntity
  8
0
100
AcDbLine
  6
STRICHPUNKT2
 62
     1
 10
282.76861697
 20
-143.58926556
 30
0.0
 11
282.76861697
 21
-139.08926556
 31
0.0
  0
LINE
  5
294
100
AcDbEntity
  8
0
100
AcDbLine
  6
STRICHPUNKT2
 62
     1
 10
282.76861697
 20
-143.58926556
 30
0.0
 11
282.76861697
 21
-148.08926556
 31
0.0
  0
LINE
  5
295
100
AcDbEntity
  8
0
100
AcDbLine
  6
STRICHPUNKT2
 62
     1
 10
282.76861697
 20
-143.58926556
 30
0.0
 11
287.26861697
 21
-143.58926556
 31
0.0
  0
LINE
  5
296
100
AcDbEntity
  8
0
100
AcDbLine
  6
STRICHPUNKT2
 62
     1
 10
282.76861697
 20
-143.58926556
 30
0.0
 11
278.26861697
 21
-143.58926556
 31
0.0
  0
LINE
  5
297
100
AcDbEntity
  8
0
100
AcDbLine
  6
STRICHPUNKT2
 62
     1
 10
282.76861697
 20
-143.58926556
 30
0.0
 11
282.76861697
 21
-139.08926556
 31
0.0
  0
LINE
  5
298
100
AcDbEntity
  8
0
100
AcDbLine
  6
STRICHPUNKT2
 62
     1
 10
282.76861697
 20
-143.58926556
 30
0.0
 11
282.76861697
 21
-148.08926556
 31
0.0
  0
LINE
  5
299
100
AcDbEntity
  8
0
100
AcDbLine
  6
STRICHPUNKT2
 62
     1
 10
282.76861697
 20
-117.58926556
 30
0.0
 11
287.26861697
 21
-117.58926556
 31
0.0
  0
LINE
  5
29A
100
AcDbEntity
  8
0
100
AcDbLine
  6
STRICHPUNKT2
 62
     1
 10
282.76861697
 20
-117.58926556
 30
0.0
 11
278.26861697
 21
-117.58926556
 31
0.0
  0
LINE
  5
29B
100
AcDbEntity
  8
0
100
AcDbLine
  6
STRICHPUNKT2
 62
     1
 10
282.76861697
 20
-117.58926556
 30
0.0
 11
282.76861697
 21
-113.08926556
 31
0.0
  0
LINE
  5
29C
100
AcDbEntity
  8
0
100
AcDbLine
  6
STRICHPUNKT2
 62
     1
 10
282.76861697
 20
-117.58926556
 30
0.0
 11
282.76861697
 21
-122.08926556
 31
0.0
  0
LINE
  5
29D
100
AcDbEntity
  8
0
100
AcDbLine
  6
STRICHPUNKT2
 62
     1
 10
282.76861697
 20
-117.58926556
 30
0.0
 11
287.26861697
 21
-117.58926556
 31
0.0
  0
LINE
  5
29E
100
AcDbEntity
  8
0
100
AcDbLine
  6
STRICHPUNKT2
 62
     1
 10
282.76861697
 20
-117.58926556
 30
0.0
 11
278.26861697
 21
-117.58926556
 31
0.0
  0
LINE
  5
29F
100
AcDbEntity
  8
0
100
AcDbLine
  6
STRICHPUNKT2
 62
     1
 10
282.76861697
 20
-117.58926556
 30
0.0
 11
282.76861697
 21
-113.08926556
 31
0.0
  0
LINE
  5
2A0
100
AcDbEntity
  8
0
100
AcDbLine
  6
STRICHPUNKT2
 62
     1
 10
282.76861697
 20
-117.58926556
 30
0.0
 11
282.76861697
 21
-122.08926556
 31
0.0
  0
LINE
  5
2A1
100
AcDbEntity
  8
0
100
AcDbLine
  6
STRICHPUNKT2
 62
     1
 10
255.51861697
 20
-130.58926556
 30
0.0
 11
291.01861697
 21
-130.58926556
 31
0.0
  0
LINE
  5
2A2
100
AcDbEntity
  8
0
100
AcDbLine
  6
STRICHPUNKT2
 62
     1
 10
263.76861697
 20
-138.83926556
 30
0.0
 11
263.76861697
 21
-122.33926556
 31
0.0
  0
LINE
  5
2A3
100
AcDbEntity
  8
0
100
AcDbLine
  6
STRICHPUNKT2
 62
     1
 10
282.76861697
 20
-138.83926556
 30
0.0
 11
282.76861697
 21
-122.33926556
 31
0.0
  0
LINE
  5
2A4
100
AcDbEntity
  8
0
100
AcDbLine
  6
STRICHPUNKT2
 62
     1
 10
255.51861697
 20
-130.58926556
 30
0.0
 11
291.01861697
 21
-130.58926556
 31
0.0
  0
LINE
  5
2A5
100
AcDbEntity
  8
0
100
AcDbLine
  6
STRICHPUNKT2
 62
     1
 10
263.76861697
 20
-138.83926556
 30
0.0
 11
263.76861697
 21
-122.33926556
 31
0.0
  0
LINE
  5
2A6
100
AcDbEntity
  8
0
100
AcDbLine
  6
STRICHPUNKT2
 62
     1
 10
282.76861697
 20
-138.83926556
 30
0.0
 11
282.76861697
 21
-122.33926556
 31
0.0
  0
LINE
  5
2A7
100
AcDbEntity
  8
0
100
AcDbLine
  6
DOT
 62
     3
 10
248.76861697
 20
-160.58926556
 30
0.0
 11
248.76861697
 21
-100.58926556
 31
0.0
  0
POLYLINE
  5
2A8
100
AcDbEntity
  8
0
100
AcDb2dPolyline
 66
     1
  0
VERTEX
  5
2A9
100
AcDbEntity
  8
0
100
AcDbVertex
100
AcDb2dVertex
 10
248.76861697
 20
-160.58926556
 30
0.0
  0
VERTEX
  5
2AA
100
AcDbEntity
  8
0
100
AcDbVertex
100
AcDb2dVertex
 10
251.26861697
 20
-160.58926556
 30
0.0
  0
VERTEX
  5
2AB
100
AcDbEntity
  8
0
100
AcDbVertex
100
AcDb2dVertex
 10
251.26861697
 20
-100.58926556
 30
0.0
  0
VERTEX
  5
2AC
100
AcDbEntity
  8
0
100
AcDbVertex
100
AcDb2dVertex
 10
248.76861697
 20
-100.58926556
 30
0.0
  0
SEQEND
  5
2AD
100
AcDbEntity
  8
0
  0
LINE
  5
2AE
100
AcDbEntity
  8
0
100
AcDbLine
  6
DOT
 62
     3
 10
248.76861697
 20
-141.58926556
 30
0.0
 11
246.76861697
 21
-141.58926556
 31
0.0
  0
LINE
  5
2AF
100
AcDbEntity
  8
0
100
AcDbLine
  6
DOT
 62
     3
 10
248.76861697
 20
-145.58926556
 30
0.0
 11
246.76861697
 21
-145.58926556
 31
0.0
  0
LINE
  5
2B0
100
AcDbEntity
  8
0
100
AcDbLine
  6
DOT
 62
     3
 10
248.76861697
 20
-150.58926556
 30
0.0
 11
246.76861697
 21
-150.58926556
 31
0.0
  0
LINE
  5
2B1
100
AcDbEntity
  8
0
100
AcDbLine
  6
DOT
 62
     3
 10
248.76861697
 20
-154.58926556
 30
0.0
 11
246.76861697
 21
-154.58926556
 31
0.0
  0
LINE
  5
2B2
100
AcDbEntity
  8
0
100
AcDbLine
  6
DOT
 62
     3
 10
248.76861697
 20
-128.58926556
 30
0.0
 11
246.76861697
 21
-128.58926556
 31
0.0
  0
LINE
  5
2B3
100
AcDbEntity
  8
0
100
AcDbLine
  6
DOT
 62
     3
 10
248.76861697
 20
-132.58926556
 30
0.0
 11
246.76861697
 21
-132.58926556
 31
0.0
  0
LINE
  5
2B4
100
AcDbEntity
  8
0
100
AcDbLine
  6
DOT
 62
     3
 10
248.76861697
 20
-115.58926556
 30
0.0
 11
246.76861697
 21
-115.58926556
 31
0.0
  0
LINE
  5
2B5
100
AcDbEntity
  8
0
100
AcDbLine
  6
DOT
 62
     3
 10
248.76861697
 20
-119.58926556
 30
0.0
 11
246.76861697
 21
-119.58926556
 31
0.0
  0
LINE
  5
2B6
100
AcDbEntity
  8
0
100
AcDbLine
  6
DOT
 62
     3
 10
248.76861697
 20
-106.58926556
 30
0.0
 11
246.76861697
 21
-106.58926556
 31
0.0
  0
LINE
  5
2B7
100
AcDbEntity
  8
0
100
AcDbLine
  6
DOT
 62
     3
 10
248.76861697
 20
-110.58926556
 30
0.0
 11
246.76861697
 21
-110.58926556
 31
0.0
  0
LINE
  5
2B8
100
AcDbEntity
  8
0
100
AcDbLine
  6
DOT
 62
     3
 10
248.76861697
 20
-141.08926556
 30
0.0
 11
246.76861697
 21
-141.08926556
 31
0.0
  0
LINE
  5
2B9
100
AcDbEntity
  8
0
100
AcDbLine
  6
DOT
 62
     3
 10
248.76861697
 20
-150.08926556
 30
0.0
 11
246.76861697
 21
-150.08926556
 31
0.0
  0
LINE
  5
2BA
100
AcDbEntity
  8
0
100
AcDbLine
  6
DOT
 62
     3
 10
248.76861697
 20
-111.08926556
 30
0.0
 11
246.76861697
 21
-111.08926556
 31
0.0
  0
LINE
  5
2BB
100
AcDbEntity
  8
0
100
AcDbLine
  6
DOT
 62
     3
 10
248.76861697
 20
-120.08926556
 30
0.0
 11
246.76861697
 21
-120.08926556
 31
0.0
  0
LINE
  5
2BC
100
AcDbEntity
  8
0
100
AcDbLine
  6
DOT
 62
     3
 10
248.76861697
 20
-125.08926556
 30
0.0
 11
246.76861697
 21
-125.08926556
 31
0.0
  0
LINE
  5
2BD
100
AcDbEntity
  8
0
100
AcDbLine
  6
DOT
 62
     3
 10
248.76861697
 20
-136.08926556
 30
0.0
 11
246.76861697
 21
-136.08926556
 31
0.0
  0
POLYLINE
  5
2BE
100
AcDbEntity
  8
0
100
AcDb2dPolyline
 66
     1
  0
VERTEX
  5
2BF
100
AcDbEntity
  8
0
100
AcDbVertex
100
AcDb2dVertex
 10
248.76861697
 20
-104.08926556
 30
0.0
  0
VERTEX
  5
2C0
100
AcDbEntity
  8
0
100
AcDbVertex
100
AcDb2dVertex
 10
248.76861697
 20
-157.08926556
 30
0.0
  0
VERTEX
  5
2C1
100
AcDbEntity
  8
0
100
AcDbVertex
100
AcDb2dVertex
 10
246.76861697
 20
-157.08926556
 30
0.0
  0
VERTEX
  5
2C2
100
AcDbEntity
  8
0
100
AcDbVertex
100
AcDb2dVertex
 10
246.76861697
 20
-104.08926556
 30
0.0
  0
SEQEND
  5
2C3
100
AcDbEntity
  8
0
  0
LINE
  5
2C4
100
AcDbEntity
  8
0
100
AcDbLine
 10
248.76861697
 20
-104.08926556
 30
0.0
 11
246.76861697
 21
-104.08926556
 31
0.0
  0
LINE
  5
2C5
100
AcDbEntity
  8
0
100
AcDbLine
 10
248.76861697
 20
-100.58926556
 30
0.0
 11
248.76861697
 21
-104.08926556
 31
0.0
  0
LINE
  5
2C6
100
AcDbEntity
  8
0
100
AcDbLine
 10
248.76861697
 20
-100.58926556
 30
0.0
 11
246.76861697
 21
-100.58926556
 31
0.0
  0
LINE
  5
2C7
100
AcDbEntity
  8
0
100
AcDbLine
 10
246.76861697
 20
-104.08926556
 30
0.0
 11
246.76861697
 21
-100.58926556
 31
0.0
  0
LINE
  5
2C8
100
AcDbEntity
  8
0
100
AcDbLine
 10
246.76861697
 20
-160.58926556
 30
0.0
 11
246.76861697
 21
-157.08926556
 31
0.0
  0
LINE
  5
2C9
100
AcDbEntity
  8
0
100
AcDbLine
 10
248.76861697
 20
-160.58926556
 30
0.0
 11
246.76861697
 21
-160.58926556
 31
0.0
  0
LINE
  5
2CA
100
AcDbEntity
  8
0
100
AcDbLine
 10
248.76861697
 20
-157.08926556
 30
0.0
 11
248.76861697
 21
-160.58926556
 31
0.0
  0
LINE
  5
2CB
100
AcDbEntity
  8
0
100
AcDbLine
  6
STRICHPUNKT2
 62
     1
 10
249.76861697
 20
-152.58926556
 30
0.0
 11
245.76861697
 21
-152.58926556
 31
0.0
  0
LINE
  5
2CC
100
AcDbEntity
  8
0
100
AcDbLine
  6
STRICHPUNKT2
 62
     1
 10
251.51861697
 20
-130.58926556
 30
0.0
 11
244.01861697
 21
-130.58926556
 31
0.0
  0
LINE
  5
2CD
100
AcDbEntity
  8
0
100
AcDbLine
  6
STRICHPUNKT2
 62
     1
 10
251.01861697
 20
-115.58926556
 30
0.0
 11
244.51861697
 21
-115.58926556
 31
0.0
  0
LINE
  5
2CE
100
AcDbEntity
  8
0
100
AcDbLine
  6
STRICHPUNKT2
 62
     1
 10
249.76861697
 20
-108.58926556
 30
0.0
 11
245.76861697
 21
-108.58926556
 31
0.0
  0
LINE
  5
2CF
100
AcDbEntity
  8
0
100
AcDbLine
  6
STRICHPUNKT2
 62
     1
 10
249.76861697
 20
-117.58926556
 30
0.0
 11
245.76861697
 21
-117.58926556
 31
0.0
  0
LINE
  5
2D0
100
AcDbEntity
  8
0
100
AcDbLine
  6
STRICHPUNKT2
 62
     1
 10
249.76861697
 20
-143.58926556
 30
0.0
 11
245.76861697
 21
-143.58926556
 31
0.0
  0
LINE
  5
2D1
100
AcDbEntity
  8
0
100
AcDbLine
  6
STRICHPUNKT2
 62
     1
 10
251.01861697
 20
-145.58926556
 30
0.0
 11
244.51861697
 21
-145.58926556
 31
0.0
  0
LINE
  5
2D2
100
AcDbEntity
  8
0
100
AcDbLine
  6
STRICHPUNKT2
 62
     1
 10
249.76861697
 20
-130.58926556
 30
0.0
 11
245.76861697
 21
-130.58926556
 31
0.0
  0
ELLIPSE
  5
2D3
100
AcDbEntity
  8
0
100
AcDbEllipse
 10
458.53385811
 20
-123.00816443
 30
0.0
 11
5.50000000
 21
0.00000000
 31
0.0
 40
0.33333333
 41
3.14159265
 42
4.35102186
  0
ELLIPSE
  5
2D4
100
AcDbEntity
  8
0
100
AcDbEllipse
 10
458.53385811
 20
-123.00816443
 30
0.0
 11
5.50000000
 21
-0.0
 31
0.0
 40
0.33333333
 41
1.20942920
 42
3.14159265
  0
POLYLINE
  5
2D5
100
AcDbEntity
  8
0
100
AcDb2dPolyline
 66
     1
  0
VERTEX
  5
2D6
100
AcDbEntity
  8
0
100
AcDbVertex
100
AcDb2dVertex
 10
460.47840176
 20
-121.29323813
 30
0.0
  0
VERTEX
  5
2D7
100
AcDbEntity
  8
0
100
AcDbVertex
100
AcDb2dVertex
 10
478.25127434
 20
-123.53240960
 30
0.0
  0
SEQEND
  5
2D8
100
AcDbEntity
  8
0
  0
ELLIPSE
  5
2D9
100
AcDbEntity
  8
0
100
AcDbEllipse
 10
476.30673069
 20
-125.24733591
 30
0.0
 11
5.50000000
 21
-0.00000000
 31
0.0
 40
0.33333333
 41
0.0
 42
1.20942920
  0
ELLIPSE
  5
2DA
100
AcDbEntity
  8
0
100
AcDbEllipse
 10
476.30673069
 20
-125.24733591
 30
0.0
 11
5.50000000
 21
-0.0
 31
0.0
 40
0.33333333
 41
4.35102186
 42
0.0
  0
LINE
  5
2DB
100
AcDbEntity
  8
0
100
AcDbLine
 10
474.36218705
 20
-126.96226221
 30
0.0
 11
456.58931446
 21
-124.72309073
 31
0.0
  0
ELLIPSE
  5
2DC
100
AcDbEntity
  8
0
100
AcDbEllipse
 10
476.30673069
 20
-127.13295399
 30
0.0
 11
5.50000000
 21
-0.00000000
 31
0.0
 40
0.33333333
 41
0.54014398
 42
1.20942920
  0
POLYLINE
  5
2DD
100
AcDbEntity
  8
0
100
AcDb2dPolyline
 66
     1
  0
VERTEX
  5
2DE
100
AcDbEntity
  8
0
100
AcDbVertex
100
AcDb2dVertex
 10
478.25127434
 20
-125.41802769
 30
0.0
  0
VERTEX
  5
2DF
100
AcDbEntity
  8
0
100
AcDbVertex
100
AcDb2dVertex
 10
460.47840176
 20
-123.17885621
 30
0.0
  0
VERTEX
  5
2E0
100
AcDbEntity
  8
0
100
AcDbVertex
100
AcDb2dVertex
 10
460.47840176
 20
-121.29323813
 30
0.0
  0
SEQEND
  5
2E1
100
AcDbEntity
  8
0
  0
ELLIPSE
  5
2E2
100
AcDbEntity
  8
0
100
AcDbEllipse
 10
458.53385811
 20
-124.89378252
 30
0.0
 11
5.50000000
 21
-0.00000000
 31
0.0
 40
0.33333333
 41
1.20942920
 42
2.60144868
  0
LINE
  5
2E3
100
AcDbEntity
  8
0
100
AcDbLine
 10
478.25127434
 20
-125.41802769
 30
0.0
 11
478.25127434
 21
-123.53240960
 31
0.0
  0
ELLIPSE
  5
2E4
100
AcDbEntity
  8
0
100
AcDbEllipse
 10
480.90292477
 20
-121.19387374
 30
0.0
 11
3.00000000
 21
0.0
 31
0.0
 40
0.33333333
 41
0.0
 42
3.14159265
  0
ELLIPSE
  5
2E5
100
AcDbEntity
  8
0
100
AcDbEllipse
 10
480.90292477
 20
-121.19387374
 30
0.0
 11
3.00000000
 21
-0.0
 31
0.0
 40
0.33333333
 41
3.14159265
 42
0.0
  0
ELLIPSE
  5
2E6
100
AcDbEntity
  8
0
100
AcDbEllipse
 10
480.90292477
 20
-123.07949182
 30
0.0
 11
3.00000000
 21
-0.00000000
 31
0.0
 40
0.33333333
 41
1.23095942
 42
1.91063324
  0
ELLIPSE
  5
2E7
100
AcDbEntity
  8
0
100
AcDbEllipse
 10
471.71053662
 20
-129.30079808
 30
0.0
 11
3.00000000
 21
0.0
 31
0.0
 40
0.33333333
 41
0.0
 42
3.14159265
  0
ELLIPSE
  5
2E8
100
AcDbEntity
  8
0
100
AcDbEllipse
 10
471.71053662
 20
-129.30079808
 30
0.0
 11
3.00000000
 21
-0.0
 31
0.0
 40
0.33333333
 41
3.14159265
 42
0.0
  0
ELLIPSE
  5
2E9
100
AcDbEntity
  8
0
100
AcDbEllipse
 10
471.71053662
 20
-131.18641616
 30
0.0
 11
3.00000000
 21
0.00000000
 31
0.0
 40
0.33333333
 41
1.23095942
 42
1.91063324
  0
ELLIPSE
  5
2EA
100
AcDbEntity
  8
0
100
AcDbEllipse
 10
465.37661835
 20
-116.03060809
 30
0.0
 11
2.00000000
 21
0.0
 31
0.0
 40
0.33333333
 41
0.0
 42
3.14159265
  0
ELLIPSE
  5
2EB
100
AcDbEntity
  8
0
100
AcDbEllipse
 10
465.37661835
 20
-116.03060809
 30
0.0
 11
2.00000000
 21
-0.0
 31
0.0
 40
0.33333333
 41
3.14159265
 42
0.0
  0
ELLIPSE
  5
2EC
100
AcDbEntity
  8
0
100
AcDbEllipse
 10
449.82026917
 20
-129.75001851
 30
0.0
 11
2.00000000
 21
0.0
 31
0.0
 40
0.33333333
 41
0.0
 42
3.14159265
  0
ELLIPSE
  5
2ED
100
AcDbEntity
  8
0
100
AcDbEllipse
 10
449.82026917
 20
-129.75001851
 30
0.0
 11
2.00000000
 21
-0.0
 31
0.0
 40
0.33333333
 41
3.14159265
 42
0.0
  0
ELLIPSE
  5
2EE
100
AcDbEntity
  8
0
100
AcDbEllipse
 10
500.92236353
 20
-120.50895104
 30
0.0
 11
2.00000000
 21
0.0
 31
0.0
 40
0.33333333
 41
0.0
 42
3.14159265
  0
ELLIPSE
  5
2EF
100
AcDbEntity
  8
0
100
AcDbEllipse
 10
500.92236353
 20
-120.50895104
 30
0.0
 11
2.00000000
 21
-0.0
 31
0.0
 40
0.33333333
 41
3.14159265
 42
0.0
  0
ELLIPSE
  5
2F0
100
AcDbEntity
  8
0
100
AcDbEllipse
 10
493.14418894
 20
-127.36865625
 30
0.0
 11
2.00000000
 21
0.0
 31
0.0
 40
0.33333333
 41
0.0
 42
3.14159265
  0
ELLIPSE
  5
2F1
100
AcDbEntity
  8
0
100
AcDbEllipse
 10
493.14418894
 20
-127.36865625
 30
0.0
 11
2.00000000
 21
-0.0
 31
0.0
 40
0.33333333
 41
3.14159265
 42
0.0
  0
ELLIPSE
  5
2F2
100
AcDbEntity
  8
0
100
AcDbEllipse
 10
485.36601434
 20
-134.22836146
 30
0.0
 11
2.00000000
 21
0.0
 31
0.0
 40
0.33333333
 41
0.0
 42
3.14159265
  0
ELLIPSE
  5
2F3
100
AcDbEntity
  8
0
100
AcDbEllipse
 10
485.36601434
 20
-134.22836146
 30
0.0
 11
2.00000000
 21
-0.0
 31
0.0
 40
0.33333333
 41
3.14159265
 42
0.0
  0
LINE
  5
2F4
100
AcDbEntity
  8
0
100
AcDbLine
 10
508.12583987
 20
-119.81293630
 30
0.0
 11
489.38751016
 21
-136.33858976
 31
0.0
  0
LINE
  5
2F5
100
AcDbEntity
  8
0
100
AcDbLine
 10
489.38751016
 20
-138.22420784
 30
0.0
 11
489.38751016
 21
-136.33858976
 31
0.0
  0
POLYLINE
  5
2F6
100
AcDbEntity
  8
0
100
AcDb2dPolyline
 66
     1
  0
VERTEX
  5
2F7
100
AcDbEntity
  8
0
100
AcDbVertex
100
AcDb2dVertex
 10
489.38751016
 20
-138.22420784
 30
0.0
  0
VERTEX
  5
2F8
100
AcDbEntity
  8
0
100
AcDbVertex
100
AcDb2dVertex
 10
508.12583987
 20
-121.69855438
 30
0.0
  0
VERTEX
  5
2F9
100
AcDbEntity
  8
0
100
AcDbVertex
100
AcDb2dVertex
 10
508.12583987
 20
-119.81293630
 30
0.0
  0
VERTEX
  5
2FA
100
AcDbEntity
  8
0
100
AcDbVertex
100
AcDb2dVertex
 10
506.08932652
 20
-118.30914061
 30
0.0
  0
SEQEND
  5
2FB
100
AcDbEntity
  8
0
  0
LINE
  5
2FC
100
AcDbEntity
  8
0
100
AcDbLine
 10
457.44778049
 20
-112.18088184
 30
0.0
 11
506.08932652
 21
-118.30914061
 31
0.0
  0
LINE
  5
2FD
100
AcDbEntity
  8
0
100
AcDbLine
 10
436.23457706
 20
-130.88916877
 30
0.0
 11
457.44778049
 21
-112.18088184
 31
0.0
  0
LINE
  5
2FE
100
AcDbEntity
  8
0
100
AcDbLine
 10
484.87612308
 20
-137.01742754
 30
0.0
 11
436.23457706
 21
-130.88916877
 31
0.0
  0
LINE
  5
2FF
100
AcDbEntity
  8
0
100
AcDbLine
 10
484.87612308
 20
-137.01742754
 30
0.0
 11
489.38751016
 21
-136.33858976
 31
0.0
  0
LINE
  5
300
100
AcDbEntity
  8
0
100
AcDbLine
 10
484.87612308
 20
-138.90304563
 30
0.0
 11
484.87612308
 21
-137.01742754
 31
0.0
  0
LINE
  5
301
100
AcDbEntity
  8
0
100
AcDbLine
 10
436.23457706
 20
-132.77478685
 30
0.0
 11
484.87612308
 21
-138.90304563
 31
0.0
  0
LINE
  5
302
100
AcDbEntity
  8
0
100
AcDbLine
 10
489.38751016
 20
-138.22420784
 30
0.0
 11
484.87612308
 21
-138.90304563
 31
0.0
  0
LINE
  5
303
100
AcDbEntity
  8
0
100
AcDbLine
  6
STRICHPUNKT2
 62
     1
 10
485.36601434
 20
-133.28555242
 30
0.0
 11
485.36601434
 21
-134.89502813
 31
0.0
  0
LINE
  5
304
100
AcDbEntity
  8
0
100
AcDbLine
  6
STRICHPUNKT2
 62
     1
 10
485.36601434
 20
-134.22836146
 30
0.0
 11
488.17225738
 21
-134.58191485
 31
0.0
  0
LINE
  5
305
100
AcDbEntity
  8
0
100
AcDbLine
  6
STRICHPUNKT2
 62
     1
 10
485.36601434
 20
-134.22836146
 30
0.0
 11
482.55977130
 21
-133.87480807
 31
0.0
  0
LINE
  5
306
100
AcDbEntity
  8
0
100
AcDbLine
  6
STRICHPUNKT2
 62
     1
 10
485.36601434
 20
-134.22836146
 30
0.0
 11
486.42667451
 21
-133.29294711
 31
0.0
  0
LINE
  5
307
100
AcDbEntity
  8
0
100
AcDbLine
  6
STRICHPUNKT2
 62
     1
 10
485.36601434
 20
-134.22836146
 30
0.0
 11
484.30535417
 21
-135.16377581
 31
0.0
  0
LINE
  5
308
100
AcDbEntity
  8
0
100
AcDbLine
  6
STRICHPUNKT2
 62
     1
 10
493.14418894
 20
-126.42584721
 30
0.0
 11
493.14418894
 21
-128.03532292
 31
0.0
  0
LINE
  5
309
100
AcDbEntity
  8
0
100
AcDbLine
  6
STRICHPUNKT2
 62
     1
 10
493.14418894
 20
-127.36865625
 30
0.0
 11
495.95043198
 21
-127.72220964
 31
0.0
  0
LINE
  5
30A
100
AcDbEntity
  8
0
100
AcDbLine
  6
STRICHPUNKT2
 62
     1
 10
493.14418894
 20
-127.36865625
 30
0.0
 11
490.33794590
 21
-127.01510286
 31
0.0
  0
LINE
  5
30B
100
AcDbEntity
  8
0
100
AcDbLine
  6
STRICHPUNKT2
 62
     1
 10
493.14418894
 20
-127.36865625
 30
0.0
 11
494.20484911
 21
-126.43324190
 31
0.0
  0
LINE
  5
30C
100
AcDbEntity
  8
0
100
AcDbLine
  6
STRICHPUNKT2
 62
     1
 10
493.14418894
 20
-127.36865625
 30
0.0
 11
492.08352876
 21
-128.30407060
 31
0.0
  0
LINE
  5
30D
100
AcDbEntity
  8
0
100
AcDbLine
  6
STRICHPUNKT2
 62
     1
 10
500.92236353
 20
-119.56614200
 30
0.0
 11
500.92236353
 21
-121.17561771
 31
0.0
  0
LINE
  5
30E
100
AcDbEntity
  8
0
100
AcDbLine
  6
STRICHPUNKT2
 62
     1
 10
500.92236353
 20
-120.50895104
 30
0.0
 11
503.72860657
 21
-120.86250443
 31
0.0
  0
LINE
  5
30F
100
AcDbEntity
  8
0
100
AcDbLine
  6
STRICHPUNKT2
 62
     1
 10
500.92236353
 20
-120.50895104
 30
0.0
 11
498.11612049
 21
-120.15539765
 31
0.0
  0
LINE
  5
310
100
AcDbEntity
  8
0
100
AcDbLine
  6
STRICHPUNKT2
 62
     1
 10
500.92236353
 20
-120.50895104
 30
0.0
 11
501.98302370
 21
-119.57353669
 31
0.0
  0
LINE
  5
311
100
AcDbEntity
  8
0
100
AcDbLine
  6
STRICHPUNKT2
 62
     1
 10
500.92236353
 20
-120.50895104
 30
0.0
 11
499.86170336
 21
-121.44436539
 31
0.0
  0
LINE
  5
312
100
AcDbEntity
  8
0
100
AcDbLine
  6
STRICHPUNKT2
 62
     1
 10
449.82026917
 20
-128.80720947
 30
0.0
 11
449.82026917
 21
-130.41668518
 31
0.0
  0
LINE
  5
313
100
AcDbEntity
  8
0
100
AcDbLine
  6
STRICHPUNKT2
 62
     1
 10
449.82026917
 20
-129.75001851
 30
0.0
 11
452.62651221
 21
-130.10357190
 31
0.0
  0
LINE
  5
314
100
AcDbEntity
  8
0
100
AcDbLine
  6
STRICHPUNKT2
 62
     1
 10
449.82026917
 20
-129.75001851
 30
0.0
 11
447.01402613
 21
-129.39646512
 31
0.0
  0
LINE
  5
315
100
AcDbEntity
  8
0
100
AcDbLine
  6
STRICHPUNKT2
 62
     1
 10
449.82026917
 20
-129.75001851
 30
0.0
 11
450.88092934
 21
-128.81460416
 31
0.0
  0
LINE
  5
316
100
AcDbEntity
  8
0
100
AcDbLine
  6
STRICHPUNKT2
 62
     1
 10
449.82026917
 20
-129.75001851
 30
0.0
 11
448.75960900
 21
-130.68543286
 31
0.0
  0
LINE
  5
317
100
AcDbEntity
  8
0
100
AcDbLine
  6
STRICHPUNKT2
 62
     1
 10
465.37661835
 20
-115.08779905
 30
0.0
 11
465.37661835
 21
-116.69727476
 31
0.0
  0
LINE
  5
318
100
AcDbEntity
  8
0
100
AcDbLine
  6
STRICHPUNKT2
 62
     1
 10
465.37661835
 20
-116.03060809
 30
0.0
 11
468.18286139
 21
-116.38416148
 31
0.0
  0
LINE
  5
319
100
AcDbEntity
  8
0
100
AcDbLine
  6
STRICHPUNKT2
 62
     1
 10
465.37661835
 20
-116.03060809
 30
0.0
 11
462.57037531
 21
-115.67705470
 31
0.0
  0
LINE
  5
31A
100
AcDbEntity
  8
0
100
AcDbLine
  6
STRICHPUNKT2
 62
     1
 10
465.37661835
 20
-116.03060809
 30
0.0
 11
466.43727853
 21
-115.09519375
 31
0.0
  0
LINE
  5
31B
100
AcDbEntity
  8
0
100
AcDbLine
  6
STRICHPUNKT2
 62
     1
 10
465.37661835
 20
-116.03060809
 30
0.0
 11
464.31595818
 21
-116.96602244
 31
0.0
  0
LINE
  5
31C
100
AcDbEntity
  8
0
100
AcDbLine
  6
STRICHPUNKT2
 62
     1
 10
471.71053662
 20
-127.88658451
 30
0.0
 11
471.71053662
 21
-130.30079808
 31
0.0
  0
LINE
  5
31D
100
AcDbEntity
  8
0
100
AcDbLine
  6
STRICHPUNKT2
 62
     1
 10
471.71053662
 20
-129.30079808
 30
0.0
 11
475.91990118
 21
-129.83112816
 31
0.0
  0
LINE
  5
31E
100
AcDbEntity
  8
0
100
AcDbLine
  6
STRICHPUNKT2
 62
     1
 10
471.71053662
 20
-129.30079808
 30
0.0
 11
467.50117206
 21
-128.77046799
 31
0.0
  0
LINE
  5
31F
100
AcDbEntity
  8
0
100
AcDbLine
  6
STRICHPUNKT2
 62
     1
 10
471.71053662
 20
-129.30079808
 30
0.0
 11
473.30152687
 21
-127.89767655
 31
0.0
  0
LINE
  5
320
100
AcDbEntity
  8
0
100
AcDbLine
  6
STRICHPUNKT2
 62
     1
 10
471.71053662
 20
-129.30079808
 30
0.0
 11
470.11954636
 21
-130.70391960
 31
0.0
  0
LINE
  5
321
100
AcDbEntity
  8
0
100
AcDbLine
  6
STRICHPUNKT2
 62
     1
 10
480.90292477
 20
-119.77966017
 30
0.0
 11
480.90292477
 21
-122.19387374
 31
0.0
  0
LINE
  5
322
100
AcDbEntity
  8
0
100
AcDbLine
  6
STRICHPUNKT2
 62
     1
 10
480.90292477
 20
-121.19387374
 30
0.0
 11
485.11228933
 21
-121.72420382
 31
0.0
  0
LINE
  5
323
100
AcDbEntity
  8
0
100
AcDbLine
  6
STRICHPUNKT2
 62
     1
 10
480.90292477
 20
-121.19387374
 30
0.0
 11
476.69356021
 21
-120.66354365
 31
0.0
  0
LINE
  5
324
100
AcDbEntity
  8
0
100
AcDbLine
  6
STRICHPUNKT2
 62
     1
 10
480.90292477
 20
-121.19387374
 30
0.0
 11
482.49391503
 21
-119.79075222
 31
0.0
  0
LINE
  5
325
100
AcDbEntity
  8
0
100
AcDbLine
  6
STRICHPUNKT2
 62
     1
 10
480.90292477
 20
-121.19387374
 30
0.0
 11
479.31193451
 21
-122.59699526
 31
0.0
  0
LINE
  5
326
100
AcDbEntity
  8
0
100
AcDbLine
  6
STRICHPUNKT2
 62
     1
 10
458.53385811
 20
-120.41543957
 30
0.0
 11
458.53385811
 21
-124.96808021
 31
0.0
  0
LINE
  5
327
100
AcDbEntity
  8
0
100
AcDbLine
  6
STRICHPUNKT2
 62
     1
 10
476.30673069
 20
-122.65461104
 30
0.0
 11
476.30673069
 21
-127.08066924
 31
0.0
  0
LINE
  5
328
100
AcDbEntity
  8
0
100
AcDbLine
  6
STRICHPUNKT2
 62
     1
 10
450.81668975
 20
-122.03589261
 30
0.0
 11
484.02389906
 21
-126.21960773
 31
0.0
  0
LINE
  5
329
100
AcDbEntity
  8
0
100
AcDbLine
  6
STRICHPUNKT2
 62
     1
 10
455.61704264
 20
-125.58055389
 30
0.0
 11
461.45067358
 21
-120.43577498
 31
0.0
  0
LINE
  5
32A
100
AcDbEntity
  8
0
100
AcDbLine
  6
STRICHPUNKT2
 62
     1
 10
473.38991522
 20
-127.81972536
 30
0.0
 11
479.22354617
 21
-122.67494645
 31
0.0
  0
LINE
  5
32B
100
AcDbEntity
  8
0
100
AcDbLine
  6
STRICHPUNKT2
 62
     1
 10
455.25990789
 20
-124.48130356
 30
0.0
 11
475.83902352
 21
-127.07402842
 31
0.0
  0
LINE
  5
32C
100
AcDbEntity
  8
0
100
AcDbLine
  6
STRICHPUNKT2
 62
     1
 10
458.46014315
 20
-124.95879299
 30
0.0
 11
460.47840176
 21
-123.17885621
 31
0.0
  0
LINE
  5
32D
100
AcDbEntity
  8
0
100
AcDbLine
  6
STRICHPUNKT2
 62
     1
 10
476.36613730
 20
-127.08056229
 30
0.0
 11
478.25127434
 21
-125.41802769
 31
0.0
  0
LINE
  5
32E
100
AcDbEntity
  8
0
100
AcDbLine
 10
433.89604119
 20
-128.23751834
 30
0.0
 11
455.10924463
 21
-109.52923141
 31
0.0
  0
ELLIPSE
  5
32F
100
AcDbEntity
  8
0
100
AcDbEllipse
 10
436.23457706
 20
-128.53214617
 30
0.0
 11
2.97647022
 21
-3.37500000
 31
0.0
 40
0.88191710
 41
3.92699082
 42
5.49778714
  0
ELLIPSE
  5
330
100
AcDbEntity
  8
0
100
AcDbEllipse
 10
436.23457706
 20
-128.53214617
 30
0.0
 11
1.65359457
 21
-1.87500000
 31
0.0
 40
0.88191710
 41
3.92699082
 42
5.49778714
  0
POLYLINE
  5
331
100
AcDbEntity
  8
0
100
AcDb2dPolyline
 66
     1
  0
VERTEX
  5
332
100
AcDbEntity
  8
0
100
AcDbVertex
100
AcDb2dVertex
 10
436.23457706
 20
-130.88916877
 30
0.0
  0
VERTEX
  5
333
100
AcDbEntity
  8
0
100
AcDbVertex
100
AcDb2dVertex
 10
457.44778049
 20
-112.18088184
 30
0.0
  0
SEQEND
  5
334
100
AcDbEntity
  8
0
  0
ELLIPSE
  5
335
100
AcDbEntity
  8
0
100
AcDbEllipse
 10
457.44778049
 20
-109.82385923
 30
0.0
 11
1.65359457
 21
-1.87500000
 31
0.0
 40
0.88191710
 41
3.92699082
 42
5.49778714
  0
ELLIPSE
  5
336
100
AcDbEntity
  8
0
100
AcDbEllipse
 10
444.50264291
 20
-103.32702569
 30
0.0
 11
-0.68750000
 21
-5.45686208
 31
0.0
 40
0.33333333
 41
0.0
 42
3.14159265
  0
ELLIPSE
  5
337
100
AcDbEntity
  8
0
100
AcDbEllipse
 10
444.50264291
 20
-103.32702569
 30
0.0
 11
-0.68750000
 21
-5.45686208
 31
0.0
 40
0.33333333
 41
3.14159265
 42
0.00000000
  0
ELLIPSE
  5
338
100
AcDbEntity
  8
0
100
AcDbEllipse
 10
442.63181421
 20
-103.09132343
 30
0.0
 11
-0.68750000
 21
-5.45686208
 31
0.0
 40
0.33333333
 41
0.54014398
 42
2.60144868
  0
ELLIPSE
  5
339
100
AcDbEntity
  8
0
100
AcDbEllipse
 10
449.80594377
 20
-94.87871779
 30
0.0
 11
-0.56250000
 21
-4.46470534
 31
0.0
 40
0.33333333
 41
0.0
 42
3.14159265
  0
ELLIPSE
  5
33A
100
AcDbEntity
  8
0
100
AcDbEllipse
 10
449.80594377
 20
-94.87871779
 30
0.0
 11
-0.56250000
 21
-4.46470534
 31
0.0
 40
0.33333333
 41
3.14159265
 42
0.0
  0
ELLIPSE
  5
33B
100
AcDbEntity
  8
0
100
AcDbEllipse
 10
447.93511507
 20
-94.64301553
 30
0.0
 11
-0.56250000
 21
-4.46470534
 31
0.0
 40
0.33333333
 41
0.67967382
 42
2.46191883
  0
ELLIPSE
  5
33C
100
AcDbEntity
  8
0
100
AcDbEllipse
 10
439.19934205
 20
-104.23286126
 30
0.0
 11
-0.56250000
 21
-4.46470534
 31
0.0
 40
0.33333333
 41
0.0
 42
3.14159265
  0
ELLIPSE
  5
33D
100
AcDbEntity
  8
0
100
AcDbEllipse
 10
439.19934205
 20
-104.23286126
 30
0.0
 11
-0.56250000
 21
-4.46470534
 31
0.0
 40
0.33333333
 41
3.14159265
 42
0.0
  0
ELLIPSE
  5
33E
100
AcDbEntity
  8
0
100
AcDbEllipse
 10
437.32851336
 20
-103.99715900
 30
0.0
 11
-0.56250000
 21
-4.46470534
 31
0.0
 40
0.33333333
 41
0.67967382
 42
2.46191883
  0
ELLIPSE
  5
33F
100
AcDbEntity
  8
0
100
AcDbEllipse
 10
449.09883699
 20
-104.93041777
 30
0.0
 11
-0.25000000
 21
-1.98431348
 31
0.0
 40
0.33333333
 41
0.0
 42
3.14159265
  0
ELLIPSE
  5
340
100
AcDbEntity
  8
0
100
AcDbEllipse
 10
449.09883699
 20
-104.93041777
 30
0.0
 11
-0.25000000
 21
-1.98431348
 31
0.0
 40
0.33333333
 41
3.14159265
 42
0.0
  0
ELLIPSE
  5
341
100
AcDbEntity
  8
0
100
AcDbEllipse
 10
439.90644883
 20
-113.03734211
 30
0.0
 11
-0.25000000
 21
-1.98431348
 31
0.0
 40
0.33333333
 41
0.0
 42
3.14159265
  0
ELLIPSE
  5
342
100
AcDbEntity
  8
0
100
AcDbEllipse
 10
439.90644883
 20
-113.03734211
 30
0.0
 11
-0.25000000
 21
-1.98431348
 31
0.0
 40
0.33333333
 41
3.14159265
 42
0.00000000
  0
ELLIPSE
  5
343
100
AcDbEntity
  8
0
100
AcDbEllipse
 10
452.28081750
 20
-84.21080294
 30
0.0
 11
-0.25000000
 21
-1.98431348
 31
0.0
 40
0.33333333
 41
0.0
 42
3.14159265
  0
ELLIPSE
  5
344
100
AcDbEntity
  8
0
100
AcDbEllipse
 10
452.28081750
 20
-84.21080294
 30
0.0
 11
-0.25000000
 21
-1.98431348
 31
0.0
 40
0.33333333
 41
3.14159265
 42
0.0
  0
ELLIPSE
  5
345
100
AcDbEntity
  8
0
100
AcDbEllipse
 10
444.50264291
 20
-91.07050815
 30
0.0
 11
-0.25000000
 21
-1.98431348
 31
0.0
 40
0.33333333
 41
0.0
 42
3.14159265
  0
ELLIPSE
  5
346
100
AcDbEntity
  8
0
100
AcDbEllipse
 10
444.50264291
 20
-91.07050815
 30
0.0
 11
-0.25000000
 21
-1.98431348
 31
0.0
 40
0.33333333
 41
3.14159265
 42
0.0
  0
ELLIPSE
  5
347
100
AcDbEntity
  8
0
100
AcDbEllipse
 10
436.72446831
 20
-97.93021336
 30
0.0
 11
-0.25000000
 21
-1.98431348
 31
0.0
 40
0.33333333
 41
0.0
 42
3.14159265
  0
ELLIPSE
  5
348
100
AcDbEntity
  8
0
100
AcDbEllipse
 10
436.72446831
 20
-97.93021336
 30
0.0
 11
-0.25000000
 21
-1.98431348
 31
0.0
 40
0.33333333
 41
3.14159265
 42
0.0
  0
LINE
  5
349
100
AcDbEntity
  8
0
100
AcDbLine
 10
432.02521250
 20
-128.00181608
 30
0.0
 11
432.02521250
 21
-97.83192675
 31
0.0
  0
LINE
  5
34A
100
AcDbEntity
  8
0
100
AcDbLine
 10
433.89604119
 20
-98.06762901
 30
0.0
 11
432.02521250
 21
-97.83192675
 31
0.0
  0
POLYLINE
  5
34B
100
AcDbEntity
  8
0
100
AcDb2dPolyline
 66
     1
 70
     1
  0
VERTEX
  5
34C
100
AcDbEntity
  8
0
100
AcDbVertex
100
AcDb2dVertex
 10
433.89604119
 20
-98.06762901
 30
0.0
  0
VERTEX
  5
34D
100
AcDbEntity
  8
0
100
AcDbVertex
100
AcDb2dVertex
 10
433.89604119
 20
-128.23751834
 30
0.0
  0
VERTEX
  5
34E
100
AcDbEntity
  8
0
100
AcDbVertex
100
AcDb2dVertex
 10
455.10924463
 20
-109.52923141
 30
0.0
  0
VERTEX
  5
34F
100
AcDbEntity
  8
0
100
AcDbVertex
100
AcDb2dVertex
 10
455.10924463
 20
-79.35934208
 30
0.0
  0
VERTEX
  5
350
100
AcDbEntity
  8
0
100
AcDbVertex
100
AcDb2dVertex
 10
453.87180776
 20
-77.15082717
 30
0.0
  0
VERTEX
  5
351
100
AcDbEntity
  8
0
100
AcDbVertex
100
AcDb2dVertex
 10
435.13347806
 20
-93.67648063
 30
0.0
  0
SEQEND
  5
352
100
AcDbEntity
  8
0
  0
POLYLINE
  5
353
100
AcDbEntity
  8
0
100
AcDb2dPolyline
 66
     1
  0
VERTEX
  5
354
100
AcDbEntity
  8
0
100
AcDbVertex
100
AcDb2dVertex
 10
435.13347806
 20
-93.67648063
 30
0.0
  0
VERTEX
  5
355
100
AcDbEntity
  8
0
100
AcDbVertex
100
AcDb2dVertex
 10
433.26264936
 20
-93.44077837
 30
0.0
  0
VERTEX
  5
356
100
AcDbEntity
  8
0
100
AcDbVertex
100
AcDb2dVertex
 10
452.00097906
 20
-76.91512491
 30
0.0
  0
SEQEND
  5
357
100
AcDbEntity
  8
0
  0
LINE
  5
358
100
AcDbEntity
  8
0
100
AcDbLine
 10
453.87180776
 20
-77.15082717
 30
0.0
 11
452.00097906
 21
-76.91512491
 31
0.0
  0
LINE
  5
359
100
AcDbEntity
  8
0
100
AcDbLine
 10
432.02521250
 20
-97.83192675
 30
0.0
 11
433.26264936
 21
-93.44077837
 31
0.0
  0
LINE
  5
35A
100
AcDbEntity
  8
0
100
AcDbLine
  6
STRICHPUNKT2
 62
     1
 10
437.65988266
 20
-98.04806449
 30
0.0
 11
436.06303049
 21
-97.84688002
 31
0.0
  0
LINE
  5
35B
100
AcDbEntity
  8
0
100
AcDbLine
  6
STRICHPUNKT2
 62
     1
 10
436.72446831
 20
-97.93021336
 30
0.0
 11
437.78512849
 21
-96.99479901
 31
0.0
  0
LINE
  5
35C
100
AcDbEntity
  8
0
100
AcDbLine
  6
STRICHPUNKT2
 62
     1
 10
436.72446831
 20
-97.93021336
 30
0.0
 11
435.66380814
 21
-98.86562770
 31
0.0
  0
LINE
  5
35D
100
AcDbEntity
  8
0
100
AcDbLine
  6
STRICHPUNKT2
 62
     1
 10
436.72446831
 20
-97.93021336
 30
0.0
 11
436.72446831
 21
-95.10178623
 31
0.0
  0
LINE
  5
35E
100
AcDbEntity
  8
0
100
AcDbLine
  6
STRICHPUNKT2
 62
     1
 10
436.72446831
 20
-97.93021336
 30
0.0
 11
436.72446831
 21
-100.75864048
 31
0.0
  0
LINE
  5
35F
100
AcDbEntity
  8
0
100
AcDbLine
  6
STRICHPUNKT2
 62
     1
 10
445.43805725
 20
-91.18835928
 30
0.0
 11
443.84120508
 21
-90.98717482
 31
0.0
  0
LINE
  5
360
100
AcDbEntity
  8
0
100
AcDbLine
  6
STRICHPUNKT2
 62
     1
 10
444.50264291
 20
-91.07050815
 30
0.0
 11
445.56330308
 21
-90.13509380
 31
0.0
  0
LINE
  5
361
100
AcDbEntity
  8
0
100
AcDbLine
  6
STRICHPUNKT2
 62
     1
 10
444.50264291
 20
-91.07050815
 30
0.0
 11
443.44198274
 21
-92.00592250
 31
0.0
  0
LINE
  5
362
100
AcDbEntity
  8
0
100
AcDbLine
  6
STRICHPUNKT2
 62
     1
 10
444.50264291
 20
-91.07050815
 30
0.0
 11
444.50264291
 21
-88.24208102
 31
0.0
  0
LINE
  5
363
100
AcDbEntity
  8
0
100
AcDbLine
  6
STRICHPUNKT2
 62
     1
 10
444.50264291
 20
-91.07050815
 30
0.0
 11
444.50264291
 21
-93.89893527
 31
0.0
  0
LINE
  5
364
100
AcDbEntity
  8
0
100
AcDbLine
  6
STRICHPUNKT2
 62
     1
 10
453.21623185
 20
-84.32865407
 30
0.0
 11
451.61937967
 21
-84.12746961
 31
0.0
  0
LINE
  5
365
100
AcDbEntity
  8
0
100
AcDbLine
  6
STRICHPUNKT2
 62
     1
 10
452.28081750
 20
-84.21080294
 30
0.0
 11
453.34147767
 21
-83.27538859
 31
0.0
  0
LINE
  5
366
100
AcDbEntity
  8
0
100
AcDbLine
  6
STRICHPUNKT2
 62
     1
 10
452.28081750
 20
-84.21080294
 30
0.0
 11
451.22015733
 21
-85.14621729
 31
0.0
  0
LINE
  5
367
100
AcDbEntity
  8
0
100
AcDbLine
  6
STRICHPUNKT2
 62
     1
 10
452.28081750
 20
-84.21080294
 30
0.0
 11
452.28081750
 21
-81.38237581
 31
0.0
  0
LINE
  5
368
100
AcDbEntity
  8
0
100
AcDbLine
  6
STRICHPUNKT2
 62
     1
 10
452.28081750
 20
-84.21080294
 30
0.0
 11
452.28081750
 21
-87.03923006
 31
0.0
  0
LINE
  5
369
100
AcDbEntity
  8
0
100
AcDbLine
  6
STRICHPUNKT2
 62
     1
 10
440.84186318
 20
-113.15519324
 30
0.0
 11
439.24501100
 21
-112.95400877
 31
0.0
  0
LINE
  5
36A
100
AcDbEntity
  8
0
100
AcDbLine
  6
STRICHPUNKT2
 62
     1
 10
439.90644883
 20
-113.03734211
 30
0.0
 11
440.96710900
 21
-112.10192776
 31
0.0
  0
LINE
  5
36B
100
AcDbEntity
  8
0
100
AcDbLine
  6
STRICHPUNKT2
 62
     1
 10
439.90644883
 20
-113.03734211
 30
0.0
 11
438.84578866
 21
-113.97275645
 31
0.0
  0
LINE
  5
36C
100
AcDbEntity
  8
0
100
AcDbLine
  6
STRICHPUNKT2
 62
     1
 10
439.90644883
 20
-113.03734211
 30
0.0
 11
439.90644883
 21
-110.20891498
 31
0.0
  0
LINE
  5
36D
100
AcDbEntity
  8
0
100
AcDbLine
  6
STRICHPUNKT2
 62
     1
 10
439.90644883
 20
-113.03734211
 30
0.0
 11
439.90644883
 21
-115.86576923
 31
0.0
  0
LINE
  5
36E
100
AcDbEntity
  8
0
100
AcDbLine
  6
STRICHPUNKT2
 62
     1
 10
450.03425133
 20
-105.04826890
 30
0.0
 11
448.43739916
 21
-104.84708444
 31
0.0
  0
LINE
  5
36F
100
AcDbEntity
  8
0
100
AcDbLine
  6
STRICHPUNKT2
 62
     1
 10
449.09883699
 20
-104.93041777
 30
0.0
 11
450.15949716
 21
-103.99500342
 31
0.0
  0
LINE
  5
370
100
AcDbEntity
  8
0
100
AcDbLine
  6
STRICHPUNKT2
 62
     1
 10
449.09883699
 20
-104.93041777
 30
0.0
 11
448.03817681
 21
-105.86583212
 31
0.0
  0
LINE
  5
371
100
AcDbEntity
  8
0
100
AcDbLine
  6
STRICHPUNKT2
 62
     1
 10
449.09883699
 20
-104.93041777
 30
0.0
 11
449.09883699
 21
-102.10199064
 31
0.0
  0
LINE
  5
372
100
AcDbEntity
  8
0
100
AcDbLine
  6
STRICHPUNKT2
 62
     1
 10
449.09883699
 20
-104.93041777
 30
0.0
 11
449.09883699
 21
-107.75884489
 31
0.0
  0
LINE
  5
373
100
AcDbEntity
  8
0
100
AcDbLine
  6
STRICHPUNKT2
 62
     1
 10
441.30402433
 20
-104.49802630
 30
0.0
 11
437.71110694
 21
-104.04536126
 31
0.0
  0
LINE
  5
374
100
AcDbEntity
  8
0
100
AcDbLine
  6
STRICHPUNKT2
 62
     1
 10
439.19934205
 20
-104.23286126
 30
0.0
 11
441.58582743
 21
-102.12817898
 31
0.0
  0
LINE
  5
375
100
AcDbEntity
  8
0
100
AcDbLine
  6
STRICHPUNKT2
 62
     1
 10
439.19934205
 20
-104.23286126
 30
0.0
 11
436.81285666
 21
-106.33754354
 31
0.0
  0
LINE
  5
376
100
AcDbEntity
  8
0
100
AcDbLine
  6
STRICHPUNKT2
 62
     1
 10
439.19934205
 20
-104.23286126
 30
0.0
 11
439.19934205
 21
-97.86890023
 31
0.0
  0
LINE
  5
377
100
AcDbEntity
  8
0
100
AcDbLine
  6
STRICHPUNKT2
 62
     1
 10
439.19934205
 20
-104.23286126
 30
0.0
 11
439.19934205
 21
-110.59682229
 31
0.0
  0
LINE
  5
378
100
AcDbEntity
  8
0
100
AcDbLine
  6
STRICHPUNKT2
 62
     1
 10
437.77412277
 20
-103.60416843
 30
0.0
 11
438.91950361
 21
-102.59403748
 31
0.0
  0
LINE
  5
379
100
AcDbEntity
  8
0
100
AcDbLine
  6
STRICHPUNKT2
 62
     1
 10
451.91062605
 20
-95.14388283
 30
0.0
 11
448.31770865
 21
-94.69121779
 31
0.0
  0
LINE
  5
37A
100
AcDbEntity
  8
0
100
AcDbLine
  6
STRICHPUNKT2
 62
     1
 10
449.80594377
 20
-94.87871779
 30
0.0
 11
452.19242915
 21
-92.77403551
 31
0.0
  0
LINE
  5
37B
100
AcDbEntity
  8
0
100
AcDbLine
  6
STRICHPUNKT2
 62
     1
 10
449.80594377
 20
-94.87871779
 30
0.0
 11
447.41945838
 21
-96.98340007
 31
0.0
  0
LINE
  5
37C
100
AcDbEntity
  8
0
100
AcDbLine
  6
STRICHPUNKT2
 62
     1
 10
449.80594377
 20
-94.87871779
 30
0.0
 11
449.80594377
 21
-88.51475676
 31
0.0
  0
LINE
  5
37D
100
AcDbEntity
  8
0
100
AcDbLine
  6
STRICHPUNKT2
 62
     1
 10
449.80594377
 20
-94.87871779
 30
0.0
 11
449.80594377
 21
-101.24267882
 31
0.0
  0
LINE
  5
37E
100
AcDbEntity
  8
0
100
AcDbLine
  6
STRICHPUNKT2
 62
     1
 10
448.38072448
 20
-94.25002497
 30
0.0
 11
449.52610533
 21
-93.23989401
 31
0.0
  0
LINE
  5
37F
100
AcDbEntity
  8
0
100
AcDbLine
  6
STRICHPUNKT2
 62
     1
 10
447.07503236
 20
-103.65111630
 30
0.0
 11
442.68368888
 21
-103.09785902
 31
0.0
  0
LINE
  5
380
100
AcDbEntity
  8
0
100
AcDbLine
  6
STRICHPUNKT2
 62
     1
 10
444.50264291
 20
-103.32702569
 30
0.0
 11
447.41945838
 21
-100.75463624
 31
0.0
  0
LINE
  5
381
100
AcDbEntity
  8
0
100
AcDbLine
  6
STRICHPUNKT2
 62
     1
 10
444.50264291
 20
-103.32702569
 30
0.0
 11
441.58582743
 21
-105.89941514
 31
0.0
  0
LINE
  5
382
100
AcDbEntity
  8
0
100
AcDbLine
  6
STRICHPUNKT2
 62
     1
 10
444.50264291
 20
-103.32702569
 30
0.0
 11
444.50264291
 21
-95.54885110
 31
0.0
  0
LINE
  5
383
100
AcDbEntity
  8
0
100
AcDbLine
  6
STRICHPUNKT2
 62
     1
 10
444.50264291
 20
-103.32702569
 30
0.0
 11
444.50264291
 21
-111.10520028
 31
0.0
  0
LINE
  5
384
100
AcDbEntity
  8
0
100
AcDbLine
  6
STRICHPUNKT2
 62
     1
 10
442.69122081
 20
-103.03893173
 30
0.0
 11
444.57635786
 21
-101.37639713
 31
0.0
  0
LINE
  5
385
100
AcDbEntity
  8
0
100
AcDbLine
  6
STRICHPUNKT2
 62
     1
 10
442.63181421
 20
-103.56272795
 30
0.0
 11
442.63181421
 21
-106.39115507
 31
0.0
  0
TEXT
  5
386
100
AcDbEntity
  8
TXT_DIM49
100
AcDbText
 10
313.84489947
 20
-260.37279968
 30
0.0
 40
2.50000000
  1
2
  7
Arial
 41
1.000
 50
90.000207410
 51
0.0
100
AcDbText
  0
LINE
  5
387
100
AcDbEntity
  8
0
100
AcDbLine
 62
     4
 10
316.34489947
 20
-265.24690037
 30
0.0
 11
314.34489947
 21
-263.24690037
 31
0.0
  0
LINE
  5
388
100
AcDbEntity
  8
0
100
AcDbLine
 62
     4
 10
314.59489947
 20
-261.49690037
 30
0.0
 11
316.09489947
 21
-262.99690037
 31
0.0
  0
LINE
  5
389
100
AcDbEntity
  8
0
100
AcDbLine
 62
     4
 10
315.34489947
 20
-270.24690037
 30
0.0
 11
315.34489947
 21
-257.45296411
 31
0.0
  0
LINE
  5
38A
100
AcDbEntity
  8
0
100
AcDbLine
 62
     4
 10
313.34489947
 20
-264.24690037
 30
0.0
 11
317.34489947
 21
-264.24690037
 31
0.0
  0
LINE
  5
38B
100
AcDbEntity
  8
0
100
AcDbLine
 62
     4
 10
313.34489947
 20
-262.24690037
 30
0.0
 11
317.34489947
 21
-262.24690037
 31
0.0
  0
TEXT
  5
38C
100
AcDbEntity
  8
TXT_DIM49
100
AcDbText
 10
274.84878152
 20
-272.74690037
 30
0.0
 40
2.50000000
  1
60
  7
Arial
 41
1.000
 50
0.0
 51
0.0
100
AcDbText
  0
LINE
  5
38D
100
AcDbEntity
  8
0
100
AcDbLine
 62
     4
 10
247.76861697
 20
-273.24690037
 30
0.0
 11
245.76861697
 21
-275.24690037
 31
0.0
  0
LINE
  5
38E
100
AcDbEntity
  8
0
100
AcDbLine
 62
     4
 10
306.01861697
 20
-274.99690037
 30
0.0
 11
307.51861697
 21
-273.49690037
 31
0.0
  0
LINE
  5
38F
100
AcDbEntity
  8
0
100
AcDbLine
 62
     4
 10
246.76861697
 20
-274.24690037
 30
0.0
 11
306.76861697
 21
-274.24690037
 31
0.0
  0
LINE
  5
390
100
AcDbEntity
  8
0
100
AcDbLine
 62
     4
 10
246.76861697
 20
-272.24690037
 30
0.0
 11
246.76861697
 21
-276.24690037
 31
0.0
  0
LINE
  5
391
100
AcDbEntity
  8
0
100
AcDbLine
 62
     4
 10
306.76861697
 20
-272.24690037
 30
0.0
 11
306.76861697
 21
-276.24690037
 31
0.0
  0
TEXT
  5
392
100
AcDbEntity
  8
TXT_DIM49
100
AcDbText
 10
234.30869924
 20
-246.16673581
 30
0.0
 40
2.50000000
  1
40
  7
Arial
 41
1.000
 50
90.000207410
 51
0.0
100
AcDbText
  0
LINE
  5
393
100
AcDbEntity
  8
0
100
AcDbLine
 62
     4
 10
234.80869924
 20
-263.24690037
 30
0.0
 11
236.80869924
 21
-265.24690037
 31
0.0
  0
LINE
  5
394
100
AcDbEntity
  8
0
100
AcDbLine
 62
     4
 10
236.55869924
 20
-224.99690037
 30
0.0
 11
235.05869924
 21
-223.49690037
 31
0.0
  0
LINE
  5
395
100
AcDbEntity
  8
0
100
AcDbLine
 62
     4
 10
235.80869924
 20
-264.24690037
 30
0.0
 11
235.80869924
 21
-224.24690037
 31
0.0
  0
LINE
  5
396
100
AcDbEntity
  8
0
100
AcDbLine
 62
     4
 10
237.80869924
 20
-264.24690037
 30
0.0
 11
233.80869924
 21
-264.24690037
 31
0.0
  0
LINE
  5
397
100
AcDbEntity
  8
0
100
AcDbLine
 62
     4
 10
237.80869924
 20
-224.24690037
 30
0.0
 11
233.80869924
 21
-224.24690037
 31
0.0
  0
TEXT
  5
398
100
AcDbEntity
  8
TXT_DIM49
100
AcDbText
 10
250.03698700
 20
-214.25143880
 30
0.0
 40
2.50000000
  1
2
  7
Arial
 41
1.000
 50
0.0
 51
0.0
100
AcDbText
  0
LINE
  5
399
100
AcDbEntity
  8
0
100
AcDbLine
 62
     4
 10
249.76861697
 20
-214.75143880
 30
0.0
 11
247.76861697
 21
-216.75143880
 31
0.0
  0
LINE
  5
39A
100
AcDbEntity
  8
0
100
AcDbLine
 62
     4
 10
246.01861697
 20
-216.50143880
 30
0.0
 11
247.51861697
 21
-215.00143880
 31
0.0
  0
LINE
  5
39B
100
AcDbEntity
  8
0
100
AcDbLine
 62
     4
 10
252.95682269
 20
-215.75143880
 30
0.0
 11
240.76861697
 21
-215.75143880
 31
0.0
  0
LINE
  5
39C
100
AcDbEntity
  8
0
100
AcDbLine
 62
     4
 10
248.76861697
 20
-217.75143880
 30
0.0
 11
248.76861697
 21
-213.75143880
 31
0.0
  0
LINE
  5
39D
100
AcDbEntity
  8
0
100
AcDbLine
 62
     4
 10
246.76861697
 20
-217.75143880
 30
0.0
 11
246.76861697
 21
-213.75143880
 31
0.0
  0
TEXT
  5
39E
100
AcDbEntity
  8
TXT_DIM49
100
AcDbText
 10
412.54165368
 20
-218.19143316
 30
0.0
 40
2.50000000
  1
4
  7
Arial
 41
1.000
 50
0.0
 51
0.0
100
AcDbText
  0
TEXT
  5
39F
100
AcDbEntity
  8
TXT_DIM49
100
AcDbText
 10
415.96148924
 20
-218.19143316
 30
0.0
 40
2.50000000
  1
x45°
  7
Arial
 41
1.000
 50
0.0
 51
0.0
100
AcDbText
  0
LINE
  5
3A0
100
AcDbEntity
  8
0
100
AcDbLine
 62
     4
 10
411.73869114
 20
-218.69143316
 30
0.0
 11
409.73869114
 21
-220.69143316
 31
0.0
  0
LINE
  5
3A1
100
AcDbEntity
  8
0
100
AcDbLine
 62
     4
 10
406.48869114
 20
-220.44143316
 30
0.0
 11
407.98869114
 21
-218.94143316
 31
0.0
  0
LINE
  5
3A2
100
AcDbEntity
  8
0
100
AcDbLine
 62
     4
 10
423.90761833
 20
-219.69143316
 30
0.0
 11
401.23869114
 21
-219.69143316
 31
0.0
  0
LINE
  5
3A3
100
AcDbEntity
  8
0
100
AcDbLine
 62
     4
 10
410.73869114
 20
-221.69143316
 30
0.0
 11
410.73869114
 21
-217.69143316
 31
0.0
  0
LINE
  5
3A4
100
AcDbEntity
  8
0
100
AcDbLine
 62
     4
 10
407.23869114
 20
-221.69143316
 30
0.0
 11
407.23869114
 21
-217.69143316
 31
0.0
  0
TEXT
  5
3A5
100
AcDbEntity
  8
TXT_DIM49
100
AcDbText
 10
469.56238680
 20
-218.19143316
 30
0.0
 40
2.50000000
  1
4
  7
Arial
 41
1.000
 50
0.0
 51
0.0
100
AcDbText
  0
TEXT
  5
3A6
100
AcDbEntity
  8
TXT_DIM49
100
AcDbText
 10
472.98222236
 20
-218.19143316
 30
0.0
 40
2.50000000
  1
x45°
  7
Arial
 41
1.000
 50
0.0
 51
0.0
100
AcDbText
  0
LINE
  5
3A7
100
AcDbEntity
  8
0
100
AcDbLine
 62
     4
 10
468.23869114
 20
-218.69143316
 30
0.0
 11
466.23869114
 21
-220.69143316
 31
0.0
  0
LINE
  5
3A8
100
AcDbEntity
  8
0
100
AcDbLine
 62
     4
 10
462.98869114
 20
-220.44143316
 30
0.0
 11
464.48869114
 21
-218.94143316
 31
0.0
  0
LINE
  5
3A9
100
AcDbEntity
  8
0
100
AcDbLine
 62
     4
 10
480.92835216
 20
-219.69143316
 30
0.0
 11
457.73869114
 21
-219.69143316
 31
0.0
  0
LINE
  5
3AA
100
AcDbEntity
  8
0
100
AcDbLine
 62
     4
 10
467.23869114
 20
-221.69143316
 30
0.0
 11
467.23869114
 21
-217.69143316
 31
0.0
  0
LINE
  5
3AB
100
AcDbEntity
  8
0
100
AcDbLine
 62
     4
 10
463.73869114
 20
-221.69143316
 30
0.0
 11
463.73869114
 21
-217.69143316
 31
0.0
  0
TEXT
  5
3AC
100
AcDbEntity
  8
TXT_DIM49
100
AcDbText
 10
410.27877341
 20
-208.28490475
 30
0.0
 40
2.50000000
  1
8
  7
Arial
 41
1.000
 50
0.0
 51
0.0
100
AcDbText
  0
LINE
  5
3AD
100
AcDbEntity
  8
0
100
AcDbLine
 62
     4
 10
408.23869114
 20
-208.78490475
 30
0.0
 11
406.23869114
 21
-210.78490475
 31
0.0
  0
LINE
  5
3AE
100
AcDbEntity
  8
0
100
AcDbLine
 62
     4
 10
414.48869114
 20
-210.53490475
 30
0.0
 11
415.98869114
 21
-209.03490475
 31
0.0
  0
LINE
  5
3AF
100
AcDbEntity
  8
0
100
AcDbLine
 62
     4
 10
407.23869114
 20
-209.78490475
 30
0.0
 11
415.23869114
 21
-209.78490475
 31
0.0
  0
LINE
  5
3B0
100
AcDbEntity
  8
0
100
AcDbLine
 62
     4
 10
407.23869114
 20
-211.78490475
 30
0.0
 11
407.23869114
 21
-207.78490475
 31
0.0
  0
LINE
  5
3B1
100
AcDbEntity
  8
0
100
AcDbLine
 62
     4
 10
415.23869114
 20
-211.78490475
 30
0.0
 11
415.23869114
 21
-207.78490475
 31
0.0
  0
TEXT
  5
3B2
100
AcDbEntity
  8
TXT_DIM49
100
AcDbText
 10
417.77877341
 20
-208.28490475
 30
0.0
 40
2.50000000
  1
7
  7
Arial
 41
1.000
 50
0.0
 51
0.0
100
AcDbText
  0
LINE
  5
3B3
100
AcDbEntity
  8
0
100
AcDbLine
 62
     4
 10
416.23869114
 20
-208.78490475
 30
0.0
 11
414.23869114
 21
-210.78490475
 31
0.0
  0
LINE
  5
3B4
100
AcDbEntity
  8
0
100
AcDbLine
 62
     4
 10
421.48869114
 20
-210.53490475
 30
0.0
 11
422.98869114
 21
-209.03490475
 31
0.0
  0
LINE
  5
3B5
100
AcDbEntity
  8
0
100
AcDbLine
 62
     4
 10
415.23869114
 20
-209.78490475
 30
0.0
 11
422.23869114
 21
-209.78490475
 31
0.0
  0
LINE
  5
3B6
100
AcDbEntity
  8
0
100
AcDbLine
 62
     4
 10
415.23869114
 20
-211.78490475
 30
0.0
 11
415.23869114
 21
-207.78490475
 31
0.0
  0
LINE
  5
3B7
100
AcDbEntity
  8
0
100
AcDbLine
 62
     4
 10
422.23869114
 20
-211.78490475
 30
0.0
 11
422.23869114
 21
-207.78490475
 31
0.0
  0
TEXT
  5
3B8
100
AcDbEntity
  8
TXT_DIM49
100
AcDbText
 10
422.27877341
 20
-205.86989573
 30
0.0
 40
2.50000000
  1
2
  7
Arial
 41
1.000
 50
0.0
 51
0.0
100
AcDbText
  0
LINE
  5
3B9
100
AcDbEntity
  8
0
100
AcDbLine
 62
     4
 10
423.23869114
 20
-208.78490475
 30
0.0
 11
421.23869114
 21
-210.78490475
 31
0.0
  0
LINE
  5
3BA
100
AcDbEntity
  8
0
100
AcDbLine
 62
     4
 10
423.48869114
 20
-210.53490475
 30
0.0
 11
424.98869114
 21
-209.03490475
 31
0.0
  0
LINE
  5
3BB
100
AcDbEntity
  8
0
100
AcDbLine
 62
     4
 10
422.23869114
 20
-209.78490475
 30
0.0
 11
424.23869114
 21
-209.78490475
 31
0.0
  0
LINE
  5
3BC
100
AcDbEntity
  8
0
100
AcDbLine
 62
     4
 10
423.23869114
 20
-209.78490475
 30
0.0
 11
423.23869066
 21
-206.86989574
 31
0.0
  0
LINE
  5
3BD
100
AcDbEntity
  8
0
100
AcDbLine
 62
     4
 10
422.23869114
 20
-211.78490475
 30
0.0
 11
422.23869114
 21
-207.78490475
 31
0.0
  0
LINE
  5
3BE
100
AcDbEntity
  8
0
100
AcDbLine
 62
     4
 10
424.23869114
 20
-211.78490475
 30
0.0
 11
424.23869114
 21
-207.78490475
 31
0.0
  0
TEXT
  5
3BF
100
AcDbEntity
  8
TXT_DIM49
100
AcDbText
 10
428.81885569
 20
-208.28490475
 30
0.0
 40
2.50000000
  1
13
  7
Arial
 41
1.000
 50
0.0
 51
0.0
100
AcDbText
  0
LINE
  5
3C0
100
AcDbEntity
  8
0
100
AcDbLine
 62
     4
 10
425.23869114
 20
-208.78490475
 30
0.0
 11
423.23869114
 21
-210.78490475
 31
0.0
  0
LINE
  5
3C1
100
AcDbEntity
  8
0
100
AcDbLine
 62
     4
 10
436.48869114
 20
-210.53490475
 30
0.0
 11
437.98869114
 21
-209.03490475
 31
0.0
  0
LINE
  5
3C2
100
AcDbEntity
  8
0
100
AcDbLine
 62
     4
 10
424.23869114
 20
-209.78490475
 30
0.0
 11
437.23869114
 21
-209.78490475
 31
0.0
  0
LINE
  5
3C3
100
AcDbEntity
  8
0
100
AcDbLine
 62
     4
 10
424.23869114
 20
-211.78490475
 30
0.0
 11
424.23869114
 21
-207.78490475
 31
0.0
  0
LINE
  5
3C4
100
AcDbEntity
  8
0
100
AcDbLine
 62
     4
 10
437.23869114
 20
-211.78490475
 30
0.0
 11
437.23869114
 21
-207.78490475
 31
0.0
  0
TEXT
  5
3C5
100
AcDbEntity
  8
TXT_DIM49
100
AcDbText
 10
441.81885569
 20
-208.28490475
 30
0.0
 40
2.50000000
  1
13
  7
Arial
 41
1.000
 50
0.0
 51
0.0
100
AcDbText
  0
LINE
  5
3C6
100
AcDbEntity
  8
0
100
AcDbLine
 62
     4
 10
438.23869114
 20
-208.78490475
 30
0.0
 11
436.23869114
 21
-210.78490475
 31
0.0
  0
LINE
  5
3C7
100
AcDbEntity
  8
0
100
AcDbLine
 62
     4
 10
449.48869114
 20
-210.53490475
 30
0.0
 11
450.98869114
 21
-209.03490475
 31
0.0
  0
LINE
  5
3C8
100
AcDbEntity
  8
0
100
AcDbLine
 62
     4
 10
437.23869114
 20
-209.78490475
 30
0.0
 11
450.23869114
 21
-209.78490475
 31
0.0
  0
LINE
  5
3C9
100
AcDbEntity
  8
0
100
AcDbLine
 62
     4
 10
437.23869114
 20
-211.78490475
 30
0.0
 11
437.23869114
 21
-207.78490475
 31
0.0
  0
LINE
  5
3CA
100
AcDbEntity
  8
0
100
AcDbLine
 62
     4
 10
450.23869114
 20
-211.78490475
 30
0.0
 11
450.23869114
 21
-207.78490475
 31
0.0
  0
TEXT
  5
3CB
100
AcDbEntity
  8
TXT_DIM49
100
AcDbText
 10
450.27877341
 20
-205.60661820
 30
0.0
 40
2.50000000
  1
2
  7
Arial
 41
1.000
 50
0.0
 51
0.0
100
AcDbText
  0
LINE
  5
3CC
100
AcDbEntity
  8
0
100
AcDbLine
 62
     4
 10
451.23869114
 20
-208.78490475
 30
0.0
 11
449.23869114
 21
-210.78490475
 31
0.0
  0
LINE
  5
3CD
100
AcDbEntity
  8
0
100
AcDbLine
 62
     4
 10
451.48869114
 20
-210.53490475
 30
0.0
 11
452.98869114
 21
-209.03490475
 31
0.0
  0
LINE
  5
3CE
100
AcDbEntity
  8
0
100
AcDbLine
 62
     4
 10
450.23869114
 20
-209.78490475
 30
0.0
 11
452.23869114
 21
-209.78490475
 31
0.0
  0
LINE
  5
3CF
100
AcDbEntity
  8
0
100
AcDbLine
 62
     4
 10
451.23869114
 20
-209.78490475
 30
0.0
 11
451.23869114
 21
-206.60661869
 31
0.0
  0
LINE
  5
3D0
100
AcDbEntity
  8
0
100
AcDbLine
 62
     4
 10
450.23869114
 20
-211.78490475
 30
0.0
 11
450.23869114
 21
-207.78490475
 31
0.0
  0
LINE
  5
3D1
100
AcDbEntity
  8
0
100
AcDbLine
 62
     4
 10
452.23869114
 20
-211.78490475
 30
0.0
 11
452.23869114
 21
-207.78490475
 31
0.0
  0
TEXT
  5
3D2
100
AcDbEntity
  8
TXT_DIM49
100
AcDbText
 10
454.77877341
 20
-208.28490475
 30
0.0
 40
2.50000000
  1
7
  7
Arial
 41
1.000
 50
0.0
 51
0.0
100
AcDbText
  0
LINE
  5
3D3
100
AcDbEntity
  8
0
100
AcDbLine
 62
     4
 10
453.23869114
 20
-208.78490475
 30
0.0
 11
451.23869114
 21
-210.78490475
 31
0.0
  0
LINE
  5
3D4
100
AcDbEntity
  8
0
100
AcDbLine
 62
     4
 10
458.48869114
 20
-210.53490475
 30
0.0
 11
459.98869114
 21
-209.03490475
 31
0.0
  0
LINE
  5
3D5
100
AcDbEntity
  8
0
100
AcDbLine
 62
     4
 10
452.23869114
 20
-209.78490475
 30
0.0
 11
459.23869114
 21
-209.78490475
 31
0.0
  0
LINE
  5
3D6
100
AcDbEntity
  8
0
100
AcDbLine
 62
     4
 10
452.23869114
 20
-211.78490475
 30
0.0
 11
452.23869114
 21
-207.78490475
 31
0.0
  0
LINE
  5
3D7
100
AcDbEntity
  8
0
100
AcDbLine
 62
     4
 10
459.23869114
 20
-211.78490475
 30
0.0
 11
459.23869114
 21
-207.78490475
 31
0.0
  0
TEXT
  5
3D8
100
AcDbEntity
  8
TXT_DIM49
100
AcDbText
 10
462.27877341
 20
-208.28490475
 30
0.0
 40
2.50000000
  1
8
  7
Arial
 41
1.000
 50
0.0
 51
0.0
100
AcDbText
  0
LINE
  5
3D9
100
AcDbEntity
  8
0
100
AcDbLine
 62
     4
 10
460.23869114
 20
-208.78490475
 30
0.0
 11
458.23869114
 21
-210.78490475
 31
0.0
  0
LINE
  5
3DA
100
AcDbEntity
  8
0
100
AcDbLine
 62
     4
 10
466.48869114
 20
-210.53490475
 30
0.0
 11
467.98869114
 21
-209.03490475
 31
0.0
  0
LINE
  5
3DB
100
AcDbEntity
  8
0
100
AcDbLine
 62
     4
 10
459.23869114
 20
-209.78490475
 30
0.0
 11
467.23869114
 21
-209.78490475
 31
0.0
  0
LINE
  5
3DC
100
AcDbEntity
  8
0
100
AcDbLine
 62
     4
 10
459.23869114
 20
-211.78490475
 30
0.0
 11
459.23869114
 21
-207.78490475
 31
0.0
  0
LINE
  5
3DD
100
AcDbEntity
  8
0
100
AcDbLine
 62
     4
 10
467.23869114
 20
-211.78490475
 30
0.0
 11
467.23869114
 21
-207.78490475
 31
0.0
  0
TEXT
  5
3DE
100
AcDbEntity
  8
TXT_DIM49
100
AcDbText
 10
400.13226275
 20
-258.66673581
 30
0.0
 40
2.50000000
  1
15
  7
Arial
 41
1.000
 50
90.000207410
 51
0.0
100
AcDbText
  0
LINE
  5
3DF
100
AcDbEntity
  8
0
100
AcDbLine
 62
     4
 10
400.63226275
 20
-263.24690037
 30
0.0
 11
402.63226275
 21
-265.24690037
 31
0.0
  0
LINE
  5
3E0
100
AcDbEntity
  8
0
100
AcDbLine
 62
     4
 10
402.38226275
 20
-249.99690037
 30
0.0
 11
400.88226275
 21
-248.49690037
 31
0.0
  0
LINE
  5
3E1
100
AcDbEntity
  8
0
100
AcDbLine
 62
     4
 10
401.63226275
 20
-264.24690037
 30
0.0
 11
401.63226275
 21
-249.24690037
 31
0.0
  0
LINE
  5
3E2
100
AcDbEntity
  8
0
100
AcDbLine
 62
     4
 10
403.63226275
 20
-264.24690037
 30
0.0
 11
399.63226275
 21
-264.24690037
 31
0.0
  0
LINE
  5
3E3
100
AcDbEntity
  8
0
100
AcDbLine
 62
     4
 10
403.63226275
 20
-249.24690037
 30
0.0
 11
399.63226275
 21
-249.24690037
 31
0.0
  0
TEXT
  5
3E4
100
AcDbEntity
  8
TXT_DIM49
100
AcDbText
 10
400.13226275
 20
-247.20681809
 30
0.0
 40
2.50000000
  1
6
  7
Arial
 41
1.000
 50
90.000207410
 51
0.0
100
AcDbText
  0
LINE
  5
3E5
100
AcDbEntity
  8
0
100
AcDbLine
 62
     4
 10
400.63226275
 20
-248.24690037
 30
0.0
 11
402.63226275
 21
-250.24690037
 31
0.0
  0
LINE
  5
3E6
100
AcDbEntity
  8
0
100
AcDbLine
 62
     4
 10
402.38226275
 20
-243.99690037
 30
0.0
 11
400.88226275
 21
-242.49690037
 31
0.0
  0
LINE
  5
3E7
100
AcDbEntity
  8
0
100
AcDbLine
 62
     4
 10
401.63226275
 20
-249.24690037
 30
0.0
 11
401.63226275
 21
-243.24690037
 31
0.0
  0
LINE
  5
3E8
100
AcDbEntity
  8
0
100
AcDbLine
 62
     4
 10
403.63226275
 20
-249.24690037
 30
0.0
 11
399.63226275
 21
-249.24690037
 31
0.0
  0
LINE
  5
3E9
100
AcDbEntity
  8
0
100
AcDbLine
 62
     4
 10
403.63226275
 20
-243.24690037
 30
0.0
 11
399.63226275
 21
-243.24690037
 31
0.0
  0
TEXT
  5
3EA
100
AcDbEntity
  8
TXT_DIM49
100
AcDbText
 10
400.13226275
 20
-242.20681809
 30
0.0
 40
2.50000000
  1
4
  7
Arial
 41
1.000
 50
90.000207410
 51
0.0
100
AcDbText
  0
LINE
  5
3EB
100
AcDbEntity
  8
0
100
AcDbLine
 62
     4
 10
400.63226275
 20
-242.24690037
 30
0.0
 11
402.63226275
 21
-244.24690037
 31
0.0
  0
LINE
  5
3EC
100
AcDbEntity
  8
0
100
AcDbLine
 62
     4
 10
402.38226275
 20
-239.99690037
 30
0.0
 11
400.88226275
 21
-238.49690037
 31
0.0
  0
LINE
  5
3ED
100
AcDbEntity
  8
0
100
AcDbLine
 62
     4
 10
401.63226275
 20
-243.24690037
 30
0.0
 11
401.63226275
 21
-239.24690037
 31
0.0
  0
LINE
  5
3EE
100
AcDbEntity
  8
0
100
AcDbLine
 62
     4
 10
403.63226275
 20
-243.24690037
 30
0.0
 11
399.63226275
 21
-243.24690037
 31
0.0
  0
LINE
  5
3EF
100
AcDbEntity
  8
0
100
AcDbLine
 62
     4
 10
403.63226275
 20
-239.24690037
 30
0.0
 11
399.63226275
 21
-239.24690037
 31
0.0
  0
TEXT
  5
3F0
100
AcDbEntity
  8
TXT_DIM49
100
AcDbText
 10
400.13226275
 20
-235.70681809
 30
0.0
 40
2.50000000
  1
9
  7
Arial
 41
1.000
 50
90.000207410
 51
0.0
100
AcDbText
  0
LINE
  5
3F1
100
AcDbEntity
  8
0
100
AcDbLine
 62
     4
 10
400.63226275
 20
-238.24690037
 30
0.0
 11
402.63226275
 21
-240.24690037
 31
0.0
  0
LINE
  5
3F2
100
AcDbEntity
  8
0
100
AcDbLine
 62
     4
 10
402.38226275
 20
-230.99690037
 30
0.0
 11
400.88226275
 21
-229.49690037
 31
0.0
  0
LINE
  5
3F3
100
AcDbEntity
  8
0
100
AcDbLine
 62
     4
 10
401.63226275
 20
-239.24690037
 30
0.0
 11
401.63226275
 21
-230.24690037
 31
0.0
  0
LINE
  5
3F4
100
AcDbEntity
  8
0
100
AcDbLine
 62
     4
 10
403.63226275
 20
-239.24690037
 30
0.0
 11
399.63226275
 21
-239.24690037
 31
0.0
  0
LINE
  5
3F5
100
AcDbEntity
  8
0
100
AcDbLine
 62
     4
 10
403.63226275
 20
-230.24690037
 30
0.0
 11
399.63226275
 21
-230.24690037
 31
0.0
  0
TEXT
  5
3F6
100
AcDbEntity
  8
TXT_DIM49
100
AcDbText
 10
400.13226275
 20
-228.20681809
 30
0.0
 40
2.50000000
  1
6
  7
Arial
 41
1.000
 50
90.000207410
 51
0.0
100
AcDbText
  0
LINE
  5
3F7
100
AcDbEntity
  8
0
100
AcDbLine
 62
     4
 10
400.63226275
 20
-229.24690037
 30
0.0
 11
402.63226275
 21
-231.24690037
 31
0.0
  0
LINE
  5
3F8
100
AcDbEntity
  8
0
100
AcDbLine
 62
     4
 10
402.38226275
 20
-224.99690037
 30
0.0
 11
400.88226275
 21
-223.49690037
 31
0.0
  0
LINE
  5
3F9
100
AcDbEntity
  8
0
100
AcDbLine
 62
     4
 10
401.63226275
 20
-230.24690037
 30
0.0
 11
401.63226275
 21
-224.24690037
 31
0.0
  0
LINE
  5
3FA
100
AcDbEntity
  8
0
100
AcDbLine
 62
     4
 10
403.63226275
 20
-230.24690037
 30
0.0
 11
399.63226275
 21
-230.24690037
 31
0.0
  0
LINE
  5
3FB
100
AcDbEntity
  8
0
100
AcDbLine
 62
     4
 10
403.63226275
 20
-224.24690037
 30
0.0
 11
399.63226275
 21
-224.24690037
 31
0.0
  0
TEXT
  5
3FC
100
AcDbEntity
  8
TXT_DIM49
100
AcDbText
 10
415.70890753
 20
-256.04479208
 30
0.0
 40
2.50000000
  1
Ø
  7
Arial
 41
1.000
 50
0.0
 51
0.0
100
AcDbText
  0
TEXT
  5
3FD
100
AcDbEntity
  8
TXT_DIM49
100
AcDbText
 10
419.39398043
 20
-256.04479208
 30
0.0
 40
2.50000000
  1
4
  7
Arial
 41
1.000
 50
0.0
 51
0.0
100
AcDbText
  0
LINE
  5
3FE
100
AcDbEntity
  8
0
100
AcDbLine
 62
     4
 10
427.23869114
 20
-256.54479208
 30
0.0
 11
425.23869114
 21
-258.54479208
 31
0.0
  0
LINE
  5
3FF
100
AcDbEntity
  8
0
100
AcDbLine
 62
     4
 10
421.48869114
 20
-258.29479208
 30
0.0
 11
422.98869114
 21
-256.79479208
 31
0.0
  0
LINE
  5
400
100
AcDbEntity
  8
0
100
AcDbLine
 62
     4
 10
432.23869114
 20
-257.54479208
 30
0.0
 11
414.70890789
 21
-257.54479208
 31
0.0
  0
LINE
  5
401
100
AcDbEntity
  8
0
100
AcDbLine
 62
     4
 10
426.23869114
 20
-255.54479208
 30
0.0
 11
426.23869114
 21
-259.54479208
 31
0.0
  0
LINE
  5
402
100
AcDbEntity
  8
0
100
AcDbLine
 62
     4
 10
422.23869114
 20
-255.54479208
 30
0.0
 11
422.23869114
 21
-259.54479208
 31
0.0
  0
TEXT
  5
403
100
AcDbEntity
  8
TXT_DIM49
100
AcDbText
 10
433.47631912
 20
-253.01197551
 30
0.0
 40
2.50000000
  1
Ø
  7
Arial
 41
1.000
 50
0.0
 51
0.0
100
AcDbText
  0
TEXT
  5
404
100
AcDbEntity
  8
TXT_DIM49
100
AcDbText
 10
437.16139202
 20
-253.01197551
 30
0.0
 40
2.50000000
  1
11
  7
Arial
 41
1.000
 50
0.0
 51
0.0
100
AcDbText
  0
LINE
  5
405
100
AcDbEntity
  8
0
100
AcDbLine
 62
     4
 10
441.73869114
 20
-255.51197551
 30
0.0
 11
443.73869114
 21
-253.51197551
 31
0.0
  0
LINE
  5
406
100
AcDbEntity
  8
0
100
AcDbLine
 62
     4
 10
432.48869114
 20
-253.76197551
 30
0.0
 11
430.98869114
 21
-255.26197551
 31
0.0
  0
LINE
  5
407
100
AcDbEntity
  8
0
100
AcDbLine
 62
     4
 10
442.73869114
 20
-254.51197551
 30
0.0
 11
431.73869114
 21
-254.51197551
 31
0.0
  0
LINE
  5
408
100
AcDbEntity
  8
0
100
AcDbLine
 62
     4
 10
442.73869114
 20
-252.51197551
 30
0.0
 11
442.73869114
 21
-256.51197551
 31
0.0
  0
LINE
  5
409
100
AcDbEntity
  8
0
100
AcDbLine
 62
     4
 10
431.73869114
 20
-252.51197551
 30
0.0
 11
431.73869114
 21
-256.51197551
 31
0.0
  0
TEXT
  5
40A
100
AcDbEntity
  8
TXT_DIM49
100
AcDbText
 10
454.21668951
 20
-255.60814378
 30
0.0
 40
2.50000000
  1
Ø
  7
Arial
 41
1.000
 50
0.0
 51
0.0
100
AcDbText
  0
TEXT
  5
40B
100
AcDbEntity
  8
TXT_DIM49
100
AcDbText
 10
457.90176241
 20
-255.60814378
 30
0.0
 40
2.50000000
  1
4
  7
Arial
 41
1.000
 50
0.0
 51
0.0
100
AcDbText
  0
LINE
  5
40C
100
AcDbEntity
  8
0
100
AcDbLine
 62
     4
 10
453.23869114
 20
-256.10814378
 30
0.0
 11
451.23869114
 21
-258.10814378
 31
0.0
  0
LINE
  5
40D
100
AcDbEntity
  8
0
100
AcDbLine
 62
     4
 10
447.48869114
 20
-257.85814378
 30
0.0
 11
448.98869114
 21
-256.35814378
 31
0.0
  0
LINE
  5
40E
100
AcDbEntity
  8
0
100
AcDbLine
 62
     4
 10
460.82159786
 20
-257.10814378
 30
0.0
 11
442.23869114
 21
-257.10814378
 31
0.0
  0
LINE
  5
40F
100
AcDbEntity
  8
0
100
AcDbLine
 62
     4
 10
452.23869114
 20
-255.10814378
 30
0.0
 11
452.23869114
 21
-259.10814378
 31
0.0
  0
LINE
  5
410
100
AcDbEntity
  8
0
100
AcDbLine
 62
     4
 10
448.23869114
 20
-255.10814378
 30
0.0
 11
448.23869114
 21
-259.10814378
 31
0.0
  0
TEXT
  5
411
100
AcDbEntity
  8
TXT_DIM49
100
AcDbText
 10
419.43623690
 20
-231.41954970
 30
0.0
 40
2.50000000
  1
Ø
  7
Arial
 41
1.000
 50
0.0
 51
0.0
100
AcDbText
  0
TEXT
  5
412
100
AcDbEntity
  8
TXT_DIM49
100
AcDbText
 10
423.12130980
 20
-231.41954970
 30
0.0
 40
2.50000000
  1
9
  7
Arial
 41
1.000
 50
0.0
 51
0.0
100
AcDbText
  0
LINE
  5
413
100
AcDbEntity
  8
0
100
AcDbLine
 62
     4
 10
418.73869114
 20
-231.91954970
 30
0.0
 11
416.73869114
 21
-233.91954970
 31
0.0
  0
LINE
  5
414
100
AcDbEntity
  8
0
100
AcDbLine
 62
     4
 10
425.98869114
 20
-233.66954970
 30
0.0
 11
427.48869114
 21
-232.16954970
 31
0.0
  0
LINE
  5
415
100
AcDbEntity
  8
0
100
AcDbLine
 62
     4
 10
417.73869114
 20
-232.91954970
 30
0.0
 11
426.73869114
 21
-232.91954970
 31
0.0
  0
LINE
  5
416
100
AcDbEntity
  8
0
100
AcDbLine
 62
     4
 10
417.73869114
 20
-234.91954970
 30
0.0
 11
417.73869114
 21
-230.91954970
 31
0.0
  0
LINE
  5
417
100
AcDbEntity
  8
0
100
AcDbLine
 62
     4
 10
426.73869114
 20
-234.91954970
 30
0.0
 11
426.73869114
 21
-230.91954970
 31
0.0
  0
TEXT
  5
418
100
AcDbEntity
  8
TXT_DIM49
100
AcDbText
 10
449.43623690
 20
-230.91953181
 30
0.0
 40
2.50000000
  1
Ø
  7
Arial
 41
1.000
 50
0.0
 51
0.0
100
AcDbText
  0
TEXT
  5
419
100
AcDbEntity
  8
TXT_DIM49
100
AcDbText
 10
453.12130980
 20
-230.91953181
 30
0.0
 40
2.50000000
  1
9
  7
Arial
 41
1.000
 50
0.0
 51
0.0
100
AcDbText
  0
LINE
  5
41A
100
AcDbEntity
  8
0
100
AcDbLine
 62
     4
 10
448.73869114
 20
-231.41953181
 30
0.0
 11
446.73869114
 21
-233.41953181
 31
0.0
  0
LINE
  5
41B
100
AcDbEntity
  8
0
100
AcDbLine
 62
     4
 10
455.98869114
 20
-233.16953181
 30
0.0
 11
457.48869114
 21
-231.66953181
 31
0.0
  0
LINE
  5
41C
100
AcDbEntity
  8
0
100
AcDbLine
 62
     4
 10
447.73869114
 20
-232.41953181
 30
0.0
 11
456.73869114
 21
-232.41953181
 31
0.0
  0
LINE
  5
41D
100
AcDbEntity
  8
0
100
AcDbLine
 62
     4
 10
447.73869114
 20
-234.41953181
 30
0.0
 11
447.73869114
 21
-230.41953181
 31
0.0
  0
LINE
  5
41E
100
AcDbEntity
  8
0
100
AcDbLine
 62
     4
 10
456.73869114
 20
-234.41953181
 30
0.0
 11
456.73869114
 21
-230.41953181
 31
0.0
  0
TEXT
  5
41F
100
AcDbEntity
  8
TXT_DIM49
100
AcDbText
 10
252.84878152
 20
-166.50829639
 30
0.0
 40
2.50000000
  1
16
  7
Arial
 41
1.000
 50
0.0
 51
0.0
100
AcDbText
  0
LINE
  5
420
100
AcDbEntity
  8
0
100
AcDbLine
 62
     4
 10
247.76861697
 20
-167.00829639
 30
0.0
 11
245.76861697
 21
-169.00829639
 31
0.0
  0
LINE
  5
421
100
AcDbEntity
  8
0
100
AcDbLine
 62
     4
 10
262.01861697
 20
-168.75829639
 30
0.0
 11
263.51861697
 21
-167.25829639
 31
0.0
  0
LINE
  5
422
100
AcDbEntity
  8
0
100
AcDbLine
 62
     4
 10
246.76861697
 20
-168.00829639
 30
0.0
 11
262.76861697
 21
-168.00829639
 31
0.0
  0
LINE
  5
423
100
AcDbEntity
  8
0
100
AcDbLine
 62
     4
 10
246.76861697
 20
-166.00829639
 30
0.0
 11
246.76861697
 21
-170.00829639
 31
0.0
  0
LINE
  5
424
100
AcDbEntity
  8
0
100
AcDbLine
 62
     4
 10
262.76861697
 20
-166.00829639
 30
0.0
 11
262.76861697
 21
-170.00829639
 31
0.0
  0
TEXT
  5
425
100
AcDbEntity
  8
TXT_DIM49
100
AcDbText
 10
270.84878152
 20
-166.50829639
 30
0.0
 40
2.50000000
  1
20
  7
Arial
 41
1.000
 50
0.0
 51
0.0
100
AcDbText
  0
LINE
  5
426
100
AcDbEntity
  8
0
100
AcDbLine
 62
     4
 10
263.76861697
 20
-167.00829639
 30
0.0
 11
261.76861697
 21
-169.00829639
 31
0.0
  0
LINE
  5
427
100
AcDbEntity
  8
0
100
AcDbLine
 62
     4
 10
282.01861697
 20
-168.75829639
 30
0.0
 11
283.51861697
 21
-167.25829639
 31
0.0
  0
LINE
  5
428
100
AcDbEntity
  8
0
100
AcDbLine
 62
     4
 10
262.76861697
 20
-168.00829639
 30
0.0
 11
282.76861697
 21
-168.00829639
 31
0.0
  0
LINE
  5
429
100
AcDbEntity
  8
0
100
AcDbLine
 62
     4
 10
262.76861697
 20
-166.00829639
 30
0.0
 11
262.76861697
 21
-170.00829639
 31
0.0
  0
LINE
  5
42A
100
AcDbEntity
  8
0
100
AcDbLine
 62
     4
 10
282.76861697
 20
-166.00829639
 30
0.0
 11
282.76861697
 21
-170.00829639
 31
0.0
  0
TEXT
  5
42B
100
AcDbEntity
  8
TXT_DIM49
100
AcDbText
 10
289.84878152
 20
-166.50829639
 30
0.0
 40
2.50000000
  1
18
  7
Arial
 41
1.000
 50
0.0
 51
0.0
100
AcDbText
  0
LINE
  5
42C
100
AcDbEntity
  8
0
100
AcDbLine
 62
     4
 10
283.76861697
 20
-167.00829639
 30
0.0
 11
281.76861697
 21
-169.00829639
 31
0.0
  0
LINE
  5
42D
100
AcDbEntity
  8
0
100
AcDbLine
 62
     4
 10
300.01861697
 20
-168.75829639
 30
0.0
 11
301.51861697
 21
-167.25829639
 31
0.0
  0
LINE
  5
42E
100
AcDbEntity
  8
0
100
AcDbLine
 62
     4
 10
282.76861697
 20
-168.00829639
 30
0.0
 11
300.76861697
 21
-168.00829639
 31
0.0
  0
LINE
  5
42F
100
AcDbEntity
  8
0
100
AcDbLine
 62
     4
 10
282.76861697
 20
-166.00829639
 30
0.0
 11
282.76861697
 21
-170.00829639
 31
0.0
  0
LINE
  5
430
100
AcDbEntity
  8
0
100
AcDbLine
 62
     4
 10
300.76861697
 20
-166.00829639
 30
0.0
 11
300.76861697
 21
-170.00829639
 31
0.0
  0
TEXT
  5
431
100
AcDbEntity
  8
TXT_DIM49
100
AcDbText
 10
302.80869924
 20
-166.50829639
 30
0.0
 40
2.50000000
  1
6
  7
Arial
 41
1.000
 50
0.0
 51
0.0
100
AcDbText
  0
LINE
  5
432
100
AcDbEntity
  8
0
100
AcDbLine
 62
     4
 10
301.76861697
 20
-167.00829639
 30
0.0
 11
299.76861697
 21
-169.00829639
 31
0.0
  0
LINE
  5
433
100
AcDbEntity
  8
0
100
AcDbLine
 62
     4
 10
306.01861697
 20
-168.75829639
 30
0.0
 11
307.51861697
 21
-167.25829639
 31
0.0
  0
LINE
  5
434
100
AcDbEntity
  8
0
100
AcDbLine
 62
     4
 10
300.76861697
 20
-168.00829639
 30
0.0
 11
306.76861697
 21
-168.00829639
 31
0.0
  0
LINE
  5
435
100
AcDbEntity
  8
0
100
AcDbLine
 62
     4
 10
300.76861697
 20
-166.00829639
 30
0.0
 11
300.76861697
 21
-170.00829639
 31
0.0
  0
LINE
  5
436
100
AcDbEntity
  8
0
100
AcDbLine
 62
     4
 10
306.76861697
 20
-166.00829639
 30
0.0
 11
306.76861697
 21
-170.00829639
 31
0.0
  0
TEXT
  5
437
100
AcDbEntity
  8
TXT_DIM49
100
AcDbText
 10
322.74278045
 20
-157.54918328
 30
0.0
 40
2.50000000
  1
8
  7
Arial
 41
1.000
 50
90.000207410
 51
0.0
100
AcDbText
  0
LINE
  5
438
100
AcDbEntity
  8
0
100
AcDbLine
 62
     4
 10
323.24278045
 20
-159.58926556
 30
0.0
 11
325.24278045
 21
-161.58926556
 31
0.0
  0
LINE
  5
439
100
AcDbEntity
  8
0
100
AcDbLine
 62
     4
 10
324.99278045
 20
-153.33926556
 30
0.0
 11
323.49278045
 21
-151.83926556
 31
0.0
  0
LINE
  5
43A
100
AcDbEntity
  8
0
100
AcDbLine
 62
     4
 10
324.24278045
 20
-160.58926556
 30
0.0
 11
324.24278045
 21
-152.58926556
 31
0.0
  0
LINE
  5
43B
100
AcDbEntity
  8
0
100
AcDbLine
 62
     4
 10
322.24278045
 20
-160.58926556
 30
0.0
 11
326.24278045
 21
-160.58926556
 31
0.0
  0
LINE
  5
43C
100
AcDbEntity
  8
0
100
AcDbLine
 62
     4
 10
322.24278045
 20
-152.58926556
 30
0.0
 11
326.24278045
 21
-152.58926556
 31
0.0
  0
TEXT
  5
43D
100
AcDbEntity
  8
TXT_DIM49
100
AcDbText
 10
322.74278045
 20
-149.04918328
 30
0.0
 40
2.50000000
  1
9
  7
Arial
 41
1.000
 50
90.000207410
 51
0.0
100
AcDbText
  0
LINE
  5
43E
100
AcDbEntity
  8
0
100
AcDbLine
 62
     4
 10
323.24278045
 20
-151.58926556
 30
0.0
 11
325.24278045
 21
-153.58926556
 31
0.0
  0
LINE
  5
43F
100
AcDbEntity
  8
0
100
AcDbLine
 62
     4
 10
324.99278045
 20
-144.33926556
 30
0.0
 11
323.49278045
 21
-142.83926556
 31
0.0
  0
LINE
  5
440
100
AcDbEntity
  8
0
100
AcDbLine
 62
     4
 10
324.24278045
 20
-152.58926556
 30
0.0
 11
324.24278045
 21
-143.58926556
 31
0.0
  0
LINE
  5
441
100
AcDbEntity
  8
0
100
AcDbLine
 62
     4
 10
322.24278045
 20
-152.58926556
 30
0.0
 11
326.24278045
 21
-152.58926556
 31
0.0
  0
LINE
  5
442
100
AcDbEntity
  8
0
100
AcDbLine
 62
     4
 10
322.24278045
 20
-143.58926556
 30
0.0
 11
326.24278045
 21
-143.58926556
 31
0.0
  0
TEXT
  5
443
100
AcDbEntity
  8
TXT_DIM49
100
AcDbText
 10
322.74278045
 20
-139.00910101
 30
0.0
 40
2.50000000
  1
13
  7
Arial
 41
1.000
 50
90.000207410
 51
0.0
100
AcDbText
  0
LINE
  5
444
100
AcDbEntity
  8
0
100
AcDbLine
 62
     4
 10
323.24278045
 20
-142.58926556
 30
0.0
 11
325.24278045
 21
-144.58926556
 31
0.0
  0
LINE
  5
445
100
AcDbEntity
  8
0
100
AcDbLine
 62
     4
 10
324.99278045
 20
-131.33926556
 30
0.0
 11
323.49278045
 21
-129.83926556
 31
0.0
  0
LINE
  5
446
100
AcDbEntity
  8
0
100
AcDbLine
 62
     4
 10
324.24278045
 20
-143.58926556
 30
0.0
 11
324.24278045
 21
-130.58926556
 31
0.0
  0
LINE
  5
447
100
AcDbEntity
  8
0
100
AcDbLine
 62
     4
 10
322.24278045
 20
-143.58926556
 30
0.0
 11
326.24278045
 21
-143.58926556
 31
0.0
  0
LINE
  5
448
100
AcDbEntity
  8
0
100
AcDbLine
 62
     4
 10
322.24278045
 20
-130.58926556
 30
0.0
 11
326.24278045
 21
-130.58926556
 31
0.0
  0
TEXT
  5
449
100
AcDbEntity
  8
TXT_DIM49
100
AcDbText
 10
322.74278045
 20
-126.00910101
 30
0.0
 40
2.50000000
  1
13
  7
Arial
 41
1.000
 50
90.000207410
 51
0.0
100
AcDbText
  0
LINE
  5
44A
100
AcDbEntity
  8
0
100
AcDbLine
 62
     4
 10
323.24278045
 20
-129.58926556
 30
0.0
 11
325.24278045
 21
-131.58926556
 31
0.0
  0
LINE
  5
44B
100
AcDbEntity
  8
0
100
AcDbLine
 62
     4
 10
324.99278045
 20
-118.33926556
 30
0.0
 11
323.49278045
 21
-116.83926556
 31
0.0
  0
LINE
  5
44C
100
AcDbEntity
  8
0
100
AcDbLine
 62
     4
 10
324.24278045
 20
-130.58926556
 30
0.0
 11
324.24278045
 21
-117.58926556
 31
0.0
  0
LINE
  5
44D
100
AcDbEntity
  8
0
100
AcDbLine
 62
     4
 10
322.24278045
 20
-130.58926556
 30
0.0
 11
326.24278045
 21
-130.58926556
 31
0.0
  0
LINE
  5
44E
100
AcDbEntity
  8
0
100
AcDbLine
 62
     4
 10
322.24278045
 20
-117.58926556
 30
0.0
 11
326.24278045
 21
-117.58926556
 31
0.0
  0
TEXT
  5
44F
100
AcDbEntity
  8
TXT_DIM49
100
AcDbText
 10
322.74278045
 20
-114.04918328
 30
0.0
 40
2.50000000
  1
9
  7
Arial
 41
1.000
 50
90.000207410
 51
0.0
100
AcDbText
  0
LINE
  5
450
100
AcDbEntity
  8
0
100
AcDbLine
 62
     4
 10
323.24278045
 20
-116.58926556
 30
0.0
 11
325.24278045
 21
-118.58926556
 31
0.0
  0
LINE
  5
451
100
AcDbEntity
  8
0
100
AcDbLine
 62
     4
 10
324.99278045
 20
-109.33926556
 30
0.0
 11
323.49278045
 21
-107.83926556
 31
0.0
  0
LINE
  5
452
100
AcDbEntity
  8
0
100
AcDbLine
 62
     4
 10
324.24278045
 20
-117.58926556
 30
0.0
 11
324.24278045
 21
-108.58926556
 31
0.0
  0
LINE
  5
453
100
AcDbEntity
  8
0
100
AcDbLine
 62
     4
 10
322.24278045
 20
-117.58926556
 30
0.0
 11
326.24278045
 21
-117.58926556
 31
0.0
  0
LINE
  5
454
100
AcDbEntity
  8
0
100
AcDbLine
 62
     4
 10
322.24278045
 20
-108.58926556
 30
0.0
 11
326.24278045
 21
-108.58926556
 31
0.0
  0
TEXT
  5
455
100
AcDbEntity
  8
TXT_DIM49
100
AcDbText
 10
322.74278045
 20
-105.54918328
 30
0.0
 40
2.50000000
  1
8
  7
Arial
 41
1.000
 50
90.000207410
 51
0.0
100
AcDbText
  0
LINE
  5
456
100
AcDbEntity
  8
0
100
AcDbLine
 62
     4
 10
323.24278045
 20
-107.58926556
 30
0.0
 11
325.24278045
 21
-109.58926556
 31
0.0
  0
LINE
  5
457
100
AcDbEntity
  8
0
100
AcDbLine
 62
     4
 10
324.99278045
 20
-101.33926556
 30
0.0
 11
323.49278045
 21
-99.83926556
 31
0.0
  0
LINE
  5
458
100
AcDbEntity
  8
0
100
AcDbLine
 62
     4
 10
324.24278045
 20
-108.58926556
 30
0.0
 11
324.24278045
 21
-100.58926556
 31
0.0
  0
LINE
  5
459
100
AcDbEntity
  8
0
100
AcDbLine
 62
     4
 10
322.24278045
 20
-108.58926556
 30
0.0
 11
326.24278045
 21
-108.58926556
 31
0.0
  0
LINE
  5
45A
100
AcDbEntity
  8
0
100
AcDbLine
 62
     4
 10
322.24278045
 20
-100.58926556
 30
0.0
 11
326.24278045
 21
-100.58926556
 31
0.0
  0
TEXT
  5
45B
100
AcDbEntity
  8
TXT_DIM49
100
AcDbText
 10
238.57916157
 20
-147.50910101
 30
0.0
 40
2.50000000
  1
30
  7
Arial
 41
1.000
 50
90.000207410
 51
0.0
100
AcDbText
  0
LINE
  5
45C
100
AcDbEntity
  8
0
100
AcDbLine
 62
     4
 10
239.07916157
 20
-159.58926556
 30
0.0
 11
241.07916157
 21
-161.58926556
 31
0.0
  0
LINE
  5
45D
100
AcDbEntity
  8
0
100
AcDbLine
 62
     4
 10
240.82916157
 20
-131.33926556
 30
0.0
 11
239.32916157
 21
-129.83926556
 31
0.0
  0
LINE
  5
45E
100
AcDbEntity
  8
0
100
AcDbLine
 62
     4
 10
240.07916157
 20
-160.58926556
 30
0.0
 11
240.07916157
 21
-130.58926556
 31
0.0
  0
LINE
  5
45F
100
AcDbEntity
  8
0
100
AcDbLine
 62
     4
 10
242.07916157
 20
-160.58926556
 30
0.0
 11
238.07916157
 21
-160.58926556
 31
0.0
  0
LINE
  5
460
100
AcDbEntity
  8
0
100
AcDbLine
 62
     4
 10
242.07916157
 20
-130.58926556
 30
0.0
 11
238.07916157
 21
-130.58926556
 31
0.0
  0
TEXT
  5
461
100
AcDbEntity
  8
TXT_DIM49
100
AcDbText
 10
238.57916157
 20
-117.50910101
 30
0.0
 40
2.50000000
  1
30
  7
Arial
 41
1.000
 50
90.000207410
 51
0.0
100
AcDbText
  0
LINE
  5
462
100
AcDbEntity
  8
0
100
AcDbLine
 62
     4
 10
239.07916157
 20
-129.58926556
 30
0.0
 11
241.07916157
 21
-131.58926556
 31
0.0
  0
LINE
  5
463
100
AcDbEntity
  8
0
100
AcDbLine
 62
     4
 10
240.82916157
 20
-101.33926556
 30
0.0
 11
239.32916157
 21
-99.83926556
 31
0.0
  0
LINE
  5
464
100
AcDbEntity
  8
0
100
AcDbLine
 62
     4
 10
240.07916157
 20
-130.58926556
 30
0.0
 11
240.07916157
 21
-100.58926556
 31
0.0
  0
LINE
  5
465
100
AcDbEntity
  8
0
100
AcDbLine
 62
     4
 10
242.07916157
 20
-130.58926556
 30
0.0
 11
238.07916157
 21
-130.58926556
 31
0.0
  0
LINE
  5
466
100
AcDbEntity
  8
0
100
AcDbLine
 62
     4
 10
242.07916157
 20
-100.58926556
 30
0.0
 11
238.07916157
 21
-100.58926556
 31
0.0
  0
TEXT
  5
467
100
AcDbEntity
  8
TXT_DIM49
100
AcDbText
 10
314.17879460
 20
-97.97835705
 30
0.0
 40
2.50000000
  1
4
  7
Arial
 41
1.000
 50
90.000207410
 51
0.0
100
AcDbText
  0
TEXT
  5
468
100
AcDbEntity
  8
TXT_DIM49
100
AcDbText
 10
314.17879460
 20
-94.55852148
 30
0.0
 40
2.50000000
  1
x45°
  7
Arial
 41
1.000
 50
90.000207410
 51
0.0
100
AcDbText
  0
LINE
  5
469
100
AcDbEntity
  8
0
100
AcDbLine
 62
     4
 10
314.67879460
 20
-99.58926556
 30
0.0
 11
316.67879460
 21
-101.58926556
 31
0.0
  0
LINE
  5
46A
100
AcDbEntity
  8
0
100
AcDbLine
 62
     4
 10
316.42879460
 20
-104.83926556
 30
0.0
 11
314.92879460
 21
-103.33926556
 31
0.0
  0
LINE
  5
46B
100
AcDbEntity
  8
0
100
AcDbLine
 62
     4
 10
315.67879460
 20
-86.61239216
 30
0.0
 11
315.67879460
 21
-110.08926556
 31
0.0
  0
LINE
  5
46C
100
AcDbEntity
  8
0
100
AcDbLine
 62
     4
 10
313.67879460
 20
-100.58926556
 30
0.0
 11
317.67879460
 21
-100.58926556
 31
0.0
  0
LINE
  5
46D
100
AcDbEntity
  8
0
100
AcDbLine
 62
     4
 10
313.67879460
 20
-104.08926556
 30
0.0
 11
317.67879460
 21
-104.08926556
 31
0.0
  0
TEXT
  5
46E
100
AcDbEntity
  8
TXT_DIM49
100
AcDbText
 10
314.32287813
 20
-154.33438489
 30
0.0
 40
2.50000000
  1
4
  7
Arial
 41
1.000
 50
90.000207410
 51
0.0
100
AcDbText
  0
TEXT
  5
46F
100
AcDbEntity
  8
TXT_DIM49
100
AcDbText
 10
314.32287813
 20
-150.91454932
 30
0.0
 40
2.50000000
  1
x45°
  7
Arial
 41
1.000
 50
90.000207410
 51
0.0
100
AcDbText
  0
LINE
  5
470
100
AcDbEntity
  8
0
100
AcDbLine
 62
     4
 10
314.82287813
 20
-156.08926556
 30
0.0
 11
316.82287813
 21
-158.08926556
 31
0.0
  0
LINE
  5
471
100
AcDbEntity
  8
0
100
AcDbLine
 62
     4
 10
316.57287813
 20
-161.33926556
 30
0.0
 11
315.07287813
 21
-159.83926556
 31
0.0
  0
LINE
  5
472
100
AcDbEntity
  8
0
100
AcDbLine
 62
     4
 10
315.82287813
 20
-142.96841976
 30
0.0
 11
315.82287813
 21
-166.58926556
 31
0.0
  0
LINE
  5
473
100
AcDbEntity
  8
0
100
AcDbLine
 62
     4
 10
313.82287813
 20
-157.08926556
 30
0.0
 11
317.82287813
 21
-157.08926556
 31
0.0
  0
LINE
  5
474
100
AcDbEntity
  8
0
100
AcDbLine
 62
     4
 10
313.82287813
 20
-160.58926556
 30
0.0
 11
317.82287813
 21
-160.58926556
 31
0.0
  0
TEXT
  5
475
100
AcDbEntity
  8
TXT_DIM49
100
AcDbText
 10
295.59878152
 20
-94.84536867
 30
0.0
 40
2.50000000
  1
19
  7
Arial
 41
1.000
 50
0.0
 51
0.0
100
AcDbText
  0
LINE
  5
476
100
AcDbEntity
  8
0
100
AcDbLine
 62
     4
 10
305.76861697
 20
-97.34536867
 30
0.0
 11
307.76861697
 21
-95.34536867
 31
0.0
  0
LINE
  5
477
100
AcDbEntity
  8
0
100
AcDbLine
 62
     4
 10
289.01861697
 20
-95.59536867
 30
0.0
 11
287.51861697
 21
-97.09536867
 31
0.0
  0
LINE
  5
478
100
AcDbEntity
  8
0
100
AcDbLine
 62
     4
 10
306.76861697
 20
-96.34536867
 30
0.0
 11
288.26861697
 21
-96.34536867
 31
0.0
  0
LINE
  5
479
100
AcDbEntity
  8
0
100
AcDbLine
 62
     4
 10
306.76861697
 20
-98.34536867
 30
0.0
 11
306.76861697
 21
-94.34536867
 31
0.0
  0
LINE
  5
47A
100
AcDbEntity
  8
0
100
AcDbLine
 62
     4
 10
288.26861697
 20
-98.34536867
 30
0.0
 11
288.26861697
 21
-94.34536867
 31
0.0
  0
TEXT
  5
47B
100
AcDbEntity
  8
TXT_DIM49
100
AcDbText
 10
271.34878152
 20
-94.84536867
 30
0.0
 40
2.50000000
  1
30
  7
Arial
 41
1.000
 50
0.0
 51
0.0
100
AcDbText
  0
LINE
  5
47C
100
AcDbEntity
  8
0
100
AcDbLine
 62
     4
 10
287.26861697
 20
-97.34536867
 30
0.0
 11
289.26861697
 21
-95.34536867
 31
0.0
  0
LINE
  5
47D
100
AcDbEntity
  8
0
100
AcDbLine
 62
     4
 10
259.01861697
 20
-95.59536867
 30
0.0
 11
257.51861697
 21
-97.09536867
 31
0.0
  0
LINE
  5
47E
100
AcDbEntity
  8
0
100
AcDbLine
 62
     4
 10
288.26861697
 20
-96.34536867
 30
0.0
 11
258.26861697
 21
-96.34536867
 31
0.0
  0
LINE
  5
47F
100
AcDbEntity
  8
0
100
AcDbLine
 62
     4
 10
288.26861697
 20
-98.34536867
 30
0.0
 11
288.26861697
 21
-94.34536867
 31
0.0
  0
LINE
  5
480
100
AcDbEntity
  8
0
100
AcDbLine
 62
     4
 10
258.26861697
 20
-98.34536867
 30
0.0
 11
258.26861697
 21
-94.34536867
 31
0.0
  0
TEXT
  5
481
100
AcDbEntity
  8
TXT_DIM49
100
AcDbText
 10
250.59878152
 20
-94.84536867
 30
0.0
 40
2.50000000
  1
12
  7
Arial
 41
1.000
 50
0.0
 51
0.0
100
AcDbText
  0
LINE
  5
482
100
AcDbEntity
  8
0
100
AcDbLine
 62
     4
 10
257.26861697
 20
-97.34536867
 30
0.0
 11
259.26861697
 21
-95.34536867
 31
0.0
  0
LINE
  5
483
100
AcDbEntity
  8
0
100
AcDbLine
 62
     4
 10
247.51861697
 20
-95.59536867
 30
0.0
 11
246.01861697
 21
-97.09536867
 31
0.0
  0
LINE
  5
484
100
AcDbEntity
  8
0
100
AcDbLine
 62
     4
 10
258.26861697
 20
-96.34536867
 30
0.0
 11
246.76861697
 21
-96.34536867
 31
0.0
  0
LINE
  5
485
100
AcDbEntity
  8
0
100
AcDbLine
 62
     4
 10
258.26861697
 20
-98.34536867
 30
0.0
 11
258.26861697
 21
-94.34536867
 31
0.0
  0
LINE
  5
486
100
AcDbEntity
  8
0
100
AcDbLine
 62
     4
 10
246.76861697
 20
-98.34536867
 30
0.0
 11
246.76861697
 21
-94.34536867
 31
0.0
  0
TEXT
  5
487
100
AcDbEntity
  8
TXT_DIM49
100
AcDbText
 10
293.12165668
 20
-134.35163758
 30
0.0
 40
2.50000000
  1
Ø
  7
Arial
 41
1.000
 50
90.000207410
 51
0.0
100
AcDbText
  0
TEXT
  5
488
100
AcDbEntity
  8
TXT_DIM49
100
AcDbText
 10
293.12165668
 20
-130.66656468
 30
0.0
 40
2.50000000
  1
11
  7
Arial
 41
1.000
 50
90.000207410
 51
0.0
100
AcDbText
  0
LINE
  5
489
100
AcDbEntity
  8
0
100
AcDbLine
 62
     4
 10
295.62165668
 20
-126.08926556
 30
0.0
 11
293.62165668
 21
-124.08926556
 31
0.0
  0
LINE
  5
48A
100
AcDbEntity
  8
0
100
AcDbLine
 62
     4
 10
293.87165668
 20
-135.33926556
 30
0.0
 11
295.37165668
 21
-136.83926556
 31
0.0
  0
LINE
  5
48B
100
AcDbEntity
  8
0
100
AcDbLine
 62
     4
 10
294.62165668
 20
-125.08926556
 30
0.0
 11
294.62165668
 21
-136.08926556
 31
0.0
  0
LINE
  5
48C
100
AcDbEntity
  8
0
100
AcDbLine
 62
     4
 10
292.62165668
 20
-125.08926556
 30
0.0
 11
296.62165668
 21
-125.08926556
 31
0.0
  0
LINE
  5
48D
100
AcDbEntity
  8
0
100
AcDbLine
 62
     4
 10
292.62165668
 20
-136.08926556
 30
0.0
 11
296.62165668
 21
-136.08926556
 31
0.0
  0
TEXT
  5
48E
100
AcDbEntity
  8
TXT_DIM49
100
AcDbText
 10
229.10632774
 20
-132.50910101
 30
0.0
 40
2.50000000
  1
60
  7
Arial
 41
1.000
 50
90.000207410
 51
0.0
100
AcDbText
  0
LINE
  5
48F
100
AcDbEntity
  8
0
100
AcDbLine
 62
     4
 10
231.60632774
 20
-101.58926556
 30
0.0
 11
229.60632774
 21
-99.58926556
 31
0.0
  0
LINE
  5
490
100
AcDbEntity
  8
0
100
AcDbLine
 62
     4
 10
229.85632774
 20
-159.83926556
 30
0.0
 11
231.35632774
 21
-161.33926556
 31
0.0
  0
LINE
  5
491
100
AcDbEntity
  8
0
100
AcDbLine
 62
     4
 10
230.60632774
 20
-100.58926556
 30
0.0
 11
230.60632774
 21
-160.58926556
 31
0.0
  0
LINE
  5
492
100
AcDbEntity
  8
0
100
AcDbLine
 62
     4
 10
232.60632774
 20
-100.58926556
 30
0.0
 11
228.60632774
 21
-100.58926556
 31
0.0
  0
LINE
  5
493
100
AcDbEntity
  8
0
100
AcDbLine
 62
     4
 10
232.60632774
 20
-160.58926556
 30
0.0
 11
228.60632774
 21
-160.58926556
 31
0.0
  0
TEXT
  5
494
100
AcDbEntity
  8
TXT_DIM49
100
AcDbText
 10
279.96616274
 20
-109.33219644
 30
0.0
 40
2.50000000
  1
Ø
  7
Arial
 41
1.000
 50
0.0
 51
0.0
100
AcDbText
  0
TEXT
  5
495
100
AcDbEntity
  8
TXT_DIM49
100
AcDbText
 10
283.65123563
 20
-109.33219644
 30
0.0
 40
2.50000000
  1
6
  7
Arial
 41
1.000
 50
0.0
 51
0.0
100
AcDbText
  0
LINE
  5
496
100
AcDbEntity
  8
0
100
AcDbLine
 62
     4
 10
280.76861697
 20
-109.83219644
 30
0.0
 11
278.76861697
 21
-111.83219644
 31
0.0
  0
LINE
  5
497
100
AcDbEntity
  8
0
100
AcDbLine
 62
     4
 10
285.01861697
 20
-111.58219644
 30
0.0
 11
286.51861697
 21
-110.08219644
 31
0.0
  0
LINE
  5
498
100
AcDbEntity
  8
0
100
AcDbLine
 62
     4
 10
279.76861697
 20
-110.83219644
 30
0.0
 11
285.76861697
 21
-110.83219644
 31
0.0
  0
LINE
  5
499
100
AcDbEntity
  8
0
100
AcDbLine
 62
     4
 10
279.76861697
 20
-112.83219644
 30
0.0
 11
279.76861697
 21
-108.83219644
 31
0.0
  0
LINE
  5
49A
100
AcDbEntity
  8
0
100
AcDbLine
 62
     4
 10
285.76861697
 20
-112.83219644
 30
0.0
 11
285.76861697
 21
-108.83219644
 31
0.0
  0
TEXT
  5
49B
100
AcDbEntity
  8
TXT_DIM49
100
AcDbText
 10
292.33453828
 20
-116.96484000
 30
0.0
 40
2.50000000
  1
Ø
  7
Arial
 41
1.000
 50
0.0
 51
0.0
100
AcDbText
  0
TEXT
  5
49C
100
AcDbEntity
  8
TXT_DIM49
100
AcDbText
 10
296.01961117
 20
-116.96484000
 30
0.0
 40
2.50000000
  1
4
  7
Arial
 41
1.000
 50
0.0
 51
0.0
100
AcDbText
  0
LINE
  5
49D
100
AcDbEntity
  8
0
100
AcDbLine
 62
     4
 10
303.76861697
 20
-117.46484000
 30
0.0
 11
301.76861697
 21
-119.46484000
 31
0.0
  0
LINE
  5
49E
100
AcDbEntity
  8
0
100
AcDbLine
 62
     4
 10
298.01861697
 20
-119.21484000
 30
0.0
 11
299.51861697
 21
-117.71484000
 31
0.0
  0
LINE
  5
49F
100
AcDbEntity
  8
0
100
AcDbLine
 62
     4
 10
308.76861697
 20
-118.46484000
 30
0.0
 11
291.33453875
 21
-118.46484000
 31
0.0
  0
LINE
  5
4A0
100
AcDbEntity
  8
0
100
AcDbLine
 62
     4
 10
302.76861697
 20
-116.46484000
 30
0.0
 11
302.76861697
 21
-120.46484000
 31
0.0
  0
LINE
  5
4A1
100
AcDbEntity
  8
0
100
AcDbLine
 62
     4
 10
298.76861697
 20
-116.46484000
 30
0.0
 11
298.76861697
 21
-120.46484000
 31
0.0
  0
TEXT
  5
4A2
100
AcDbEntity
  8
TXT_DIM49
100
AcDbText
 10
254.35525816
 20
-115.02395280
 30
0.0
 40
2.50000000
  1
Ø
  7
Arial
 41
1.000
 50
0.0
 51
0.0
100
AcDbText
  0
TEXT
  5
4A3
100
AcDbEntity
  8
TXT_DIM49
100
AcDbText
 10
258.04033106
 20
-115.02395280
 30
0.0
 40
2.50000000
  1
4
  7
Arial
 41
1.000
 50
0.0
 51
0.0
100
AcDbText
  0
LINE
  5
4A4
100
AcDbEntity
  8
0
100
AcDbLine
 62
     4
 10
265.76861697
 20
-115.52395280
 30
0.0
 11
263.76861697
 21
-117.52395280
 31
0.0
  0
LINE
  5
4A5
100
AcDbEntity
  8
0
100
AcDbLine
 62
     4
 10
260.01861697
 20
-117.27395280
 30
0.0
 11
261.51861697
 21
-115.77395280
 31
0.0
  0
LINE
  5
4A6
100
AcDbEntity
  8
0
100
AcDbLine
 62
     4
 10
270.76861697
 20
-116.52395280
 30
0.0
 11
253.35525828
 21
-116.52395280
 31
0.0
  0
LINE
  5
4A7
100
AcDbEntity
  8
0
100
AcDbLine
 62
     4
 10
264.76861697
 20
-114.52395280
 30
0.0
 11
264.76861697
 21
-118.52395280
 31
0.0
  0
LINE
  5
4A8
100
AcDbEntity
  8
0
100
AcDbLine
 62
     4
 10
260.76861697
 20
-114.52395280
 30
0.0
 11
260.76861697
 21
-118.52395280
 31
0.0
  0
ENDSEC
  0
SECTION
  2
OBJECTS
  0
DICTIONARY
  5
C
330
0
100
AcDbDictionary
281
     1
  3
ACAD_GROUP
350
D
  3
ACAD_LAYOUT
350
19
  3
ACAD_MLINESTYLE
350
16
  0
DICTIONARY
  5
115
330
1E
100
AcDbDictionary
280
     1
281
     1
  3
ACAD_INDEX
360
116
  0
DICTIONARY
  5
D
100
AcDbDictionary
281
     1
  0
DICTIONARY
  5
19
100
AcDbDictionary
281
     1
  3
Layout1
350
1D
  3
Model
350
21
  0
DICTIONARY
  5
16
100
AcDbDictionary
281
     1
  3
Standard
350
17
  0
DICTIONARY
  5
116
100
AcDbDictionary
281
     1
  3
*A1
350
117
  0
LAYOUT
  5
1D
100
AcDbPlotSettings
  1

  2
C:\Programme\MDT\plotters\DWF Classic.pc3
  4

  6

 40
0.0
 41
0.0
 42
0.0
 43
0.0
 44
0.0
 45
0.0
 46
0.0
 47
0.0
 48
0.0
 49
0.0
140
0.0
141
0.0
142
1.0
143
1.0
 70
   688
 72
     0
 73
     0
 74
     5
  7

 75
    16
147
1.0
148
0.0
149
0.0
100
AcDbLayout
  1
Layout1
 70
     1
 71
     1
 10
0.0
 20
0.0
 11
12.0
 21
9.0
 12
0.0
 22
0.0
 32
0.0
 14
1.000000000000000E+20
 24
1.000000000000000E+20
 34
1.000000000000000E+20
 15
-1.000000000000000E+20
 25
-1.000000000000000E+20
 35
-1.000000000000000E+20
146
0.0
 13
0.0
 23
0.0
 33
0.0
 16
1.0
 26
0.0
 36
0.0
 17
0.0
 27
1.0
 37
0.0
 76
     0
330
1A
  0
LAYOUT
  5
21
100
AcDbPlotSettings
  1

  2
C:\Programme\MDT\plotters\DWF Classic.pc3
  4

  6

 40
0.0
 41
0.0
 42
0.0
 43
0.0
 44
0.0
 45
0.0
 46
0.0
 47
0.0
 48
0.0
 49
0.0
140
0.0
141
0.0
142
1.0
143
1.0
 70
  1712
 72
     0
 73
     0
 74
     0
  7

 75
     0
147
1.0
148
0.0
149
0.0
100
AcDbLayout
  1
Model
 70
     1
 71
     0
 10
0.0
 20
0.0
 11
12.0
 21
9.0
 12
0.0
 22
0.0
 32
0.0
 14
0.0
 24
0.0
 34
0.0
 15
0.0
 25
0.0
 35
0.0
146
0.0
 13
0.0
 23
0.0
 33
0.0
 16
1.0
 26
0.0
 36
0.0
 17
0.0
 27
1.0
 37
0.0
 76
     0
330
1E
  0
MLINESTYLE
  5
17
100
AcDbMlineStyle
  2
STANDARD
 70
     0
  3

 62
   256
 51
90.0
 52
90.0
 71
     2
 49
0.5
 62
   256
  6
BYLAYER
 49
-0.5
 62
   256
  6
BYLAYER
  0
ACDBPLACEHOLDER
  5
F
  0
XRECORD
  5
129
100
AcDbXrecord
280
     1
 90
        0
  0
XRECORD
  5
12A
100
AcDbXrecord
280
     1
  1
{46C4153B-0B27-49FA-99B6-AF3E057D65BC}
  0
XRECORD
  5
122
100
AcDbXrecord
280
     1
  1

  0
XRECORD
  5
128
100
AcDbXrecord
280
     1
 90
        0
  0
XRECORD
  5
124
100
AcDbXrecord
280
     1
340
19
  0
XRECORD
  5
127
100
AcDbXrecord
280
     1
 90
    10781
  0
XRECORD
  5
125
100
AcDbXrecord
280
     1
340
18
  0
XRECORD
  5
126
100
AcDbXrecord
280
     1
340
E
  0
XRECORD
  5
12C
100
AcDbXrecord
280
     1
 40
0.0
  0
XRECORD
  5
12F
100
AcDbXrecord
280
     1
340
0
  0
XRECORD
  5
135
100
AcDbXrecord
280
     1
 10
0.0
 20
0.0
 30
0.0
  0
XRECORD
  5
131
100
AcDbXrecord
280
     1
 10
0.0
 20
0.0
 30
0.0
  0
XRECORD
  5
134
100
AcDbXrecord
280
     1
 10
0.0
 20
0.0
 30
0.0
  0
XRECORD
  5
132
100
AcDbXrecord
280
     1
 10
0.0
 20
0.0
 30
0.0
  0
XRECORD
  5
133
100
AcDbXrecord
280
     1
 10
0.0
 20
0.0
 30
0.0
  0
XRECORD
  5
130
100
AcDbXrecord
280
     1
 10
0.0
 20
0.0
 30
0.0
  0
XRECORD
  5
12D
100
AcDbXrecord
280
     1
340
0
  0
XRECORD
  5
12E
100
AcDbXrecord
280
     1
 70
     0
  0
XRECORD
  5
123
100
AcDbXrecord
280
     1
  1

  0
XRECORD
  5
120
100
AcDbXrecord
280
     1
 90
        1
  0
XRECORD
  5
121
100
AcDbXrecord
280
     1
 90
       70
  0
XRECORD
  5
138
100
AcDbXrecord
280
     1
340
0
  0
XRECORD
  5
13E
100
AcDbXrecord
280
     1
 10
0.0
 20
0.0
 30
0.0
  0
XRECORD
  5
13A
100
AcDbXrecord
280
     1
 10
0.0
 20
0.0
 30
0.0
  0
XRECORD
  5
13D
100
AcDbXrecord
280
     1
 10
0.0
 20
0.0
 30
0.0
  0
XRECORD
  5
13B
100
AcDbXrecord
280
     1
 10
0.0
 20
0.0
 30
0.0
  0
XRECORD
  5
13C
100
AcDbXrecord
280
     1
 10
0.0
 20
0.0
 30
0.0
  0
XRECORD
  5
139
100
AcDbXrecord
280
     1
 10
0.0
 20
0.0
 30
0.0
  0
XRECORD
  5
136
100
AcDbXrecord
280
     1
340
0
  0
XRECORD
  5
137
100
AcDbXrecord
280
     1
 70
     0
  0
XRECORD
  5
12B
100
AcDbXrecord
280
     1
  1
{09700D79-BD6A-4B2C-8A65-8ED4ED61BA28}
  0
DICTIONARYVAR
  5
11D
100
DictionaryVariables
280
     0
  1
1
  0
ENDSEC
  0
EOF
