  0
SECTION
  2
HEADER
  9
$ACADVER
  1
AC1006
  9
$DWGCODEPAGE
  3
ansi_1252
  9
$INSBASE
 10
0.0
 20
0.0
 30
0.0
  9
$EXTMIN
 10
166.98634987
 20
-345.21385287
  9
$EXTMAX
 10
595.38634987
 20
-31.52464662
  9
$LIMMIN
 10
166.98634987
 20
-345.21385287
  9
$LIMMAX
 10
595.38634987
 20
-31.52464662
  9
$ORTHOMODE
 70
     0
  9
$REGENMODE
 70
     1
  9
$FILLMODE
 70
     1
  9
$QTEXTMODE
 70
     0
  9
$MIRRTEXT
 70
     1
  9
$DRAGMODE
 70
     2
  9
$LTSCALE
 40
1.0
  9
$OSMODE
 70
    37
  9
$ATTMODE
 70
     1
  9
$TEXTSIZE
 40
1.0
  9
$TRACEWID
 40
0.05
  9
$TEXTSTYLE
  7
STANDARD
  9
$CLAYER
  8
0
  9
$CELTYPE
  6
BYBLOCK
  9
$CECOLOR
 62
   256
  9
$DIMSCALE
 40
1.0
  9
$DIMASZ
 40
0.18
  9
$DIMEXO
 40
0.0625
  9
$DIMDLI
 40
0.38
  9
$DIMRND
 40
0.0
  9
$DIMDLE
 40
0.0
  9
$DIMEXE
 40
0.18
  9
$DIMTP
 40
0.0
  9
$DIMTM
 40
0.0
  9
$DIMTXT
 40
0.18
  9
$DIMCEN
 40
0.09
  9
$DIMTSZ
 40
0.0
  9
$DIMTOL
 70
     0
  9
$DIMLIM
 70
     0
  9
$DIMTIH
 70
     1
  9
$DIMTOH
 70
     1
  9
$DIMSE1
 70
     0
  9
$DIMSE2
 70
     0
  9
$DIMTAD
 70
     0
  9
$DIMZIN
 70
     0
  9
$DIMBLK
  1

  9
$DIMASO
 70
     1
  9
$DIMSHO
 70
     1
  9
$DIMPOST
  1

  9
$DIMAPOST
  1

  9
$DIMALT
 70
     0
  9
$DIMALTD
 70
     2
  9
$DIMALTF
 40
25.4
  9
$DIMLFAC
 40
1.0
  9
$DIMTOFL
 70
     0
  9
$DIMTVP
 40
0.0
  9
$DIMTIX
 70
     0
  9
$DIMSOXD
 70
     0
  9
$DIMSAH
 70
     0
  9
$DIMBLK1
  1

  9
$DIMBLK2
  1

  9
$LUNITS
 70
     2
  9
$LUPREC
 70
     4
  9
$SKETCHINC
 40
0.1
  9
$FILLETRAD
 40
0.5
  9
$AUNITS
 70
     0
  9
$AUPREC
 70
     0
  9
$MENU
  1
.
  9
$ELEVATION
 40
0.0
  9
$THICKNESS
 40
0.0
  9
$LIMCHECK
 70
     0
  9
$CHAMFERA
 40
0.0
  9
$CHAMFERB
 40
0.0
  9
$SKPOLY
 70
     0
  9
$TDCREATE
 40
2447893.125
  9
$TDUPDATE
 40
2460791.471017373
  9
$TDINDWG
 40
0.0
  9
$TDUSRTIMER
 40
0.0
  9
$USRTIMER
 70
     1
  9
$ANGBASE
 50
0.0
  9
$ANGDIR
 70
     0
  9
$PDMODE
 70
     0
  9
$PDSIZE
 40
0.0
  9
$PLINEWID
 40
0.0
  9
$COORDS
 70
     1
  9
$SPLFRAME
 70
     0
  9
$SPLINETYPE
 70
     6
  9
$SPLINESEGS
 70
     8
  9
$ATTDIA
 70
     0
  9
$ATTREQ
 70
     1
  9
$HANDLING
 70
     1
  9
$HANDSEED
  5
9E8
  9
$SURFTAB1
 70
     6
  9
$SURFTAB2
 70
     6
  9
$SURFTYPE
 70
     6
  9
$SURFU
 70
     6
  9
$SURFV
 70
     6
  9
$UCSNAME
  2

  9
$UCSORG
 10
0.0
 20
0.0
 30
0.0
  9
$UCSXDIR
 10
1.0
 20
0.0
 30
0.0
  9
$UCSYDIR
 10
0.0
 20
1.0
 30
0.0
  9
$USERI1
 70
     0
  9
$USERI2
 70
     0
  9
$USERI3
 70
     0
  9
$USERI4
 70
     0
  9
$USERI5
 70
     0
  9
$USERR1
 40
0.0
  9
$USERR2
 40
0.0
  9
$USERR3
 40
0.0
  9
$USERR4
 40
0.0
  9
$USERR5
 40
0.0
  9
$WORLDVIEW
 70
     1
  0
ENDSEC
  0
SECTION
  2
TABLES
  0
TABLE
  2
VPORT
 70
     1
  0
VPORT
  2
*ACTIVE
 70
     0
 10
0.0
 20
0.0
 11
1.0
 21
1.0
 12
381.18634987
 22
-188.36924975
 13
0.0
 23
0.0
 14
1.0
 24
1.0
 15
0.0
 25
0.0
 16
0.0
 26
0.0
 36
1.0
 17
0.0
 27
0.0
 37
0.0
 40
313.68920625
 41
1.365682948
 42
50.0
 43
0.0
 44
0.0
 50
0.0
 51
0.0
 71
     0
 72
   100
 73
     1
 74
     1
 75
     0
 76
     0
 77
     0
 78
     0
  0
ENDTAB
  0
TABLE
  2
LTYPE
 70
    19
  0
LTYPE
  2
CONTINUOUS
 70
     0
  3
Solid line
 72
    65
 73
     0
 40
0.0
  0
LTYPE
  2
DOT
 70
     0
  3
..............
 72
    65
 73
     2
 40
2.0
 49
0.5
 49
-1.5
  0
LTYPE
  2
HIDDEN
 70
     0
  3
-- -- -- -- --
 72
    65
 73
     2
 40
7.0
 49
4.0
 49
-3.0
  0
LTYPE
  2
DASHDOT
 70
     0
  3
--.--.--.--.--
 72
    65
 73
     4
 40
8.5
 49
4.0
 49
-2.0
 49
0.5
 49
-2.0
  0
LTYPE
  2
STRICHPUNKT2
 70
     0
  3
--.--.--.--.--
 72
    65
 73
     4
 40
18.5
 49
10.0
 49
-4.0
 49
0.5
 49
-4.0
  0
LTYPE
  2
STRICHPUNKT3
 70
     0
  3
--.--.--.--.--
 72
    65
 73
     4
 40
35.5
 49
25.0
 49
-5.0
 49
0.5
 49
-5.0
  0
LTYPE
  2
PHANTOM
 70
     0
  3
--..--..--..--
 72
    65
 73
     6
 40
23.0
 49
10.0
 49
-4.0
 49
0.5
 49
-4.0
 49
0.5
 49
-4.0
  0
LTYPE
  2
PHANTOM2
 70
     0
  3
--..--..--..--
 72
    65
 73
     6
 40
33.0
 49
20.0
 49
-4.0
 49
0.5
 49
-4.0
 49
0.5
 49
-4.0
  0
LTYPE
  2
PHANTOM3
 70
     0
  3
--..--..--..--
 72
    65
 73
     6
 40
50.0
 49
37.0
 49
-4.0
 49
0.5
 49
-4.0
 49
0.5
 49
-4.0
  0
LTYPE
  2
STR3PKT
 70
     0
  3
--...--...--...
 72
    65
 73
     8
 40
31.5
 49
20.0
 49
-2.5
 49
0.5
 49
-2.5
 49
0.5
 49
-2.5
 49
0.5
 49
-2.5
  0
LTYPE
  2
2STRPKT
 70
     0
  3
--.--.--.--.--
 72
    65
 73
     6
 40
28.0
 49
10.0
 49
-2.5
 49
10.0
 49
-2.5
 49
0.5
 49
-2.5
  0
LTYPE
  2
GESTRICHELT2
 70
     0
  3
-- -- -- -- --
 72
    65
 73
     2
 40
25.0
 49
10.0
 49
-15.0
  0
LTYPE
  2
2STR2PKT
 70
     0
  3
--..--..--..--
 72
    65
 73
     8
 40
31.0
 49
10.0
 49
-2.5
 49
10.0
 49
-2.5
 49
0.5
 49
-2.5
 49
0.5
 49
-2.5
  0
LTYPE
  2
STR3PKT2
 70
     0
  3
--...--...--...
 72
    65
 73
     8
 40
21.0
 49
10.0
 49
-2.5
 49
0.5
 49
-2.5
 49
0.5
 49
-2.5
 49
0.5
 49
-2.0
  0
LTYPE
  2
2STR3PKT
 70
     0
  3
--...--...--...
 72
    65
 73
    10
 40
34.0
 49
10.0
 49
-2.5
 49
10.0
 49
-2.5
 49
0.5
 49
-2.5
 49
0.5
 49
-2.5
 49
0.5
 49
-2.5
  0
LTYPE
  2
STRKSTR
 70
     0
  3
-- - -- - -- -
 72
    65
 73
     4
 40
30.0
 49
20.0
 49
-2.5
 49
5.0
 49
-2.5
  0
LTYPE
  2
STRKSTR2
 70
     0
  3
-- - -- - -- -
 72
    65
 73
     6
 40
37.5
 49
20.0
 49
-2.5
 49
5.0
 49
-2.5
 49
5.0
 49
-2.5
  0
LTYPE
  2
STRKSTR3
 70
     0
  3
-- - -- - -- -
 72
    65
 73
     8
 40
45.0
 49
20.0
 49
-2.5
 49
5.0
 49
-2.5
 49
5.0
 49
-2.5
 49
5.0
 49
-2.5
  0
LTYPE
  2
PUNKT2
 70
     0
  3
..............
 72
    65
 73
     2
 40
3.5
 49
0.5
 49
-3.0
  0
ENDTAB
  0
TABLE
  2
LAYER
 70
    16
  0
LAYER
  2
0
 70
     0
 62
     7
  6
CONTINUOUS
  0
LAYER
  2
LE_GREEN
 70
     0
 62
     3
  6
CONTINUOUS
  0
LAYER
  2
LE_RED
 70
     0
 62
     1
  6
CONTINUOUS
  0
LAYER
  2
LE_ALL
 70
     0
 62
     7
  6
CONTINUOUS
  0
LAYER
  2
LE_HIDDEN1
 70
     0
 62
     3
  6
HIDDEN
  0
LAYER
  2
LE_HIDDEN
 70
     0
 62
     7
  6
CONTINUOUS
  0
LAYER
  2
LE_MIDDLE
 70
     0
 62
     7
  6
CONTINUOUS
  0
LAYER
  2
TXT_YELLOW
 70
     0
 62
     2
  6
CONTINUOUS
  0
LAYER
  2
TXT_DIM49
 70
     0
 62
     2
  6
CONTINUOUS
  0
LAYER
  2
TXT_ALL
 70
     0
 62
     7
  6
CONTINUOUS
  0
LAYER
  2
DIM49
 70
     0
 62
     4
  6
CONTINUOUS
  0
LAYER
  2
HATCH
 70
     0
 62
     3
  6
CONTINUOUS
  0
LAYER
  2
APPLE
 70
     0
 62
     7
  6
CONTINUOUS
  0
LAYER
  2
10
 70
     0
 62
     7
  6
CONTINUOUS
  0
LAYER
  2
20
 70
     0
 62
     7
  6
CONTINUOUS
  0
LAYER
  2
49
 70
     0
 62
     7
  6
CONTINUOUS
  0
ENDTAB
  0
TABLE
  2
STYLE
 70
     5
  0
STYLE
  2
MONOTXT
 70
     0
 40
0.0
 41
1.0
 50
0.0
 71
     0
 42
1.0
  3
monotxt.shx
  4

  0
STYLE
  2
STANDARD
 70
     0
 40
0.0
 41
1.0
 50
0.0
 71
     0
 42
1.0
  3
txt
  4

  0
STYLE
  2
ARIAL
 70
     0
 40
0.0
 41
1.0
 50
0.0
 71
     0
 42
1.0
  3
arial.ttf
  4

  0
STYLE
  2
ARIAL_NARROW
 70
     0
 40
0.0
 41
1.0
 50
0.0
 71
     0
 42
1.0
  3
ArialN.ttf
  4

  0
STYLE
  2
ISOCPEUR
 70
     0
 40
0.0
 41
1.0
 50
0.0
 71
     0
 42
1.0
  3
ISOCPEUR.ttf
  4

  0
ENDTAB
  0
TABLE
  2
VIEW
 70
     0
  0
ENDTAB
  0
TABLE
  2
UCS
 70
     0
  0
ENDTAB
  0
ENDSEC
  0
SECTION
  2
BLOCKS
  0
BLOCK
  8
0
  2
_D1
 70
     0
 10
290.36842526
 20
-235.20778578
 30
0.0
  0
TEXT
  5
4C3
  8
TXT_DIM49
 10
290.36842526
 20
-235.20778578
 30
0.0
 40
2.5
  1
2,5
 50
90.00020741
  7
ARIAL
  0
LINE
  5
4C4
  8
DIM49
 10
292.86842526
 20
-240.58188647
 30
0.0
 11
290.86842526
 21
-238.58188647
 31
0.0
  0
LINE
  5
4C5
  8
DIM49
 10
291.11842526
 20
-236.33188647
 30
0.0
 11
292.61842526
 21
-237.83188647
 31
0.0
  0
LINE
  5
4C6
  8
DIM49
 10
291.86842526
 20
-245.58188647
 30
0.0
 11
291.86842526
 21
-229.40903967
 31
0.0
  0
LINE
  5
4C7
  8
DIM49
 10
289.86842526
 20
-239.58188647
 30
0.0
 11
293.86842526
 21
-239.58188647
 31
0.0
  0
LINE
  5
4C8
  8
DIM49
 10
289.86842526
 20
-237.08188647
 30
0.0
 11
293.86842526
 21
-237.08188647
 31
0.0
  0
ENDBLK
  8
0
  0
BLOCK
  8
0
  2
_D2
 70
     0
 10
251.37230731
 20
-248.08188647
 30
0.0
  0
TEXT
  5
4CB
  8
TXT_DIM49
 10
251.37230731
 20
-248.08188647
 30
0.0
 40
2.5
  1
60
  7
ARIAL
  0
LINE
  5
4CC
  8
DIM49
 10
224.29214276
 20
-248.58188647
 30
0.0
 11
222.29214276
 21
-250.58188647
 31
0.0
  0
LINE
  5
4CD
  8
DIM49
 10
282.54214276
 20
-250.33188647
 30
0.0
 11
284.04214276
 21
-248.83188647
 31
0.0
  0
LINE
  5
4CE
  8
DIM49
 10
223.29214276
 20
-249.58188647
 30
0.0
 11
283.29214276
 21
-249.58188647
 31
0.0
  0
LINE
  5
4CF
  8
DIM49
 10
223.29214276
 20
-247.58188647
 30
0.0
 11
223.29214276
 21
-251.58188647
 31
0.0
  0
LINE
  5
4D0
  8
DIM49
 10
283.29214276
 20
-247.58188647
 30
0.0
 11
283.29214276
 21
-251.58188647
 31
0.0
  0
ENDBLK
  8
0
  0
BLOCK
  8
0
  2
_D3
 70
     0
 10
210.83222503
 20
-221.50172191
 30
0.0
  0
TEXT
  5
4D3
  8
TXT_DIM49
 10
210.83222503
 20
-221.50172191
 30
0.0
 40
2.5
  1
40
 50
90.00020741
  7
ARIAL
  0
LINE
  5
4D4
  8
DIM49
 10
211.33222503
 20
-238.58188647
 30
0.0
 11
213.33222503
 21
-240.58188647
 31
0.0
  0
LINE
  5
4D5
  8
DIM49
 10
213.08222503
 20
-200.33188647
 30
0.0
 11
211.58222503
 21
-198.83188647
 31
0.0
  0
LINE
  5
4D6
  8
DIM49
 10
212.33222503
 20
-239.58188647
 30
0.0
 11
212.33222503
 21
-199.58188647
 31
0.0
  0
LINE
  5
4D7
  8
DIM49
 10
214.33222503
 20
-239.58188647
 30
0.0
 11
210.33222503
 21
-239.58188647
 31
0.0
  0
LINE
  5
4D8
  8
DIM49
 10
214.33222503
 20
-199.58188647
 30
0.0
 11
210.33222503
 21
-199.58188647
 31
0.0
  0
ENDBLK
  8
0
  0
BLOCK
  8
0
  2
_D4
 70
     0
 10
227.06051279
 20
-189.5864249
 30
0.0
  0
TEXT
  5
4DB
  8
TXT_DIM49
 10
227.06051279
 20
-189.5864249
 30
0.0
 40
2.5
  1
2,5
  7
ARIAL
  0
LINE
  5
4DC
  8
DIM49
 10
226.79214276
 20
-190.0864249
 30
0.0
 11
224.79214276
 21
-192.0864249
 31
0.0
  0
LINE
  5
4DD
  8
DIM49
 10
222.54214276
 20
-191.8364249
 30
0.0
 11
224.04214276
 21
-190.3364249
 31
0.0
  0
LINE
  5
4DE
  8
DIM49
 10
232.85925902
 20
-191.0864249
 30
0.0
 11
217.29214276
 21
-191.0864249
 31
0.0
  0
LINE
  5
4DF
  8
DIM49
 10
225.79214276
 20
-193.0864249
 30
0.0
 11
225.79214276
 21
-189.0864249
 31
0.0
  0
LINE
  5
4E0
  8
DIM49
 10
223.29214276
 20
-193.0864249
 30
0.0
 11
223.29214276
 21
-189.0864249
 31
0.0
  0
ENDBLK
  8
0
  0
BLOCK
  8
0
  2
_D5
 70
     0
 10
343.71778186
 20
-193.52641926
 30
0.0
  0
TEXT
  5
4FC
  8
TXT_DIM49
 10
343.71778186
 20
-193.52641926
 30
0.0
 40
2.5
  1
4
  7
ARIAL
  0
TEXT
  5
4FD
  8
TXT_DIM49
 10
347.13761743
 20
-193.52641926
 30
0.0
 40
2.5
  1
x45°
  7
ARIAL
  0
LINE
  5
4FE
  8
DIM49
 10
342.91481932
 20
-194.02641926
 30
0.0
 11
340.91481932
 21
-196.02641926
 31
0.0
  0
LINE
  5
4FF
  8
DIM49
 10
337.66481932
 20
-195.77641926
 30
0.0
 11
339.16481932
 21
-194.27641926
 31
0.0
  0
LINE
  5
500
  8
DIM49
 10
355.08374651
 20
-195.02641926
 30
0.0
 11
332.41481932
 21
-195.02641926
 31
0.0
  0
LINE
  5
501
  8
DIM49
 10
341.91481932
 20
-197.02641926
 30
0.0
 11
341.91481932
 21
-193.02641926
 31
0.0
  0
LINE
  5
502
  8
DIM49
 10
338.41481932
 20
-197.02641926
 30
0.0
 11
338.41481932
 21
-193.02641926
 31
0.0
  0
ENDBLK
  8
0
  0
BLOCK
  8
0
  2
_D6
 70
     0
 10
400.73851498
 20
-193.52641926
 30
0.0
  0
TEXT
  5
505
  8
TXT_DIM49
 10
400.73851498
 20
-193.52641926
 30
0.0
 40
2.5
  1
4
  7
ARIAL
  0
TEXT
  5
506
  8
TXT_DIM49
 10
404.15835054
 20
-193.52641926
 30
0.0
 40
2.5
  1
x45°
  7
ARIAL
  0
LINE
  5
507
  8
DIM49
 10
399.41481932
 20
-194.02641926
 30
0.0
 11
397.41481932
 21
-196.02641926
 31
0.0
  0
LINE
  5
508
  8
DIM49
 10
394.16481932
 20
-195.77641926
 30
0.0
 11
395.66481932
 21
-194.27641926
 31
0.0
  0
LINE
  5
509
  8
DIM49
 10
412.10448034
 20
-195.02641926
 30
0.0
 11
388.91481932
 21
-195.02641926
 31
0.0
  0
LINE
  5
50A
  8
DIM49
 10
398.41481932
 20
-197.02641926
 30
0.0
 11
398.41481932
 21
-193.02641926
 31
0.0
  0
LINE
  5
50B
  8
DIM49
 10
394.91481932
 20
-197.02641926
 30
0.0
 11
394.91481932
 21
-193.02641926
 31
0.0
  0
ENDBLK
  8
0
  0
BLOCK
  8
0
  2
_D7
 70
     0
 10
341.45490159
 20
-183.61989085
 30
0.0
  0
TEXT
  5
50E
  8
TXT_DIM49
 10
341.45490159
 20
-183.61989085
 30
0.0
 40
2.5
  1
8
  7
ARIAL
  0
LINE
  5
50F
  8
DIM49
 10
339.41481932
 20
-184.11989085
 30
0.0
 11
337.41481932
 21
-186.11989085
 31
0.0
  0
LINE
  5
510
  8
DIM49
 10
345.66481932
 20
-185.86989085
 30
0.0
 11
347.16481932
 21
-184.36989085
 31
0.0
  0
LINE
  5
511
  8
DIM49
 10
338.41481932
 20
-185.11989085
 30
0.0
 11
346.41481932
 21
-185.11989085
 31
0.0
  0
LINE
  5
512
  8
DIM49
 10
338.41481932
 20
-187.11989085
 30
0.0
 11
338.41481932
 21
-183.11989085
 31
0.0
  0
LINE
  5
513
  8
DIM49
 10
346.41481932
 20
-187.11989085
 30
0.0
 11
346.41481932
 21
-183.11989085
 31
0.0
  0
ENDBLK
  8
0
  0
BLOCK
  8
0
  2
_D8
 70
     0
 10
348.95490159
 20
-183.61989085
 30
0.0
  0
TEXT
  5
516
  8
TXT_DIM49
 10
348.95490159
 20
-183.61989085
 30
0.0
 40
2.5
  1
7
  7
ARIAL
  0
LINE
  5
517
  8
DIM49
 10
347.41481932
 20
-184.11989085
 30
0.0
 11
345.41481932
 21
-186.11989085
 31
0.0
  0
LINE
  5
518
  8
DIM49
 10
352.66481932
 20
-185.86989085
 30
0.0
 11
354.16481932
 21
-184.36989085
 31
0.0
  0
LINE
  5
519
  8
DIM49
 10
346.41481932
 20
-185.11989085
 30
0.0
 11
353.41481932
 21
-185.11989085
 31
0.0
  0
LINE
  5
51A
  8
DIM49
 10
346.41481932
 20
-187.11989085
 30
0.0
 11
346.41481932
 21
-183.11989085
 31
0.0
  0
LINE
  5
51B
  8
DIM49
 10
353.41481932
 20
-187.11989085
 30
0.0
 11
353.41481932
 21
-183.11989085
 31
0.0
  0
ENDBLK
  8
0
  0
BLOCK
  8
0
  2
_D9
 70
     0
 10
353.45490159
 20
-181.20488183
 30
0.0
  0
TEXT
  5
51E
  8
TXT_DIM49
 10
353.45490159
 20
-181.20488183
 30
0.0
 40
2.5
  1
2
  7
ARIAL
  0
LINE
  5
51F
  8
DIM49
 10
354.41481932
 20
-184.11989085
 30
0.0
 11
352.41481932
 21
-186.11989085
 31
0.0
  0
LINE
  5
520
  8
DIM49
 10
354.66481932
 20
-185.86989085
 30
0.0
 11
356.16481932
 21
-184.36989085
 31
0.0
  0
LINE
  5
521
  8
DIM49
 10
353.41481932
 20
-185.11989085
 30
0.0
 11
355.41481932
 21
-185.11989085
 31
0.0
  0
LINE
  5
522
  8
DIM49
 10
354.41481932
 20
-185.11989085
 30
0.0
 11
354.41481884
 21
-182.20488184
 31
0.0
  0
LINE
  5
523
  8
DIM49
 10
353.41481932
 20
-187.11989085
 30
0.0
 11
353.41481932
 21
-183.11989085
 31
0.0
  0
LINE
  5
524
  8
DIM49
 10
355.41481932
 20
-187.11989085
 30
0.0
 11
355.41481932
 21
-183.11989085
 31
0.0
  0
ENDBLK
  8
0
  0
BLOCK
  8
0
  2
_D10
 70
     0
 10
359.99498387
 20
-183.61989085
 30
0.0
  0
TEXT
  5
527
  8
TXT_DIM49
 10
359.99498387
 20
-183.61989085
 30
0.0
 40
2.5
  1
13
  7
ARIAL
  0
LINE
  5
528
  8
DIM49
 10
356.41481932
 20
-184.11989085
 30
0.0
 11
354.41481932
 21
-186.11989085
 31
0.0
  0
LINE
  5
529
  8
DIM49
 10
367.66481932
 20
-185.86989085
 30
0.0
 11
369.16481932
 21
-184.36989085
 31
0.0
  0
LINE
  5
52A
  8
DIM49
 10
355.41481932
 20
-185.11989085
 30
0.0
 11
368.41481932
 21
-185.11989085
 31
0.0
  0
LINE
  5
52B
  8
DIM49
 10
355.41481932
 20
-187.11989085
 30
0.0
 11
355.41481932
 21
-183.11989085
 31
0.0
  0
LINE
  5
52C
  8
DIM49
 10
368.41481932
 20
-187.11989085
 30
0.0
 11
368.41481932
 21
-183.11989085
 31
0.0
  0
ENDBLK
  8
0
  0
BLOCK
  8
0
  2
_D11
 70
     0
 10
372.99498387
 20
-183.61989085
 30
0.0
  0
TEXT
  5
52F
  8
TXT_DIM49
 10
372.99498387
 20
-183.61989085
 30
0.0
 40
2.5
  1
13
  7
ARIAL
  0
LINE
  5
530
  8
DIM49
 10
369.41481932
 20
-184.11989085
 30
0.0
 11
367.41481932
 21
-186.11989085
 31
0.0
  0
LINE
  5
531
  8
DIM49
 10
380.66481932
 20
-185.86989085
 30
0.0
 11
382.16481932
 21
-184.36989085
 31
0.0
  0
LINE
  5
532
  8
DIM49
 10
368.41481932
 20
-185.11989085
 30
0.0
 11
381.41481932
 21
-185.11989085
 31
0.0
  0
LINE
  5
533
  8
DIM49
 10
368.41481932
 20
-187.11989085
 30
0.0
 11
368.41481932
 21
-183.11989085
 31
0.0
  0
LINE
  5
534
  8
DIM49
 10
381.41481932
 20
-187.11989085
 30
0.0
 11
381.41481932
 21
-183.11989085
 31
0.0
  0
ENDBLK
  8
0
  0
BLOCK
  8
0
  2
_D12
 70
     0
 10
381.45490159
 20
-180.94160429
 30
0.0
  0
TEXT
  5
537
  8
TXT_DIM49
 10
381.45490159
 20
-180.94160429
 30
0.0
 40
2.5
  1
2
  7
ARIAL
  0
LINE
  5
538
  8
DIM49
 10
382.41481932
 20
-184.11989085
 30
0.0
 11
380.41481932
 21
-186.11989085
 31
0.0
  0
LINE
  5
539
  8
DIM49
 10
382.66481932
 20
-185.86989085
 30
0.0
 11
384.16481932
 21
-184.36989085
 31
0.0
  0
LINE
  5
53A
  8
DIM49
 10
381.41481932
 20
-185.11989085
 30
0.0
 11
383.41481932
 21
-185.11989085
 31
0.0
  0
LINE
  5
53B
  8
DIM49
 10
382.41481932
 20
-185.11989085
 30
0.0
 11
382.41481932
 21
-181.94160479
 31
0.0
  0
LINE
  5
53C
  8
DIM49
 10
381.41481932
 20
-187.11989085
 30
0.0
 11
381.41481932
 21
-183.11989085
 31
0.0
  0
LINE
  5
53D
  8
DIM49
 10
383.41481932
 20
-187.11989085
 30
0.0
 11
383.41481932
 21
-183.11989085
 31
0.0
  0
ENDBLK
  8
0
  0
BLOCK
  8
0
  2
_D13
 70
     0
 10
385.95490159
 20
-183.61989085
 30
0.0
  0
TEXT
  5
540
  8
TXT_DIM49
 10
385.95490159
 20
-183.61989085
 30
0.0
 40
2.5
  1
7
  7
ARIAL
  0
LINE
  5
541
  8
DIM49
 10
384.41481932
 20
-184.11989085
 30
0.0
 11
382.41481932
 21
-186.11989085
 31
0.0
  0
LINE
  5
542
  8
DIM49
 10
389.66481932
 20
-185.86989085
 30
0.0
 11
391.16481932
 21
-184.36989085
 31
0.0
  0
LINE
  5
543
  8
DIM49
 10
383.41481932
 20
-185.11989085
 30
0.0
 11
390.41481932
 21
-185.11989085
 31
0.0
  0
LINE
  5
544
  8
DIM49
 10
383.41481932
 20
-187.11989085
 30
0.0
 11
383.41481932
 21
-183.11989085
 31
0.0
  0
LINE
  5
545
  8
DIM49
 10
390.41481932
 20
-187.11989085
 30
0.0
 11
390.41481932
 21
-183.11989085
 31
0.0
  0
ENDBLK
  8
0
  0
BLOCK
  8
0
  2
_D14
 70
     0
 10
393.45490159
 20
-183.61989085
 30
0.0
  0
TEXT
  5
548
  8
TXT_DIM49
 10
393.45490159
 20
-183.61989085
 30
0.0
 40
2.5
  1
8
  7
ARIAL
  0
LINE
  5
549
  8
DIM49
 10
391.41481932
 20
-184.11989085
 30
0.0
 11
389.41481932
 21
-186.11989085
 31
0.0
  0
LINE
  5
54A
  8
DIM49
 10
397.66481932
 20
-185.86989085
 30
0.0
 11
399.16481932
 21
-184.36989085
 31
0.0
  0
LINE
  5
54B
  8
DIM49
 10
390.41481932
 20
-185.11989085
 30
0.0
 11
398.41481932
 21
-185.11989085
 31
0.0
  0
LINE
  5
54C
  8
DIM49
 10
390.41481932
 20
-187.11989085
 30
0.0
 11
390.41481932
 21
-183.11989085
 31
0.0
  0
LINE
  5
54D
  8
DIM49
 10
398.41481932
 20
-187.11989085
 30
0.0
 11
398.41481932
 21
-183.11989085
 31
0.0
  0
ENDBLK
  8
0
  0
BLOCK
  8
0
  2
_D15
 70
     0
 10
331.30839094
 20
-234.00172191
 30
0.0
  0
TEXT
  5
550
  8
TXT_DIM49
 10
331.30839094
 20
-234.00172191
 30
0.0
 40
2.5
  1
15
 50
90.00020741
  7
ARIAL
  0
LINE
  5
551
  8
DIM49
 10
331.80839094
 20
-238.58188647
 30
0.0
 11
333.80839094
 21
-240.58188647
 31
0.0
  0
LINE
  5
552
  8
DIM49
 10
333.55839094
 20
-225.33188647
 30
0.0
 11
332.05839094
 21
-223.83188647
 31
0.0
  0
LINE
  5
553
  8
DIM49
 10
332.80839094
 20
-239.58188647
 30
0.0
 11
332.80839094
 21
-224.58188647
 31
0.0
  0
LINE
  5
554
  8
DIM49
 10
334.80839094
 20
-239.58188647
 30
0.0
 11
330.80839094
 21
-239.58188647
 31
0.0
  0
LINE
  5
555
  8
DIM49
 10
334.80839094
 20
-224.58188647
 30
0.0
 11
330.80839094
 21
-224.58188647
 31
0.0
  0
ENDBLK
  8
0
  0
BLOCK
  8
0
  2
_D16
 70
     0
 10
331.30839094
 20
-222.54180419
 30
0.0
  0
TEXT
  5
558
  8
TXT_DIM49
 10
331.30839094
 20
-222.54180419
 30
0.0
 40
2.5
  1
6
 50
90.00020741
  7
ARIAL
  0
LINE
  5
559
  8
DIM49
 10
331.80839094
 20
-223.58188647
 30
0.0
 11
333.80839094
 21
-225.58188647
 31
0.0
  0
LINE
  5
55A
  8
DIM49
 10
333.55839094
 20
-219.33188647
 30
0.0
 11
332.05839094
 21
-217.83188647
 31
0.0
  0
LINE
  5
55B
  8
DIM49
 10
332.80839094
 20
-224.58188647
 30
0.0
 11
332.80839094
 21
-218.58188647
 31
0.0
  0
LINE
  5
55C
  8
DIM49
 10
334.80839094
 20
-224.58188647
 30
0.0
 11
330.80839094
 21
-224.58188647
 31
0.0
  0
LINE
  5
55D
  8
DIM49
 10
334.80839094
 20
-218.58188647
 30
0.0
 11
330.80839094
 21
-218.58188647
 31
0.0
  0
ENDBLK
  8
0
  0
BLOCK
  8
0
  2
_D17
 70
     0
 10
331.30839094
 20
-217.54180419
 30
0.0
  0
TEXT
  5
560
  8
TXT_DIM49
 10
331.30839094
 20
-217.54180419
 30
0.0
 40
2.5
  1
4
 50
90.00020741
  7
ARIAL
  0
LINE
  5
561
  8
DIM49
 10
331.80839094
 20
-217.58188647
 30
0.0
 11
333.80839094
 21
-219.58188647
 31
0.0
  0
LINE
  5
562
  8
DIM49
 10
333.55839094
 20
-215.33188647
 30
0.0
 11
332.05839094
 21
-213.83188647
 31
0.0
  0
LINE
  5
563
  8
DIM49
 10
332.80839094
 20
-218.58188647
 30
0.0
 11
332.80839094
 21
-214.58188647
 31
0.0
  0
LINE
  5
564
  8
DIM49
 10
334.80839094
 20
-218.58188647
 30
0.0
 11
330.80839094
 21
-218.58188647
 31
0.0
  0
LINE
  5
565
  8
DIM49
 10
334.80839094
 20
-214.58188647
 30
0.0
 11
330.80839094
 21
-214.58188647
 31
0.0
  0
ENDBLK
  8
0
  0
BLOCK
  8
0
  2
_D18
 70
     0
 10
331.30839094
 20
-211.04180419
 30
0.0
  0
TEXT
  5
568
  8
TXT_DIM49
 10
331.30839094
 20
-211.04180419
 30
0.0
 40
2.5
  1
9
 50
90.00020741
  7
ARIAL
  0
LINE
  5
569
  8
DIM49
 10
331.80839094
 20
-213.58188647
 30
0.0
 11
333.80839094
 21
-215.58188647
 31
0.0
  0
LINE
  5
56A
  8
DIM49
 10
333.55839094
 20
-206.33188647
 30
0.0
 11
332.05839094
 21
-204.83188647
 31
0.0
  0
LINE
  5
56B
  8
DIM49
 10
332.80839094
 20
-214.58188647
 30
0.0
 11
332.80839094
 21
-205.58188647
 31
0.0
  0
LINE
  5
56C
  8
DIM49
 10
334.80839094
 20
-214.58188647
 30
0.0
 11
330.80839094
 21
-214.58188647
 31
0.0
  0
LINE
  5
56D
  8
DIM49
 10
334.80839094
 20
-205.58188647
 30
0.0
 11
330.80839094
 21
-205.58188647
 31
0.0
  0
ENDBLK
  8
0
  0
BLOCK
  8
0
  2
_D19
 70
     0
 10
331.30839094
 20
-203.54180419
 30
0.0
  0
TEXT
  5
570
  8
TXT_DIM49
 10
331.30839094
 20
-203.54180419
 30
0.0
 40
2.5
  1
6
 50
90.00020741
  7
ARIAL
  0
LINE
  5
571
  8
DIM49
 10
331.80839094
 20
-204.58188647
 30
0.0
 11
333.80839094
 21
-206.58188647
 31
0.0
  0
LINE
  5
572
  8
DIM49
 10
333.55839094
 20
-200.33188647
 30
0.0
 11
332.05839094
 21
-198.83188647
 31
0.0
  0
LINE
  5
573
  8
DIM49
 10
332.80839094
 20
-205.58188647
 30
0.0
 11
332.80839094
 21
-199.58188647
 31
0.0
  0
LINE
  5
574
  8
DIM49
 10
334.80839094
 20
-205.58188647
 30
0.0
 11
330.80839094
 21
-205.58188647
 31
0.0
  0
LINE
  5
575
  8
DIM49
 10
334.80839094
 20
-199.58188647
 30
0.0
 11
330.80839094
 21
-199.58188647
 31
0.0
  0
ENDBLK
  8
0
  0
BLOCK
  8
0
  2
_D20
 70
     0
 10
346.88503571
 20
-231.37977818
 30
0.0
  0
TEXT
  5
578
  8
TXT_DIM49
 10
346.88503571
 20
-231.37977818
 30
0.0
 40
2.5
  1
Ø
  7
ARIAL
  0
TEXT
  5
579
  8
TXT_DIM49
 10
350.57010861
 20
-231.37977818
 30
0.0
 40
2.5
  1
4
  7
ARIAL
  0
LINE
  5
57A
  8
DIM49
 10
358.41481932
 20
-231.87977818
 30
0.0
 11
356.41481932
 21
-233.87977818
 31
0.0
  0
LINE
  5
57B
  8
DIM49
 10
352.66481932
 20
-233.62977818
 30
0.0
 11
354.16481932
 21
-232.12977818
 31
0.0
  0
LINE
  5
57C
  8
DIM49
 10
363.41481932
 20
-232.87977818
 30
0.0
 11
345.88503607
 21
-232.87977818
 31
0.0
  0
LINE
  5
57D
  8
DIM49
 10
357.41481932
 20
-230.87977818
 30
0.0
 11
357.41481932
 21
-234.87977818
 31
0.0
  0
LINE
  5
57E
  8
DIM49
 10
353.41481932
 20
-230.87977818
 30
0.0
 11
353.41481932
 21
-234.87977818
 31
0.0
  0
ENDBLK
  8
0
  0
BLOCK
  8
0
  2
_D21
 70
     0
 10
364.6524473
 20
-228.34696161
 30
0.0
  0
TEXT
  5
581
  8
TXT_DIM49
 10
364.6524473
 20
-228.34696161
 30
0.0
 40
2.5
  1
Ø
  7
ARIAL
  0
TEXT
  5
582
  8
TXT_DIM49
 10
368.3375202
 20
-228.34696161
 30
0.0
 40
2.5
  1
11
  7
ARIAL
  0
LINE
  5
583
  8
DIM49
 10
372.91481932
 20
-230.84696161
 30
0.0
 11
374.91481932
 21
-228.84696161
 31
0.0
  0
LINE
  5
584
  8
DIM49
 10
363.66481932
 20
-229.09696161
 30
0.0
 11
362.16481932
 21
-230.59696161
 31
0.0
  0
LINE
  5
585
  8
DIM49
 10
373.91481932
 20
-229.84696161
 30
0.0
 11
362.91481932
 21
-229.84696161
 31
0.0
  0
LINE
  5
586
  8
DIM49
 10
373.91481932
 20
-227.84696161
 30
0.0
 11
373.91481932
 21
-231.84696161
 31
0.0
  0
LINE
  5
587
  8
DIM49
 10
362.91481932
 20
-227.84696161
 30
0.0
 11
362.91481932
 21
-231.84696161
 31
0.0
  0
ENDBLK
  8
0
  0
BLOCK
  8
0
  2
_D22
 70
     0
 10
385.39281769
 20
-230.94312988
 30
0.0
  0
TEXT
  5
58A
  8
TXT_DIM49
 10
385.39281769
 20
-230.94312988
 30
0.0
 40
2.5
  1
Ø
  7
ARIAL
  0
TEXT
  5
58B
  8
TXT_DIM49
 10
389.07789059
 20
-230.94312988
 30
0.0
 40
2.5
  1
4
  7
ARIAL
  0
LINE
  5
58C
  8
DIM49
 10
384.41481932
 20
-231.44312988
 30
0.0
 11
382.41481932
 21
-233.44312988
 31
0.0
  0
LINE
  5
58D
  8
DIM49
 10
378.66481932
 20
-233.19312988
 30
0.0
 11
380.16481932
 21
-231.69312988
 31
0.0
  0
LINE
  5
58E
  8
DIM49
 10
391.99772604
 20
-232.44312988
 30
0.0
 11
373.41481932
 21
-232.44312988
 31
0.0
  0
LINE
  5
58F
  8
DIM49
 10
383.41481932
 20
-230.44312988
 30
0.0
 11
383.41481932
 21
-234.44312988
 31
0.0
  0
LINE
  5
590
  8
DIM49
 10
379.41481932
 20
-230.44312988
 30
0.0
 11
379.41481932
 21
-234.44312988
 31
0.0
  0
ENDBLK
  8
0
  0
BLOCK
  8
0
  2
_D23
 70
     0
 10
350.61236508
 20
-206.7545358
 30
0.0
  0
TEXT
  5
593
  8
TXT_DIM49
 10
350.61236508
 20
-206.7545358
 30
0.0
 40
2.5
  1
Ø
  7
ARIAL
  0
TEXT
  5
594
  8
TXT_DIM49
 10
354.29743798
 20
-206.7545358
 30
0.0
 40
2.5
  1
9
  7
ARIAL
  0
LINE
  5
595
  8
DIM49
 10
349.91481932
 20
-207.2545358
 30
0.0
 11
347.91481932
 21
-209.2545358
 31
0.0
  0
LINE
  5
596
  8
DIM49
 10
357.16481932
 20
-209.0045358
 30
0.0
 11
358.66481932
 21
-207.5045358
 31
0.0
  0
LINE
  5
597
  8
DIM49
 10
348.91481932
 20
-208.2545358
 30
0.0
 11
357.91481932
 21
-208.2545358
 31
0.0
  0
LINE
  5
598
  8
DIM49
 10
348.91481932
 20
-210.2545358
 30
0.0
 11
348.91481932
 21
-206.2545358
 31
0.0
  0
LINE
  5
599
  8
DIM49
 10
357.91481932
 20
-210.2545358
 30
0.0
 11
357.91481932
 21
-206.2545358
 31
0.0
  0
ENDBLK
  8
0
  0
BLOCK
  8
0
  2
_D24
 70
     0
 10
380.61236508
 20
-206.25451791
 30
0.0
  0
TEXT
  5
59C
  8
TXT_DIM49
 10
380.61236508
 20
-206.25451791
 30
0.0
 40
2.5
  1
Ø
  7
ARIAL
  0
TEXT
  5
59D
  8
TXT_DIM49
 10
384.29743798
 20
-206.25451791
 30
0.0
 40
2.5
  1
9
  7
ARIAL
  0
LINE
  5
59E
  8
DIM49
 10
379.91481932
 20
-206.75451791
 30
0.0
 11
377.91481932
 21
-208.75451791
 31
0.0
  0
LINE
  5
59F
  8
DIM49
 10
387.16481932
 20
-208.50451791
 30
0.0
 11
388.66481932
 21
-207.00451791
 31
0.0
  0
LINE
  5
5A0
  8
DIM49
 10
378.91481932
 20
-207.75451791
 30
0.0
 11
387.91481932
 21
-207.75451791
 31
0.0
  0
LINE
  5
5A1
  8
DIM49
 10
378.91481932
 20
-209.75451791
 30
0.0
 11
378.91481932
 21
-205.75451791
 31
0.0
  0
LINE
  5
5A2
  8
DIM49
 10
387.91481932
 20
-209.75451791
 30
0.0
 11
387.91481932
 21
-205.75451791
 31
0.0
  0
ENDBLK
  8
0
  0
BLOCK
  8
0
  2
_D25
 70
     0
 10
229.37230731
 20
-162.62346729
 30
0.0
  0
TEXT
  5
5C0
  8
TXT_DIM49
 10
229.37230731
 20
-162.62346729
 30
0.0
 40
2.5
  1
16
  7
ARIAL
  0
LINE
  5
5C1
  8
DIM49
 10
224.29214276
 20
-163.12346729
 30
0.0
 11
222.29214276
 21
-165.12346729
 31
0.0
  0
LINE
  5
5C2
  8
DIM49
 10
238.54214276
 20
-164.87346729
 30
0.0
 11
240.04214276
 21
-163.37346729
 31
0.0
  0
LINE
  5
5C3
  8
DIM49
 10
223.29214276
 20
-164.12346729
 30
0.0
 11
239.29214276
 21
-164.12346729
 31
0.0
  0
LINE
  5
5C4
  8
DIM49
 10
223.29214276
 20
-162.12346729
 30
0.0
 11
223.29214276
 21
-166.12346729
 31
0.0
  0
LINE
  5
5C5
  8
DIM49
 10
239.29214276
 20
-162.12346729
 30
0.0
 11
239.29214276
 21
-166.12346729
 31
0.0
  0
ENDBLK
  8
0
  0
BLOCK
  8
0
  2
_D26
 70
     0
 10
247.37230731
 20
-162.62346729
 30
0.0
  0
TEXT
  5
5C8
  8
TXT_DIM49
 10
247.37230731
 20
-162.62346729
 30
0.0
 40
2.5
  1
20
  7
ARIAL
  0
LINE
  5
5C9
  8
DIM49
 10
240.29214276
 20
-163.12346729
 30
0.0
 11
238.29214276
 21
-165.12346729
 31
0.0
  0
LINE
  5
5CA
  8
DIM49
 10
258.54214276
 20
-164.87346729
 30
0.0
 11
260.04214276
 21
-163.37346729
 31
0.0
  0
LINE
  5
5CB
  8
DIM49
 10
239.29214276
 20
-164.12346729
 30
0.0
 11
259.29214276
 21
-164.12346729
 31
0.0
  0
LINE
  5
5CC
  8
DIM49
 10
239.29214276
 20
-162.12346729
 30
0.0
 11
239.29214276
 21
-166.12346729
 31
0.0
  0
LINE
  5
5CD
  8
DIM49
 10
259.29214276
 20
-162.12346729
 30
0.0
 11
259.29214276
 21
-166.12346729
 31
0.0
  0
ENDBLK
  8
0
  0
BLOCK
  8
0
  2
_D27
 70
     0
 10
266.37230731
 20
-162.62346729
 30
0.0
  0
TEXT
  5
5D0
  8
TXT_DIM49
 10
266.37230731
 20
-162.62346729
 30
0.0
 40
2.5
  1
18
  7
ARIAL
  0
LINE
  5
5D1
  8
DIM49
 10
260.29214276
 20
-163.12346729
 30
0.0
 11
258.29214276
 21
-165.12346729
 31
0.0
  0
LINE
  5
5D2
  8
DIM49
 10
276.54214276
 20
-164.87346729
 30
0.0
 11
278.04214276
 21
-163.37346729
 31
0.0
  0
LINE
  5
5D3
  8
DIM49
 10
259.29214276
 20
-164.12346729
 30
0.0
 11
277.29214276
 21
-164.12346729
 31
0.0
  0
LINE
  5
5D4
  8
DIM49
 10
259.29214276
 20
-162.12346729
 30
0.0
 11
259.29214276
 21
-166.12346729
 31
0.0
  0
LINE
  5
5D5
  8
DIM49
 10
277.29214276
 20
-162.12346729
 30
0.0
 11
277.29214276
 21
-166.12346729
 31
0.0
  0
ENDBLK
  8
0
  0
BLOCK
  8
0
  2
_D28
 70
     0
 10
279.33222503
 20
-162.62346729
 30
0.0
  0
TEXT
  5
5D8
  8
TXT_DIM49
 10
279.33222503
 20
-162.62346729
 30
0.0
 40
2.5
  1
6
  7
ARIAL
  0
LINE
  5
5D9
  8
DIM49
 10
278.29214276
 20
-163.12346729
 30
0.0
 11
276.29214276
 21
-165.12346729
 31
0.0
  0
LINE
  5
5DA
  8
DIM49
 10
282.54214276
 20
-164.87346729
 30
0.0
 11
284.04214276
 21
-163.37346729
 31
0.0
  0
LINE
  5
5DB
  8
DIM49
 10
277.29214276
 20
-164.12346729
 30
0.0
 11
283.29214276
 21
-164.12346729
 31
0.0
  0
LINE
  5
5DC
  8
DIM49
 10
277.29214276
 20
-162.12346729
 30
0.0
 11
277.29214276
 21
-166.12346729
 31
0.0
  0
LINE
  5
5DD
  8
DIM49
 10
283.29214276
 20
-162.12346729
 30
0.0
 11
283.29214276
 21
-166.12346729
 31
0.0
  0
ENDBLK
  8
0
  0
BLOCK
  8
0
  2
_D29
 70
     0
 10
299.26630624
 20
-153.66435419
 30
0.0
  0
TEXT
  5
5E0
  8
TXT_DIM49
 10
299.26630624
 20
-153.66435419
 30
0.0
 40
2.5
  1
8
 50
90.00020741
  7
ARIAL
  0
LINE
  5
5E1
  8
DIM49
 10
299.76630624
 20
-155.70443646
 30
0.0
 11
301.76630624
 21
-157.70443646
 31
0.0
  0
LINE
  5
5E2
  8
DIM49
 10
301.51630624
 20
-149.45443646
 30
0.0
 11
300.01630624
 21
-147.95443646
 31
0.0
  0
LINE
  5
5E3
  8
DIM49
 10
300.76630624
 20
-156.70443646
 30
0.0
 11
300.76630624
 21
-148.70443646
 31
0.0
  0
LINE
  5
5E4
  8
DIM49
 10
298.76630624
 20
-156.70443646
 30
0.0
 11
302.76630624
 21
-156.70443646
 31
0.0
  0
LINE
  5
5E5
  8
DIM49
 10
298.76630624
 20
-148.70443646
 30
0.0
 11
302.76630624
 21
-148.70443646
 31
0.0
  0
ENDBLK
  8
0
  0
BLOCK
  8
0
  2
_D30
 70
     0
 10
299.26630624
 20
-145.16435419
 30
0.0
  0
TEXT
  5
5E8
  8
TXT_DIM49
 10
299.26630624
 20
-145.16435419
 30
0.0
 40
2.5
  1
9
 50
90.00020741
  7
ARIAL
  0
LINE
  5
5E9
  8
DIM49
 10
299.76630624
 20
-147.70443646
 30
0.0
 11
301.76630624
 21
-149.70443646
 31
0.0
  0
LINE
  5
5EA
  8
DIM49
 10
301.51630624
 20
-140.45443646
 30
0.0
 11
300.01630624
 21
-138.95443646
 31
0.0
  0
LINE
  5
5EB
  8
DIM49
 10
300.76630624
 20
-148.70443646
 30
0.0
 11
300.76630624
 21
-139.70443646
 31
0.0
  0
LINE
  5
5EC
  8
DIM49
 10
298.76630624
 20
-148.70443646
 30
0.0
 11
302.76630624
 21
-148.70443646
 31
0.0
  0
LINE
  5
5ED
  8
DIM49
 10
298.76630624
 20
-139.70443646
 30
0.0
 11
302.76630624
 21
-139.70443646
 31
0.0
  0
ENDBLK
  8
0
  0
BLOCK
  8
0
  2
_D31
 70
     0
 10
299.26630624
 20
-135.12427191
 30
0.0
  0
TEXT
  5
5F0
  8
TXT_DIM49
 10
299.26630624
 20
-135.12427191
 30
0.0
 40
2.5
  1
13
 50
90.00020741
  7
ARIAL
  0
LINE
  5
5F1
  8
DIM49
 10
299.76630624
 20
-138.70443646
 30
0.0
 11
301.76630624
 21
-140.70443646
 31
0.0
  0
LINE
  5
5F2
  8
DIM49
 10
301.51630624
 20
-127.45443646
 30
0.0
 11
300.01630624
 21
-125.95443646
 31
0.0
  0
LINE
  5
5F3
  8
DIM49
 10
300.76630624
 20
-139.70443646
 30
0.0
 11
300.76630624
 21
-126.70443646
 31
0.0
  0
LINE
  5
5F4
  8
DIM49
 10
298.76630624
 20
-139.70443646
 30
0.0
 11
302.76630624
 21
-139.70443646
 31
0.0
  0
LINE
  5
5F5
  8
DIM49
 10
298.76630624
 20
-126.70443646
 30
0.0
 11
302.76630624
 21
-126.70443646
 31
0.0
  0
ENDBLK
  8
0
  0
BLOCK
  8
0
  2
_D32
 70
     0
 10
299.26630624
 20
-122.12427191
 30
0.0
  0
TEXT
  5
5F8
  8
TXT_DIM49
 10
299.26630624
 20
-122.12427191
 30
0.0
 40
2.5
  1
13
 50
90.00020741
  7
ARIAL
  0
LINE
  5
5F9
  8
DIM49
 10
299.76630624
 20
-125.70443646
 30
0.0
 11
301.76630624
 21
-127.70443646
 31
0.0
  0
LINE
  5
5FA
  8
DIM49
 10
301.51630624
 20
-114.45443646
 30
0.0
 11
300.01630624
 21
-112.95443646
 31
0.0
  0
LINE
  5
5FB
  8
DIM49
 10
300.76630624
 20
-126.70443646
 30
0.0
 11
300.76630624
 21
-113.70443646
 31
0.0
  0
LINE
  5
5FC
  8
DIM49
 10
298.76630624
 20
-126.70443646
 30
0.0
 11
302.76630624
 21
-126.70443646
 31
0.0
  0
LINE
  5
5FD
  8
DIM49
 10
298.76630624
 20
-113.70443646
 30
0.0
 11
302.76630624
 21
-113.70443646
 31
0.0
  0
ENDBLK
  8
0
  0
BLOCK
  8
0
  2
_D33
 70
     0
 10
299.26630624
 20
-110.16435419
 30
0.0
  0
TEXT
  5
600
  8
TXT_DIM49
 10
299.26630624
 20
-110.16435419
 30
0.0
 40
2.5
  1
9
 50
90.00020741
  7
ARIAL
  0
LINE
  5
601
  8
DIM49
 10
299.76630624
 20
-112.70443646
 30
0.0
 11
301.76630624
 21
-114.70443646
 31
0.0
  0
LINE
  5
602
  8
DIM49
 10
301.51630624
 20
-105.45443646
 30
0.0
 11
300.01630624
 21
-103.95443646
 31
0.0
  0
LINE
  5
603
  8
DIM49
 10
300.76630624
 20
-113.70443646
 30
0.0
 11
300.76630624
 21
-104.70443646
 31
0.0
  0
LINE
  5
604
  8
DIM49
 10
298.76630624
 20
-113.70443646
 30
0.0
 11
302.76630624
 21
-113.70443646
 31
0.0
  0
LINE
  5
605
  8
DIM49
 10
298.76630624
 20
-104.70443646
 30
0.0
 11
302.76630624
 21
-104.70443646
 31
0.0
  0
ENDBLK
  8
0
  0
BLOCK
  8
0
  2
_D34
 70
     0
 10
299.26630624
 20
-101.66435419
 30
0.0
  0
TEXT
  5
608
  8
TXT_DIM49
 10
299.26630624
 20
-101.66435419
 30
0.0
 40
2.5
  1
8
 50
90.00020741
  7
ARIAL
  0
LINE
  5
609
  8
DIM49
 10
299.76630624
 20
-103.70443646
 30
0.0
 11
301.76630624
 21
-105.70443646
 31
0.0
  0
LINE
  5
60A
  8
DIM49
 10
301.51630624
 20
-97.45443646
 30
0.0
 11
300.01630624
 21
-95.95443646
 31
0.0
  0
LINE
  5
60B
  8
DIM49
 10
300.76630624
 20
-104.70443646
 30
0.0
 11
300.76630624
 21
-96.70443646
 31
0.0
  0
LINE
  5
60C
  8
DIM49
 10
298.76630624
 20
-104.70443646
 30
0.0
 11
302.76630624
 21
-104.70443646
 31
0.0
  0
LINE
  5
60D
  8
DIM49
 10
298.76630624
 20
-96.70443646
 30
0.0
 11
302.76630624
 21
-96.70443646
 31
0.0
  0
ENDBLK
  8
0
  0
BLOCK
  8
0
  2
_D35
 70
     0
 10
215.10268735
 20
-143.62427191
 30
0.0
  0
TEXT
  5
610
  8
TXT_DIM49
 10
215.10268735
 20
-143.62427191
 30
0.0
 40
2.5
  1
30
 50
90.00020741
  7
ARIAL
  0
LINE
  5
611
  8
DIM49
 10
215.60268735
 20
-155.70443646
 30
0.0
 11
217.60268735
 21
-157.70443646
 31
0.0
  0
LINE
  5
612
  8
DIM49
 10
217.35268735
 20
-127.45443646
 30
0.0
 11
215.85268735
 21
-125.95443646
 31
0.0
  0
LINE
  5
613
  8
DIM49
 10
216.60268735
 20
-156.70443646
 30
0.0
 11
216.60268735
 21
-126.70443646
 31
0.0
  0
LINE
  5
614
  8
DIM49
 10
218.60268735
 20
-156.70443646
 30
0.0
 11
214.60268735
 21
-156.70443646
 31
0.0
  0
LINE
  5
615
  8
DIM49
 10
218.60268735
 20
-126.70443646
 30
0.0
 11
214.60268735
 21
-126.70443646
 31
0.0
  0
ENDBLK
  8
0
  0
BLOCK
  8
0
  2
_D36
 70
     0
 10
215.10268735
 20
-113.62427191
 30
0.0
  0
TEXT
  5
618
  8
TXT_DIM49
 10
215.10268735
 20
-113.62427191
 30
0.0
 40
2.5
  1
30
 50
90.00020741
  7
ARIAL
  0
LINE
  5
619
  8
DIM49
 10
215.60268735
 20
-125.70443646
 30
0.0
 11
217.60268735
 21
-127.70443646
 31
0.0
  0
LINE
  5
61A
  8
DIM49
 10
217.35268735
 20
-97.45443646
 30
0.0
 11
215.85268735
 21
-95.95443646
 31
0.0
  0
LINE
  5
61B
  8
DIM49
 10
216.60268735
 20
-126.70443646
 30
0.0
 11
216.60268735
 21
-96.70443646
 31
0.0
  0
LINE
  5
61C
  8
DIM49
 10
218.60268735
 20
-126.70443646
 30
0.0
 11
214.60268735
 21
-126.70443646
 31
0.0
  0
LINE
  5
61D
  8
DIM49
 10
218.60268735
 20
-96.70443646
 30
0.0
 11
214.60268735
 21
-96.70443646
 31
0.0
  0
ENDBLK
  8
0
  0
BLOCK
  8
0
  2
_D37
 70
     0
 10
290.70232038
 20
-94.09352796
 30
0.0
  0
TEXT
  5
620
  8
TXT_DIM49
 10
290.70232038
 20
-94.09352796
 30
0.0
 40
2.5
  1
4
 50
90.00020741
  7
ARIAL
  0
TEXT
  5
621
  8
TXT_DIM49
 10
290.70232038
 20
-90.67369239
 30
0.0
 40
2.5
  1
x45°
 50
90.00020741
  7
ARIAL
  0
LINE
  5
622
  8
DIM49
 10
291.20232038
 20
-95.70443646
 30
0.0
 11
293.20232038
 21
-97.70443646
 31
0.0
  0
LINE
  5
623
  8
DIM49
 10
292.95232038
 20
-100.95443646
 30
0.0
 11
291.45232038
 21
-99.45443646
 31
0.0
  0
LINE
  5
624
  8
DIM49
 10
292.20232038
 20
-82.72756307
 30
0.0
 11
292.20232038
 21
-106.20443646
 31
0.0
  0
LINE
  5
625
  8
DIM49
 10
290.20232038
 20
-96.70443646
 30
0.0
 11
294.20232038
 21
-96.70443646
 31
0.0
  0
LINE
  5
626
  8
DIM49
 10
290.20232038
 20
-100.20443646
 30
0.0
 11
294.20232038
 21
-100.20443646
 31
0.0
  0
ENDBLK
  8
0
  0
BLOCK
  8
0
  2
_D38
 70
     0
 10
290.84640392
 20
-150.4495558
 30
0.0
  0
TEXT
  5
629
  8
TXT_DIM49
 10
290.84640392
 20
-150.4495558
 30
0.0
 40
2.5
  1
4
 50
90.00020741
  7
ARIAL
  0
TEXT
  5
62A
  8
TXT_DIM49
 10
290.84640392
 20
-147.02972023
 30
0.0
 40
2.5
  1
x45°
 50
90.00020741
  7
ARIAL
  0
LINE
  5
62B
  8
DIM49
 10
291.34640392
 20
-152.20443646
 30
0.0
 11
293.34640392
 21
-154.20443646
 31
0.0
  0
LINE
  5
62C
  8
DIM49
 10
293.09640392
 20
-157.45443646
 30
0.0
 11
291.59640392
 21
-155.95443646
 31
0.0
  0
LINE
  5
62D
  8
DIM49
 10
292.34640392
 20
-139.08359067
 30
0.0
 11
292.34640392
 21
-162.70443646
 31
0.0
  0
LINE
  5
62E
  8
DIM49
 10
290.34640392
 20
-153.20443646
 30
0.0
 11
294.34640392
 21
-153.20443646
 31
0.0
  0
LINE
  5
62F
  8
DIM49
 10
290.34640392
 20
-156.70443646
 30
0.0
 11
294.34640392
 21
-156.70443646
 31
0.0
  0
ENDBLK
  8
0
  0
BLOCK
  8
0
  2
_D39
 70
     0
 10
272.12230731
 20
-90.96053958
 30
0.0
  0
TEXT
  5
632
  8
TXT_DIM49
 10
272.12230731
 20
-90.96053958
 30
0.0
 40
2.5
  1
19
  7
ARIAL
  0
LINE
  5
633
  8
DIM49
 10
282.29214276
 20
-93.46053958
 30
0.0
 11
284.29214276
 21
-91.46053958
 31
0.0
  0
LINE
  5
634
  8
DIM49
 10
265.54214276
 20
-91.71053958
 30
0.0
 11
264.04214276
 21
-93.21053958
 31
0.0
  0
LINE
  5
635
  8
DIM49
 10
283.29214276
 20
-92.46053958
 30
0.0
 11
264.79214276
 21
-92.46053958
 31
0.0
  0
LINE
  5
636
  8
DIM49
 10
283.29214276
 20
-94.46053958
 30
0.0
 11
283.29214276
 21
-90.46053958
 31
0.0
  0
LINE
  5
637
  8
DIM49
 10
264.79214276
 20
-94.46053958
 30
0.0
 11
264.79214276
 21
-90.46053958
 31
0.0
  0
ENDBLK
  8
0
  0
BLOCK
  8
0
  2
_D40
 70
     0
 10
247.87230731
 20
-90.96053958
 30
0.0
  0
TEXT
  5
63A
  8
TXT_DIM49
 10
247.87230731
 20
-90.96053958
 30
0.0
 40
2.5
  1
30
  7
ARIAL
  0
LINE
  5
63B
  8
DIM49
 10
263.79214276
 20
-93.46053958
 30
0.0
 11
265.79214276
 21
-91.46053958
 31
0.0
  0
LINE
  5
63C
  8
DIM49
 10
235.54214276
 20
-91.71053958
 30
0.0
 11
234.04214276
 21
-93.21053958
 31
0.0
  0
LINE
  5
63D
  8
DIM49
 10
264.79214276
 20
-92.46053958
 30
0.0
 11
234.79214276
 21
-92.46053958
 31
0.0
  0
LINE
  5
63E
  8
DIM49
 10
264.79214276
 20
-94.46053958
 30
0.0
 11
264.79214276
 21
-90.46053958
 31
0.0
  0
LINE
  5
63F
  8
DIM49
 10
234.79214276
 20
-94.46053958
 30
0.0
 11
234.79214276
 21
-90.46053958
 31
0.0
  0
ENDBLK
  8
0
  0
BLOCK
  8
0
  2
_D41
 70
     0
 10
227.12230731
 20
-90.96053958
 30
0.0
  0
TEXT
  5
642
  8
TXT_DIM49
 10
227.12230731
 20
-90.96053958
 30
0.0
 40
2.5
  1
12
  7
ARIAL
  0
LINE
  5
643
  8
DIM49
 10
233.79214276
 20
-93.46053958
 30
0.0
 11
235.79214276
 21
-91.46053958
 31
0.0
  0
LINE
  5
644
  8
DIM49
 10
224.04214276
 20
-91.71053958
 30
0.0
 11
222.54214276
 21
-93.21053958
 31
0.0
  0
LINE
  5
645
  8
DIM49
 10
234.79214276
 20
-92.46053958
 30
0.0
 11
223.29214276
 21
-92.46053958
 31
0.0
  0
LINE
  5
646
  8
DIM49
 10
234.79214276
 20
-94.46053958
 30
0.0
 11
234.79214276
 21
-90.46053958
 31
0.0
  0
LINE
  5
647
  8
DIM49
 10
223.29214276
 20
-94.46053958
 30
0.0
 11
223.29214276
 21
-90.46053958
 31
0.0
  0
ENDBLK
  8
0
  0
BLOCK
  8
0
  2
_D42
 70
     0
 10
269.64518246
 20
-130.46680848
 30
0.0
  0
TEXT
  5
64A
  8
TXT_DIM49
 10
269.64518246
 20
-130.46680848
 30
0.0
 40
2.5
  1
Ø
 50
90.00020741
  7
ARIAL
  0
TEXT
  5
64B
  8
TXT_DIM49
 10
269.64518246
 20
-126.78173558
 30
0.0
 40
2.5
  1
11
 50
90.00020741
  7
ARIAL
  0
LINE
  5
64C
  8
DIM49
 10
272.14518246
 20
-122.20443646
 30
0.0
 11
270.14518246
 21
-120.20443646
 31
0.0
  0
LINE
  5
64D
  8
DIM49
 10
270.39518246
 20
-131.45443646
 30
0.0
 11
271.89518246
 21
-132.95443646
 31
0.0
  0
LINE
  5
64E
  8
DIM49
 10
271.14518246
 20
-121.20443646
 30
0.0
 11
271.14518246
 21
-132.20443646
 31
0.0
  0
LINE
  5
64F
  8
DIM49
 10
269.14518246
 20
-121.20443646
 30
0.0
 11
273.14518246
 21
-121.20443646
 31
0.0
  0
LINE
  5
650
  8
DIM49
 10
269.14518246
 20
-132.20443646
 30
0.0
 11
273.14518246
 21
-132.20443646
 31
0.0
  0
ENDBLK
  8
0
  0
BLOCK
  8
0
  2
_D43
 70
     0
 10
205.62985353
 20
-128.62427191
 30
0.0
  0
TEXT
  5
653
  8
TXT_DIM49
 10
205.62985353
 20
-128.62427191
 30
0.0
 40
2.5
  1
60
 50
90.00020741
  7
ARIAL
  0
LINE
  5
654
  8
DIM49
 10
208.12985353
 20
-97.70443646
 30
0.0
 11
206.12985353
 21
-95.70443646
 31
0.0
  0
LINE
  5
655
  8
DIM49
 10
206.37985353
 20
-155.95443646
 30
0.0
 11
207.87985353
 21
-157.45443646
 31
0.0
  0
LINE
  5
656
  8
DIM49
 10
207.12985353
 20
-96.70443646
 30
0.0
 11
207.12985353
 21
-156.70443646
 31
0.0
  0
LINE
  5
657
  8
DIM49
 10
209.12985353
 20
-96.70443646
 30
0.0
 11
205.12985353
 21
-96.70443646
 31
0.0
  0
LINE
  5
658
  8
DIM49
 10
209.12985353
 20
-156.70443646
 30
0.0
 11
205.12985353
 21
-156.70443646
 31
0.0
  0
ENDBLK
  8
0
  0
BLOCK
  8
0
  2
_D44
 70
     0
 10
256.48968852
 20
-105.44736734
 30
0.0
  0
TEXT
  5
65B
  8
TXT_DIM49
 10
256.48968852
 20
-105.44736734
 30
0.0
 40
2.5
  1
Ø
  7
ARIAL
  0
TEXT
  5
65C
  8
TXT_DIM49
 10
260.17476142
 20
-105.44736734
 30
0.0
 40
2.5
  1
6
  7
ARIAL
  0
LINE
  5
65D
  8
DIM49
 10
257.29214276
 20
-105.94736734
 30
0.0
 11
255.29214276
 21
-107.94736734
 31
0.0
  0
LINE
  5
65E
  8
DIM49
 10
261.54214276
 20
-107.69736734
 30
0.0
 11
263.04214276
 21
-106.19736734
 31
0.0
  0
LINE
  5
65F
  8
DIM49
 10
256.29214276
 20
-106.94736734
 30
0.0
 11
262.29214276
 21
-106.94736734
 31
0.0
  0
LINE
  5
660
  8
DIM49
 10
256.29214276
 20
-108.94736734
 30
0.0
 11
256.29214276
 21
-104.94736734
 31
0.0
  0
LINE
  5
661
  8
DIM49
 10
262.29214276
 20
-108.94736734
 30
0.0
 11
262.29214276
 21
-104.94736734
 31
0.0
  0
ENDBLK
  8
0
  0
BLOCK
  8
0
  2
_D45
 70
     0
 10
268.85806406
 20
-113.08001091
 30
0.0
  0
TEXT
  5
664
  8
TXT_DIM49
 10
268.85806406
 20
-113.08001091
 30
0.0
 40
2.5
  1
Ø
  7
ARIAL
  0
TEXT
  5
665
  8
TXT_DIM49
 10
272.54313696
 20
-113.08001091
 30
0.0
 40
2.5
  1
4
  7
ARIAL
  0
LINE
  5
666
  8
DIM49
 10
280.29214276
 20
-113.58001091
 30
0.0
 11
278.29214276
 21
-115.58001091
 31
0.0
  0
LINE
  5
667
  8
DIM49
 10
274.54214276
 20
-115.33001091
 30
0.0
 11
276.04214276
 21
-113.83001091
 31
0.0
  0
LINE
  5
668
  8
DIM49
 10
285.29214276
 20
-114.58001091
 30
0.0
 11
267.85806454
 21
-114.58001091
 31
0.0
  0
LINE
  5
669
  8
DIM49
 10
279.29214276
 20
-112.58001091
 30
0.0
 11
279.29214276
 21
-116.58001091
 31
0.0
  0
LINE
  5
66A
  8
DIM49
 10
275.29214276
 20
-112.58001091
 30
0.0
 11
275.29214276
 21
-116.58001091
 31
0.0
  0
ENDBLK
  8
0
  0
BLOCK
  8
0
  2
_D46
 70
     0
 10
230.87878395
 20
-111.1391237
 30
0.0
  0
TEXT
  5
66D
  8
TXT_DIM49
 10
230.87878395
 20
-111.1391237
 30
0.0
 40
2.5
  1
Ø
  7
ARIAL
  0
TEXT
  5
66E
  8
TXT_DIM49
 10
234.56385685
 20
-111.1391237
 30
0.0
 40
2.5
  1
4
  7
ARIAL
  0
LINE
  5
66F
  8
DIM49
 10
242.29214276
 20
-111.6391237
 30
0.0
 11
240.29214276
 21
-113.6391237
 31
0.0
  0
LINE
  5
670
  8
DIM49
 10
236.54214276
 20
-113.3891237
 30
0.0
 11
238.04214276
 21
-111.8891237
 31
0.0
  0
LINE
  5
671
  8
DIM49
 10
247.29214276
 20
-112.6391237
 30
0.0
 11
229.87878407
 21
-112.6391237
 31
0.0
  0
LINE
  5
672
  8
DIM49
 10
241.29214276
 20
-110.6391237
 30
0.0
 11
241.29214276
 21
-114.6391237
 31
0.0
  0
LINE
  5
673
  8
DIM49
 10
237.29214276
 20
-110.6391237
 30
0.0
 11
237.29214276
 21
-114.6391237
 31
0.0
  0
ENDBLK
  8
0
  0
BLOCK
  8
0
  2
_ZBL0002_00001
 70
     0
 10
0.0
 20
0.0
 30
0.0
  0
INSERT
  5
1B8
  8
0
  2
DINA3_00002
 10
171.18634987
 20
-336.86924975
 30
0.0
  0
ENDBLK
  8
0
  0
BLOCK
  8
0
  2
DINA3_00002
 70
     0
 10
171.18634987
 20
-336.86924975
 30
0.0
  0
POLYLINE
  5
1BB
  8
0
 66
     1
 10
0.0
 20
0.0
 30
0.0
 70
     1
  0
VERTEX
  5
1BC
  8
0
 10
171.18634987
 20
-336.86924975
 30
0.0
  0
VERTEX
  5
1BD
  8
0
 10
591.18634987
 20
-336.86924975
 30
0.0
  0
VERTEX
  5
1BE
  8
0
 10
591.18634987
 20
-39.86924975
 30
0.0
  0
VERTEX
  5
1BF
  8
0
 10
171.18634987
 20
-39.86924975
 30
0.0
  0
SEQEND
  5
1C0
  8
0
  0
POLYLINE
  5
1C1
  8
0
 66
     1
 10
0.0
 20
0.0
 30
0.0
 70
     1
  0
VERTEX
  5
1C2
  8
0
 10
176.18634987
 20
-331.86924975
 30
0.0
  0
VERTEX
  5
1C3
  8
0
 10
586.18634987
 20
-331.86924975
 30
0.0
  0
VERTEX
  5
1C4
  8
0
 10
586.18634987
 20
-44.86924975
 30
0.0
  0
VERTEX
  5
1C5
  8
0
 10
176.18634987
 20
-44.86924975
 30
0.0
  0
SEQEND
  5
1C6
  8
0
  0
LINE
  5
1C7
  8
0
 10
401.18634987
 20
-331.86924975
 30
0.0
 11
401.18634987
 21
-336.86924975
 31
0.0
  0
LINE
  5
1C8
  8
0
 10
401.18634987
 20
-44.86924975
 30
0.0
 11
401.18634987
 21
-39.86924975
 31
0.0
  0
LINE
  5
1C9
  8
0
 10
191.18634987
 20
-331.86924975
 30
0.0
 11
191.18634987
 21
-336.86924975
 31
0.0
  0
LINE
  5
1CA
  8
0
 10
191.18634987
 20
-44.86924975
 30
0.0
 11
191.18634987
 21
-39.86924975
 31
0.0
  0
TEXT
  5
1CB
  8
TXT_ALL
 62
     4
 10
590.18634987
 20
-335.86924975
 30
0.0
 40
2.5
  1

 50
90.00020741
  0
POLYLINE
  5
1CC
  8
0
 66
     1
 10
0.0
 20
0.0
 30
0.0
  0
VERTEX
  5
1CD
  8
0
 10
586.18634987
 20
-54.86924975
 30
0.0
  0
VERTEX
  5
1CE
  8
0
 10
517.19304987
 20
-54.86924975
 30
0.0
  0
VERTEX
  5
1CF
  8
0
 10
517.19304987
 20
-44.86924975
 30
0.0
  0
SEQEND
  5
1D0
  8
0
  0
LINE
  5
1D1
  8
0
 10
519.09634987
 20
-312.36924975
 30
0.0
 11
379.20634987
 21
-312.36924975
 31
0.0
  0
LINE
  5
1D2
  8
0
 10
379.20634987
 20
-322.11924975
 30
0.0
 11
519.09634987
 21
-322.11924975
 31
0.0
  0
POLYLINE
  5
1D3
  8
0
 66
     1
 10
0.0
 20
0.0
 30
0.0
  0
VERTEX
  5
1D4
  8
0
 10
379.20634987
 20
-312.36924975
 30
0.0
  0
VERTEX
  5
1D5
  8
0
 10
379.20634987
 20
-322.11924975
 30
0.0
  0
VERTEX
  5
1D6
  8
0
 10
379.20634987
 20
-331.86924975
 30
0.0
  0
SEQEND
  5
1D7
  8
0
  0
POLYLINE
  5
1D8
  8
0
 66
     1
 10
0.0
 20
0.0
 30
0.0
  0
VERTEX
  5
1D9
  8
0
 10
449.15134987
 20
-312.36924975
 30
0.0
  0
VERTEX
  5
1DA
  8
0
 10
449.15134987
 20
-322.11924975
 30
0.0
  0
VERTEX
  5
1DB
  8
0
 10
449.15134987
 20
-331.86924975
 30
0.0
  0
SEQEND
  5
1DC
  8
0
  0
INSERT
  5
1DD
  8
0
  2
FLEX_00003
 10
381.20634987
 20
-317.24424975
 30
0.0
  0
INSERT
  5
1DE
  8
0
  2
FLEX_00005
 10
381.20634987
 20
-326.99424975
 30
0.0
  0
INSERT
  5
1DF
  8
0
  2
FLEX_00007
 10
451.15134987
 20
-326.99424975
 30
0.0
  0
INSERT
  5
1E0
  8
0
  2
FLEX_00009
 10
451.15134987
 20
-317.24424975
 30
0.0
  0
INSERT
  5
1E1
  8
0
  2
SCHRIFE_00011
 10
179.62831012
 20
-49.86924975
 30
0.0
  0
INSERT
  5
1E2
  8
0
  2
_B_M_P___00015
 10
568.02877594
 20
-336.75924975
 30
0.0
  0
ENDBLK
  8
0
  0
BLOCK
  8
0
  2
FLEX_00003
 70
     0
 10
381.20634987
 20
-317.24424975
 30
0.0
  0
INSERT
  5
1E5
  8
0
  2
TFIELD_00004
 10
381.20634987
 20
-317.24424975
 30
0.0
  0
ENDBLK
  8
0
  0
BLOCK
  8
0
  2
TFIELD_00004
 70
     0
 10
381.20634987
 20
-317.24424975
 30
0.0
  0
TEXT
  5
1E8
  8
TXT_ALL
 10
381.20634987
 20
-318.5442497
 30
0.0
 40
2.5999999
  1
E-mail: verkoop@jonkers-bouwmetaal.nl
  7
ARIAL
  0
ENDBLK
  8
0
  0
BLOCK
  8
0
  2
FLEX_00005
 70
     0
 10
381.20634987
 20
-326.99424975
 30
0.0
  0
INSERT
  5
1EB
  8
0
  2
TFIELD_00006
 10
381.20634987
 20
-326.99424975
 30
0.0
  0
ENDBLK
  8
0
  0
BLOCK
  8
0
  2
TFIELD_00006
 70
     0
 10
381.20634987
 20
-326.99424975
 30
0.0
  0
TEXT
  5
1EE
  8
TXT_ALL
 10
381.20634987
 20
-328.2942497
 30
0.0
 40
2.5999999
  1
Telefoon: 0527-685156
  7
ARIAL
  0
ENDBLK
  8
0
  0
BLOCK
  8
0
  2
FLEX_00007
 70
     0
 10
451.15134987
 20
-326.99424975
 30
0.0
  0
INSERT
  5
1F1
  8
0
  2
TFIELD_00008
 10
451.15134987
 20
-326.99424975
 30
0.0
  0
ENDBLK
  8
0
  0
BLOCK
  8
0
  2
TFIELD_00008
 70
     0
 10
451.15134987
 20
-326.99424975
 30
0.0
  0
TEXT
  5
1F4
  8
TXT_ALL
 10
451.15134987
 20
-328.2942497
 30
0.0
 40
2.5999999
  1
Website: www.jonkers-bouwmetaal.nl
  7
ARIAL
  0
ENDBLK
  8
0
  0
BLOCK
  8
0
  2
FLEX_00009
 70
     0
 10
451.15134987
 20
-317.24424975
 30
0.0
  0
INSERT
  5
1F7
  8
0
  2
TFIELD_00010
 10
451.15134987
 20
-317.24424975
 30
0.0
  0
ENDBLK
  8
0
  0
BLOCK
  8
0
  2
TFIELD_00010
 70
     0
 10
451.15134987
 20
-317.24424975
 30
0.0
  0
TEXT
  5
1FA
  8
TXT_ALL
 10
451.15134987
 20
-318.5442497
 30
0.0
 40
2.5999999
  1
Adres: Hoornse Hop 10, 8321 WX Urk
  7
ARIAL
  0
ENDBLK
  8
0
  0
BLOCK
  8
0
  2
SCHRIFE_00011
 70
     0
 10
179.62831012
 20
-49.86924975
 30
0.0
  0
TEXT
  5
1FD
  8
TXT_ALL
 10
179.62831012
 20
-51.11924975
 30
0.0
 40
2.5
  1
Art. nr. 91017438
  7
ARIAL
  0
TEXT
  5
1FE
  8
TXT_ALL
 10
222.36634693
 20
-51.11924975
 30
0.0
 40
2.5
  1
Omschrijving: SVH02-anker z. ril 60x40 60x2.5
  7
ARIAL
  0
LINE
  5
1FF
  8
0
 10
586.18634987
 20
-54.86924975
 30
0.0
 11
176.18634987
 21
-54.86924975
 31
0.0
  0
LINE
  5
200
  8
0
 10
219.20634987
 20
-54.86924975
 30
0.0
 11
219.20634987
 21
-44.86924975
 31
0.0
  0
LINE
  5
201
  8
0
 10
379.20634987
 20
-54.86924975
 30
0.0
 11
379.20634987
 21
-44.86924975
 31
0.0
  0
TEXT
  5
202
  8
TXT_ALL
 10
450.20004987
 20
-51.11924975
 30
0.0
 40
2.5
  1
Behandeling: Sendzimir verzinkt
  7
ARIAL
  0
LINE
  5
203
  8
0
 10
519.09634987
 20
-312.36924975
 30
0.0
 11
586.18634987
 21
-312.36924975
 31
0.0
  0
LINE
  5
204
  8
0
 10
519.09634987
 20
-331.86924975
 30
0.0
 11
519.09634987
 21
-312.36924975
 31
0.0
  0
LINE
  5
205
  8
0
 10
519.09634987
 20
-331.86924975
 30
0.0
 11
519.09634987
 21
-312.36924975
 31
0.0
  0
TEXT
  5
206
  8
TXT_ALL
 10
313.55154796
 20
-330.71471633
 30
0.0
 40
2.5
  1

  0
TEXT
  5
207
  8
TXT_ALL
 10
434.68673092
 20
-320.61924975
 30
0.0
 40
2.5
  1

  0
POLYLINE
  5
208
  8
0
 66
     1
 10
0.0
 20
0.0
 30
0.0
  0
VERTEX
  5
209
  8
0
 10
517.19304987
 20
-54.86924975
 30
0.0
  0
VERTEX
  5
20A
  8
0
 10
448.20004987
 20
-54.86924975
 30
0.0
  0
VERTEX
  5
20B
  8
0
 10
448.20004987
 20
-44.86924975
 30
0.0
  0
SEQEND
  5
20C
  8
0
  0
TEXT
  5
20D
  8
TXT_ALL
 10
519.19304987
 20
-51.11924975
 30
0.0
 40
2.5
  1
Verpakkingshoeveelheid: 100 st.
  7
ARIAL
  0
TEXT
  5
20E
  8
TXT_ALL
 10
381.20634987
 20
-51.11924975
 30
0.0
 40
2.5
  1
Materiaal: S350
  7
ARIAL
  0
INSERT
  5
20F
  8
0
  2
FLEX_00012
 10
560.76158528
 20
-335.86875959
 30
0.0
  0
INSERT
  5
210
  8
0
  2
_B_M_P___00014
 10
519.85571718
 20
-331.07656769
 30
0.0
  0
ENDBLK
  8
0
  0
BLOCK
  8
0
  2
FLEX_00012
 70
     0
 10
560.76158528
 20
-335.86875959
 30
0.0
  0
INSERT
  5
213
  8
0
  2
TFIELD_00013
 10
553.96799709
 20
-334.36875959
 30
0.0
  0
ENDBLK
  8
0
  0
BLOCK
  8
0
  2
TFIELD_00013
 70
     0
 10
553.96799709
 20
-334.36875959
 30
0.0
  0
TEXT
  5
216
  8
TXT_ALL
 10
553.96799709
 20
-335.11875959
 30
0.0
 40
1.5
  1
Onderdeel van
  7
ARIAL
  0
ENDBLK
  8
0
  0
BLOCK
  8
0
  2
_B_M_P___00014
 70
     0
 10
519.85571718
 20
-331.07656769
 30
0.0
  0
ENDBLK
  8
0
  0
BLOCK
  8
0
  2
_B_M_P___00015
 70
     0
 10
568.02877594
 20
-336.75924975
 30
0.0
  0
ENDBLK
  8
0
  0
BLOCK
  8
0
  2
_ANS0003_00016
 70
     0
 10
0.0
 20
0.0
 30
0.0
  0
INSERT
  5
21D
  8
0
  2
_A3D0003_00017
 10
0.0
 20
0.0
 30
0.0
  0
ENDBLK
  8
0
  0
BLOCK
  8
0
  2
_A3D0003_00017
 70
     0
 10
0.0
 20
0.0
 30
0.0
  0
INSERT
  5
220
  8
0
  2
PLAATWERK__D___2_5MM_00018
 10
0.0
 20
0.0
 30
0.0
  0
ENDBLK
  8
0
  0
BLOCK
  8
0
  2
PLAATWERK__D___2_5MM_00018
 70
     0
 10
0.0
 20
0.0
 30
0.0
  0
INSERT
  5
223
  8
0
  2
SHEET_FLANGE_00019
 10
0.0
 20
0.0
 30
0.0
  0
INSERT
  5
224
  8
0
  2
BEND_ZONE_00023
 10
0.0
 20
0.0
 30
0.0
  0
INSERT
  5
225
  8
0
  2
SHEET_FLANGE_00025
 10
0.0
 20
0.0
 30
0.0
  0
ENDBLK
  8
0
  0
BLOCK
  8
0
  2
SHEET_FLANGE_00019
 70
     0
 10
0.0
 20
0.0
 30
0.0
  0
INSERT
  5
228
  8
0
  2
SHEET_FLANGE_00020
 10
228.29214276
 20
-239.58188647
 30
0.0
  0
INSERT
  5
229
  8
0
  2
_00021
 10
0.0
 20
0.0
 30
0.0
  0
ENDBLK
  8
0
  0
BLOCK
  8
0
  2
SHEET_FLANGE_00020
 70
     0
 10
228.29214276
 20
-239.58188647
 30
0.0
  0
LINE
  5
22C
  8
LE_ALL
  6
DOT
 62
     3
 10
228.29214276
 20
-239.58188647
 30
0.0
 11
228.29214276
 21
-239.58188647
 31
0.0
  0
LINE
  5
22D
  8
LE_ALL
  6
DOT
 62
     3
 10
228.29214276
 20
-237.08188647
 30
0.0
 11
228.29214276
 21
-237.08188647
 31
0.0
  0
LINE
  5
22E
  8
LE_ALL
  6
DOT
 62
     3
 10
283.29214276
 20
-239.58188647
 30
0.0
 11
283.29214276
 21
-239.58188647
 31
0.0
  0
LINE
  5
22F
  8
LE_ALL
  6
DOT
 62
     3
 10
283.29214276
 20
-237.08188647
 30
0.0
 11
283.29214276
 21
-237.08188647
 31
0.0
  0
LINE
  5
230
  8
LE_ALL
  6
DOT
 62
     3
 10
259.29214276
 20
-239.58188647
 30
0.0
 11
259.29214276
 21
-237.08188647
 31
0.0
  0
LINE
  5
231
  8
LE_ALL
  6
DOT
 62
     3
 10
240.29214276
 20
-239.58188647
 30
0.0
 11
240.29214276
 21
-237.08188647
 31
0.0
  0
LINE
  5
232
  8
LE_ALL
  6
DOT
 62
     3
 10
237.29214276
 20
-237.08188647
 30
0.0
 11
237.29214276
 21
-239.58188647
 31
0.0
  0
LINE
  5
233
  8
LE_ALL
  6
DOT
 62
     3
 10
241.29214276
 20
-237.08188647
 30
0.0
 11
241.29214276
 21
-239.58188647
 31
0.0
  0
LINE
  5
234
  8
LE_ALL
  6
DOT
 62
     3
 10
275.29214276
 20
-237.08188647
 30
0.0
 11
275.29214276
 21
-239.58188647
 31
0.0
  0
LINE
  5
235
  8
LE_ALL
  6
DOT
 62
     3
 10
279.29214276
 20
-237.08188647
 30
0.0
 11
279.29214276
 21
-239.58188647
 31
0.0
  0
LINE
  5
236
  8
LE_ALL
  6
DOT
 62
     3
 10
256.29214276
 20
-237.08188647
 30
0.0
 11
256.29214276
 21
-239.58188647
 31
0.0
  0
LINE
  5
237
  8
LE_ALL
  6
DOT
 62
     3
 10
262.29214276
 20
-237.08188647
 30
0.0
 11
262.29214276
 21
-239.58188647
 31
0.0
  0
LINE
  5
238
  8
LE_ALL
  6
DOT
 62
     3
 10
234.79214276
 20
-239.58188647
 30
0.0
 11
234.79214276
 21
-237.08188647
 31
0.0
  0
LINE
  5
239
  8
LE_ALL
  6
DOT
 62
     3
 10
264.79214276
 20
-239.58188647
 30
0.0
 11
264.79214276
 21
-237.08188647
 31
0.0
  0
LINE
  5
23A
  8
LE_ALL
 10
279.79214276
 20
-237.08188647
 30
0.0
 11
228.29214276
 21
-237.08188647
 31
0.0
  0
POLYLINE
  5
23B
  8
LE_ALL
 66
     1
 10
0.0
 20
0.0
 30
0.0
  0
VERTEX
  5
23C
  8
LE_ALL
 10
228.29214276
 20
-239.58188647
 30
0.0
  0
VERTEX
  5
23D
  8
LE_ALL
 10
279.79214276
 20
-239.58188647
 30
0.0
  0
VERTEX
  5
23E
  8
LE_ALL
 10
279.79214276
 20
-237.08188647
 30
0.0
  0
VERTEX
  5
23F
  8
LE_ALL
 10
283.29214276
 20
-237.08188647
 30
0.0
  0
SEQEND
  5
240
  8
LE_ALL
  0
LINE
  5
241
  8
LE_ALL
 10
283.29214276
 20
-239.58188647
 30
0.0
 11
283.29214276
 21
-237.08188647
 31
0.0
  0
LINE
  5
242
  8
LE_ALL
 10
283.29214276
 20
-239.58188647
 30
0.0
 11
279.79214276
 21
-239.58188647
 31
0.0
  0
ENDBLK
  8
0
  0
BLOCK
  8
0
  2
_00021
 70
     0
 10
0.0
 20
0.0
 30
0.0
  0
INSERT
  5
245
  8
0
  2
_00022
 10
277.29214276
 20
-236.08188647
 30
0.0
  0
ENDBLK
  8
0
  0
BLOCK
  8
0
  2
_00022
 70
     0
 10
277.29214276
 20
-236.08188647
 30
0.0
  0
LINE
  5
248
  8
LE_ALL
  6
STRICHPUNKT2
 62
     1
 10
277.29214276
 20
-236.08188647
 30
0.0
 11
277.29214276
 21
-240.58188647
 31
0.0
  0
LINE
  5
249
  8
LE_ALL
  6
STRICHPUNKT2
 62
     1
 10
259.29214276
 20
-234.33188647
 30
0.0
 11
259.29214276
 21
-242.33188647
 31
0.0
  0
LINE
  5
24A
  8
LE_ALL
  6
STRICHPUNKT2
 62
     1
 10
240.29214276
 20
-234.33188647
 30
0.0
 11
240.29214276
 21
-242.33188647
 31
0.0
  0
LINE
  5
24B
  8
LE_ALL
  6
STRICHPUNKT2
 62
     1
 10
239.29214276
 20
-236.08188647
 30
0.0
 11
239.29214276
 21
-240.58188647
 31
0.0
  0
LINE
  5
24C
  8
LE_ALL
  6
STRICHPUNKT2
 62
     1
 10
239.29214276
 20
-236.08188647
 30
0.0
 11
239.29214276
 21
-240.58188647
 31
0.0
  0
LINE
  5
24D
  8
LE_ALL
  6
STRICHPUNKT2
 62
     1
 10
259.29214276
 20
-235.58188647
 30
0.0
 11
259.29214276
 21
-241.08188647
 31
0.0
  0
LINE
  5
24E
  8
LE_ALL
  6
STRICHPUNKT2
 62
     1
 10
277.29214276
 20
-236.08188647
 30
0.0
 11
277.29214276
 21
-240.58188647
 31
0.0
  0
LINE
  5
24F
  8
LE_ALL
  6
STRICHPUNKT2
 62
     1
 10
259.29214276
 20
-235.58188647
 30
0.0
 11
259.29214276
 21
-241.08188647
 31
0.0
  0
LINE
  5
250
  8
LE_ALL
  6
STRICHPUNKT2
 62
     1
 10
277.29214276
 20
-236.08188647
 30
0.0
 11
277.29214276
 21
-240.58188647
 31
0.0
  0
ENDBLK
  8
0
  0
BLOCK
  8
0
  2
BEND_ZONE_00023
 70
     0
 10
0.0
 20
0.0
 30
0.0
  0
INSERT
  5
253
  8
0
  2
BEND_ZONE_00024
 10
223.29214276
 20
-234.58188647
 30
0.0
  0
ENDBLK
  8
0
  0
BLOCK
  8
0
  2
BEND_ZONE_00024
 70
     0
 10
223.29214276
 20
-234.58188647
 30
0.0
  0
LINE
  5
256
  8
LE_ALL
  6
DOT
 62
     3
 10
223.29214276
 20
-234.58188647
 30
0.0
 11
223.29214276
 21
-234.58188647
 31
0.0
  0
LINE
  5
257
  8
LE_ALL
  6
DOT
 62
     3
 10
225.79214276
 20
-234.58188647
 30
0.0
 11
225.79214276
 21
-234.58188647
 31
0.0
  0
LINE
  5
258
  8
LE_ALL
  6
DOT
 62
     3
 10
228.29214276
 20
-239.58188647
 30
0.0
 11
228.29214276
 21
-239.58188647
 31
0.0
  0
LINE
  5
259
  8
LE_ALL
  6
DOT
 62
     3
 10
228.29214276
 20
-237.08188647
 30
0.0
 11
228.29214276
 21
-237.08188647
 31
0.0
  0
ARC
  5
25A
  8
LE_ALL
 10
228.29214276
 20
-234.58188647
 30
0.0
 40
5.0
 50
180.0
 51
-90.0
  0
ARC
  5
25B
  8
LE_ALL
 10
228.29214276
 20
-234.58188647
 30
0.0
 40
2.5
 50
180.0
 51
-90.0
  0
ENDBLK
  8
0
  0
BLOCK
  8
0
  2
SHEET_FLANGE_00025
 70
     0
 10
0.0
 20
0.0
 30
0.0
  0
INSERT
  5
25E
  8
0
  2
SHEET_FLANGE_00026
 10
223.29214276
 20
-234.58188647
 30
0.0
  0
INSERT
  5
25F
  8
0
  2
_00027
 10
0.0
 20
0.0
 30
0.0
  0
ENDBLK
  8
0
  0
BLOCK
  8
0
  2
SHEET_FLANGE_00026
 70
     0
 10
223.29214276
 20
-234.58188647
 30
0.0
  0
LINE
  5
262
  8
LE_ALL
  6
DOT
 62
     3
 10
223.29214276
 20
-234.58188647
 30
0.0
 11
223.29214276
 21
-234.58188647
 31
0.0
  0
LINE
  5
263
  8
LE_ALL
  6
DOT
 62
     3
 10
225.79214276
 20
-234.58188647
 30
0.0
 11
225.79214276
 21
-234.58188647
 31
0.0
  0
LINE
  5
264
  8
LE_ALL
  6
DOT
 62
     3
 10
223.29214276
 20
-199.58188647
 30
0.0
 11
223.29214276
 21
-199.58188647
 31
0.0
  0
LINE
  5
265
  8
LE_ALL
  6
DOT
 62
     3
 10
225.79214276
 20
-199.58188647
 30
0.0
 11
225.79214276
 21
-199.58188647
 31
0.0
  0
LINE
  5
266
  8
LE_ALL
  6
DOT
 62
     3
 10
225.79214276
 20
-222.58188647
 30
0.0
 11
223.29214276
 21
-222.58188647
 31
0.0
  0
LINE
  5
267
  8
LE_ALL
  6
DOT
 62
     3
 10
225.79214276
 20
-226.58188647
 30
0.0
 11
223.29214276
 21
-226.58188647
 31
0.0
  0
LINE
  5
268
  8
LE_ALL
  6
DOT
 62
     3
 10
225.79214276
 20
-203.58188647
 30
0.0
 11
223.29214276
 21
-203.58188647
 31
0.0
  0
LINE
  5
269
  8
LE_ALL
  6
DOT
 62
     3
 10
225.79214276
 20
-207.58188647
 30
0.0
 11
223.29214276
 21
-207.58188647
 31
0.0
  0
LINE
  5
26A
  8
LE_ALL
  6
DOT
 62
     3
 10
225.79214276
 20
-210.08188647
 30
0.0
 11
223.29214276
 21
-210.08188647
 31
0.0
  0
LINE
  5
26B
  8
LE_ALL
  6
DOT
 62
     3
 10
225.79214276
 20
-219.08188647
 30
0.0
 11
223.29214276
 21
-219.08188647
 31
0.0
  0
LINE
  5
26C
  8
LE_ALL
  6
DOT
 62
     3
 10
225.79214276
 20
-213.08188647
 30
0.0
 11
223.29214276
 21
-213.08188647
 31
0.0
  0
LINE
  5
26D
  8
LE_ALL
  6
DOT
 62
     3
 10
225.79214276
 20
-224.08188647
 30
0.0
 11
223.29214276
 21
-224.08188647
 31
0.0
  0
LINE
  5
26E
  8
LE_ALL
 10
223.29214276
 20
-234.58188647
 30
0.0
 11
223.29214276
 21
-203.08188647
 31
0.0
  0
LINE
  5
26F
  8
LE_ALL
 10
225.79214276
 20
-203.08188647
 30
0.0
 11
223.29214276
 21
-203.08188647
 31
0.0
  0
LINE
  5
270
  8
LE_ALL
 10
225.79214276
 20
-203.08188647
 30
0.0
 11
225.79214276
 21
-234.58188647
 31
0.0
  0
LINE
  5
271
  8
LE_ALL
 10
225.79214276
 20
-199.58188647
 30
0.0
 11
225.79214276
 21
-203.08188647
 31
0.0
  0
LINE
  5
272
  8
LE_ALL
 10
225.79214276
 20
-199.58188647
 30
0.0
 11
223.29214276
 21
-199.58188647
 31
0.0
  0
LINE
  5
273
  8
LE_ALL
 10
223.29214276
 20
-203.08188647
 30
0.0
 11
223.29214276
 21
-199.58188647
 31
0.0
  0
ENDBLK
  8
0
  0
BLOCK
  8
0
  2
_00027
 70
     0
 10
0.0
 20
0.0
 30
0.0
  0
INSERT
  5
276
  8
0
  2
_00028
 10
226.79214276
 20
-205.58188647
 30
0.0
  0
ENDBLK
  8
0
  0
BLOCK
  8
0
  2
_00028
 70
     0
 10
226.79214276
 20
-205.58188647
 30
0.0
  0
LINE
  5
279
  8
LE_ALL
  6
STRICHPUNKT2
 62
     1
 10
226.79214276
 20
-205.58188647
 30
0.0
 11
222.29214276
 21
-205.58188647
 31
0.0
  0
LINE
  5
27A
  8
LE_ALL
  6
STRICHPUNKT2
 62
     1
 10
228.54214276
 20
-218.58188647
 30
0.0
 11
220.54214276
 21
-218.58188647
 31
0.0
  0
LINE
  5
27B
  8
LE_ALL
  6
STRICHPUNKT2
 62
     1
 10
228.04214276
 20
-214.58188647
 30
0.0
 11
221.04214276
 21
-214.58188647
 31
0.0
  0
LINE
  5
27C
  8
LE_ALL
  6
STRICHPUNKT2
 62
     1
 10
226.79214276
 20
-205.58188647
 30
0.0
 11
222.29214276
 21
-205.58188647
 31
0.0
  0
LINE
  5
27D
  8
LE_ALL
  6
STRICHPUNKT2
 62
     1
 10
226.79214276
 20
-224.58188647
 30
0.0
 11
222.29214276
 21
-224.58188647
 31
0.0
  0
LINE
  5
27E
  8
LE_ALL
  6
STRICHPUNKT2
 62
     1
 10
226.79214276
 20
-224.58188647
 30
0.0
 11
222.29214276
 21
-224.58188647
 31
0.0
  0
LINE
  5
27F
  8
LE_ALL
  6
STRICHPUNKT2
 62
     1
 10
228.04214276
 20
-214.58188647
 30
0.0
 11
221.04214276
 21
-214.58188647
 31
0.0
  0
LINE
  5
280
  8
LE_ALL
  6
STRICHPUNKT2
 62
     1
 10
226.79214276
 20
-205.58188647
 30
0.0
 11
222.29214276
 21
-205.58188647
 31
0.0
  0
ENDBLK
  8
0
  0
BLOCK
  8
0
  2
_ANS0004_00029
 70
     0
 10
0.0
 20
0.0
 30
0.0
  0
INSERT
  5
283
  8
0
  2
_A3D0004_00030
 10
0.0
 20
0.0
 30
0.0
  0
ENDBLK
  8
0
  0
BLOCK
  8
0
  2
_A3D0004_00030
 70
     0
 10
0.0
 20
0.0
 30
0.0
  0
INSERT
  5
286
  8
0
  2
PLAATWERK__D___2_5MM_00031
 10
0.0
 20
0.0
 30
0.0
  0
ENDBLK
  8
0
  0
BLOCK
  8
0
  2
PLAATWERK__D___2_5MM_00031
 70
     0
 10
0.0
 20
0.0
 30
0.0
  0
INSERT
  5
289
  8
0
  2
SHEET_FLANGE_00032
 10
0.0
 20
0.0
 30
0.0
  0
INSERT
  5
28A
  8
0
  2
BEND_ZONE_00036
 10
0.0
 20
0.0
 30
0.0
  0
INSERT
  5
28B
  8
0
  2
SHEET_FLANGE_00038
 10
0.0
 20
0.0
 30
0.0
  0
ENDBLK
  8
0
  0
BLOCK
  8
0
  2
SHEET_FLANGE_00032
 70
     0
 10
0.0
 20
0.0
 30
0.0
  0
INSERT
  5
28E
  8
0
  2
SHEET_FLANGE_00033
 10
398.41481932
 20
-239.58188647
 30
0.0
  0
INSERT
  5
28F
  8
0
  2
_00034
 10
0.0
 20
0.0
 30
0.0
  0
ENDBLK
  8
0
  0
BLOCK
  8
0
  2
SHEET_FLANGE_00033
 70
     0
 10
398.41481932
 20
-239.58188647
 30
0.0
  0
LINE
  5
292
  8
LE_ALL
  6
DOT
 62
     3
 10
398.41481932
 20
-239.58188647
 30
0.0
 11
398.41481932
 21
-239.58188647
 31
0.0
  0
LINE
  5
293
  8
LE_ALL
  6
DOT
 62
     3
 10
398.41481932
 20
-237.08188647
 30
0.0
 11
398.41481932
 21
-237.08188647
 31
0.0
  0
LINE
  5
294
  8
LE_ALL
  6
DOT
 62
     3
 10
338.41481932
 20
-239.58188647
 30
0.0
 11
338.41481932
 21
-239.58188647
 31
0.0
  0
LINE
  5
295
  8
LE_ALL
  6
DOT
 62
     3
 10
362.91481932
 20
-239.58188647
 30
0.0
 11
362.91481932
 21
-239.58188647
 31
0.0
  0
LINE
  5
296
  8
LE_ALL
  6
DOT
 62
     3
 10
373.91481932
 20
-239.58188647
 30
0.0
 11
373.91481932
 21
-239.58188647
 31
0.0
  0
LINE
  5
297
  8
LE_ALL
  6
DOT
 62
     3
 10
338.41481932
 20
-237.08188647
 30
0.0
 11
338.41481932
 21
-237.08188647
 31
0.0
  0
LINE
  5
298
  8
LE_ALL
  6
DOT
 62
     3
 10
373.91481932
 20
-237.08188647
 30
0.0
 11
373.91481932
 21
-237.08188647
 31
0.0
  0
LINE
  5
299
  8
LE_ALL
  6
DOT
 62
     3
 10
362.91481932
 20
-237.08188647
 30
0.0
 11
362.91481932
 21
-237.08188647
 31
0.0
  0
LINE
  5
29A
  8
LE_ALL
  6
DOT
 62
     3
 10
373.91481932
 20
-239.58188647
 30
0.0
 11
373.91481932
 21
-237.08188647
 31
0.0
  0
LINE
  5
29B
  8
LE_ALL
  6
DOT
 62
     3
 10
362.91481932
 20
-239.58188647
 30
0.0
 11
362.91481932
 21
-237.08188647
 31
0.0
  0
LINE
  5
29C
  8
LE_ALL
  6
DOT
 62
     3
 10
366.41481932
 20
-237.08188647
 30
0.0
 11
366.41481932
 21
-239.58188647
 31
0.0
  0
LINE
  5
29D
  8
LE_ALL
  6
DOT
 62
     3
 10
370.41481932
 20
-237.08188647
 30
0.0
 11
370.41481932
 21
-239.58188647
 31
0.0
  0
LINE
  5
29E
  8
LE_ALL
  6
DOT
 62
     3
 10
388.41481932
 20
-237.08188647
 30
0.0
 11
388.41481932
 21
-239.58188647
 31
0.0
  0
LINE
  5
29F
  8
LE_ALL
  6
DOT
 62
     3
 10
392.41481932
 20
-237.08188647
 30
0.0
 11
392.41481932
 21
-239.58188647
 31
0.0
  0
LINE
  5
2A0
  8
LE_ALL
  6
DOT
 62
     3
 10
344.41481932
 20
-237.08188647
 30
0.0
 11
344.41481932
 21
-239.58188647
 31
0.0
  0
LINE
  5
2A1
  8
LE_ALL
  6
DOT
 62
     3
 10
348.41481932
 20
-237.08188647
 30
0.0
 11
348.41481932
 21
-239.58188647
 31
0.0
  0
LINE
  5
2A2
  8
LE_ALL
  6
DOT
 62
     3
 10
352.41481932
 20
-237.08188647
 30
0.0
 11
352.41481932
 21
-239.58188647
 31
0.0
  0
LINE
  5
2A3
  8
LE_ALL
  6
DOT
 62
     3
 10
358.41481932
 20
-237.08188647
 30
0.0
 11
358.41481932
 21
-239.58188647
 31
0.0
  0
LINE
  5
2A4
  8
LE_ALL
  6
DOT
 62
     3
 10
378.41481932
 20
-237.08188647
 30
0.0
 11
378.41481932
 21
-239.58188647
 31
0.0
  0
LINE
  5
2A5
  8
LE_ALL
  6
DOT
 62
     3
 10
384.41481932
 20
-237.08188647
 30
0.0
 11
384.41481932
 21
-239.58188647
 31
0.0
  0
LINE
  5
2A6
  8
LE_ALL
 10
394.91481932
 20
-237.08188647
 30
0.0
 11
341.91481932
 21
-237.08188647
 31
0.0
  0
LINE
  5
2A7
  8
LE_ALL
 10
341.91481932
 20
-239.58188647
 30
0.0
 11
341.91481932
 21
-237.08188647
 31
0.0
  0
POLYLINE
  5
2A8
  8
LE_ALL
 66
     1
 10
0.0
 20
0.0
 30
0.0
  0
VERTEX
  5
2A9
  8
LE_ALL
 10
341.91481932
 20
-239.58188647
 30
0.0
  0
VERTEX
  5
2AA
  8
LE_ALL
 10
394.91481932
 20
-239.58188647
 30
0.0
  0
VERTEX
  5
2AB
  8
LE_ALL
 10
394.91481932
 20
-237.08188647
 30
0.0
  0
VERTEX
  5
2AC
  8
LE_ALL
 10
398.41481932
 20
-237.08188647
 30
0.0
  0
SEQEND
  5
2AD
  8
LE_ALL
  0
LINE
  5
2AE
  8
LE_ALL
 10
398.41481932
 20
-239.58188647
 30
0.0
 11
398.41481932
 21
-237.08188647
 31
0.0
  0
LINE
  5
2AF
  8
LE_ALL
 10
398.41481932
 20
-239.58188647
 30
0.0
 11
394.91481932
 21
-239.58188647
 31
0.0
  0
POLYLINE
  5
2B0
  8
LE_ALL
 66
     1
 10
0.0
 20
0.0
 30
0.0
  0
VERTEX
  5
2B1
  8
LE_ALL
 10
341.91481932
 20
-239.58188647
 30
0.0
  0
VERTEX
  5
2B2
  8
LE_ALL
 10
338.41481932
 20
-239.58188647
 30
0.0
  0
VERTEX
  5
2B3
  8
LE_ALL
 10
338.41481932
 20
-237.08188647
 30
0.0
  0
VERTEX
  5
2B4
  8
LE_ALL
 10
341.91481932
 20
-237.08188647
 30
0.0
  0
SEQEND
  5
2B5
  8
LE_ALL
  0
ENDBLK
  8
0
  0
BLOCK
  8
0
  2
_00034
 70
     0
 10
0.0
 20
0.0
 30
0.0
  0
INSERT
  5
2B8
  8
0
  2
_00035
 10
346.41481932
 20
-236.08188647
 30
0.0
  0
ENDBLK
  8
0
  0
BLOCK
  8
0
  2
_00035
 70
     0
 10
346.41481932
 20
-236.08188647
 30
0.0
  0
LINE
  5
2BB
  8
LE_ALL
  6
STRICHPUNKT2
 62
     1
 10
346.41481932
 20
-236.08188647
 30
0.0
 11
346.41481932
 21
-240.58188647
 31
0.0
  0
LINE
  5
2BC
  8
LE_ALL
  6
STRICHPUNKT2
 62
     1
 10
368.41481932
 20
-234.33188647
 30
0.0
 11
368.41481932
 21
-242.33188647
 31
0.0
  0
LINE
  5
2BD
  8
LE_ALL
  6
STRICHPUNKT2
 62
     1
 10
368.41481932
 20
-234.33188647
 30
0.0
 11
368.41481932
 21
-242.33188647
 31
0.0
  0
LINE
  5
2BE
  8
LE_ALL
  6
STRICHPUNKT2
 62
     1
 10
355.41481932
 20
-235.58188647
 30
0.0
 11
355.41481932
 21
-241.08188647
 31
0.0
  0
LINE
  5
2BF
  8
LE_ALL
  6
STRICHPUNKT2
 62
     1
 10
346.41481932
 20
-236.08188647
 30
0.0
 11
346.41481932
 21
-240.58188647
 31
0.0
  0
LINE
  5
2C0
  8
LE_ALL
  6
STRICHPUNKT2
 62
     1
 10
390.41481932
 20
-236.08188647
 30
0.0
 11
390.41481932
 21
-240.58188647
 31
0.0
  0
LINE
  5
2C1
  8
LE_ALL
  6
STRICHPUNKT2
 62
     1
 10
381.41481932
 20
-235.58188647
 30
0.0
 11
381.41481932
 21
-241.08188647
 31
0.0
  0
LINE
  5
2C2
  8
LE_ALL
  6
STRICHPUNKT2
 62
     1
 10
390.41481932
 20
-236.08188647
 30
0.0
 11
390.41481932
 21
-240.58188647
 31
0.0
  0
LINE
  5
2C3
  8
LE_ALL
  6
STRICHPUNKT2
 62
     1
 10
368.41481932
 20
-236.08188647
 30
0.0
 11
368.41481932
 21
-240.58188647
 31
0.0
  0
ENDBLK
  8
0
  0
BLOCK
  8
0
  2
BEND_ZONE_00036
 70
     0
 10
0.0
 20
0.0
 30
0.0
  0
INSERT
  5
2C6
  8
0
  2
BEND_ZONE_00037
 10
338.41481932
 20
-237.08188647
 30
0.0
  0
ENDBLK
  8
0
  0
BLOCK
  8
0
  2
BEND_ZONE_00037
 70
     0
 10
338.41481932
 20
-237.08188647
 30
0.0
  0
LINE
  5
2C9
  8
LE_ALL
  6
DOT
 62
     3
 10
338.41481932
 20
-237.08188647
 30
0.0
 11
398.41481932
 21
-237.08188647
 31
0.0
  0
LINE
  5
2CA
  8
LE_ALL
 10
338.41481932
 20
-234.58188647
 30
0.0
 11
338.41481932
 21
-237.08188647
 31
0.0
  0
LINE
  5
2CB
  8
LE_ALL
 10
338.41481932
 20
-234.58188647
 30
0.0
 11
398.41481932
 21
-234.58188647
 31
0.0
  0
LINE
  5
2CC
  8
LE_ALL
 10
398.41481932
 20
-237.08188647
 30
0.0
 11
398.41481932
 21
-234.58188647
 31
0.0
  0
ENDBLK
  8
0
  0
BLOCK
  8
0
  2
SHEET_FLANGE_00038
 70
     0
 10
0.0
 20
0.0
 30
0.0
  0
INSERT
  5
2CF
  8
0
  2
SHEET_FLANGE_00039
 10
338.41481932
 20
-203.08188647
 30
0.0
  0
INSERT
  5
2D0
  8
0
  2
_00040
 10
0.0
 20
0.0
 30
0.0
  0
ENDBLK
  8
0
  0
BLOCK
  8
0
  2
SHEET_FLANGE_00039
 70
     0
 10
338.41481932
 20
-203.08188647
 30
0.0
  0
LINE
  5
2D3
  8
LE_ALL
  6
DOT
 62
     3
 10
338.41481932
 20
-203.08188647
 30
0.0
 11
338.41481932
 21
-203.08188647
 31
0.0
  0
LINE
  5
2D4
  8
LE_ALL
  6
DOT
 62
     3
 10
394.91481932
 20
-199.58188647
 30
0.0
 11
394.91481932
 21
-199.58188647
 31
0.0
  0
LINE
  5
2D5
  8
LE_ALL
  6
DOT
 62
     3
 10
341.91481932
 20
-199.58188647
 30
0.0
 11
341.91481932
 21
-199.58188647
 31
0.0
  0
LINE
  5
2D6
  8
LE_ALL
  6
DOT
 62
     3
 10
398.41481932
 20
-203.08188647
 30
0.0
 11
398.41481932
 21
-203.08188647
 31
0.0
  0
CIRCLE
  5
2D7
  8
LE_ALL
 10
368.41481932
 20
-218.58188647
 30
0.0
 40
5.5
  0
CIRCLE
  5
2D8
  8
LE_ALL
 10
383.41481932
 20
-214.58188647
 30
0.0
 40
4.5
  0
CIRCLE
  5
2D9
  8
LE_ALL
 10
353.41481932
 20
-214.58188647
 30
0.0
 40
4.5
  0
CIRCLE
  5
2DA
  8
LE_ALL
 10
381.41481932
 20
-224.58188647
 30
0.0
 40
2.0
  0
CIRCLE
  5
2DB
  8
LE_ALL
 10
355.41481932
 20
-224.58188647
 30
0.0
 40
2.0
  0
CIRCLE
  5
2DC
  8
LE_ALL
 10
390.41481932
 20
-205.58188647
 30
0.0
 40
2.0
  0
CIRCLE
  5
2DD
  8
LE_ALL
 10
368.41481932
 20
-205.58188647
 30
0.0
 40
2.0
  0
CIRCLE
  5
2DE
  8
LE_ALL
 10
346.41481932
 20
-205.58188647
 30
0.0
 40
2.0
  0
POLYLINE
  5
2DF
  8
LE_ALL
 66
     1
 10
0.0
 20
0.0
 30
0.0
 70
     1
  0
VERTEX
  5
2E0
  8
LE_ALL
 10
338.41481932
 20
-203.08188647
 30
0.0
  0
VERTEX
  5
2E1
  8
LE_ALL
 10
338.41481932
 20
-234.58188647
 30
0.0
  0
VERTEX
  5
2E2
  8
LE_ALL
 10
398.41481932
 20
-234.58188647
 30
0.0
  0
VERTEX
  5
2E3
  8
LE_ALL
 10
398.41481932
 20
-203.08188647
 30
0.0
  0
VERTEX
  5
2E4
  8
LE_ALL
 10
394.91481932
 20
-199.58188647
 30
0.0
  0
VERTEX
  5
2E5
  8
LE_ALL
 10
341.91481932
 20
-199.58188647
 30
0.0
  0
SEQEND
  5
2E6
  8
LE_ALL
  0
ENDBLK
  8
0
  0
BLOCK
  8
0
  2
_00040
 70
     0
 10
0.0
 20
0.0
 30
0.0
  0
INSERT
  5
2E9
  8
0
  2
_00041
 10
346.41481932
 20
-205.58188647
 30
0.0
  0
ENDBLK
  8
0
  0
BLOCK
  8
0
  2
_00041
 70
     0
 10
346.41481932
 20
-205.58188647
 30
0.0
  0
LINE
  5
2EC
  8
LE_ALL
  6
STRICHPUNKT2
 62
     1
 10
346.41481932
 20
-205.58188647
 30
0.0
 11
349.41481932
 21
-205.58188647
 31
0.0
  0
LINE
  5
2ED
  8
LE_ALL
  6
STRICHPUNKT2
 62
     1
 10
346.41481932
 20
-205.58188647
 30
0.0
 11
343.41481932
 21
-205.58188647
 31
0.0
  0
LINE
  5
2EE
  8
LE_ALL
  6
STRICHPUNKT2
 62
     1
 10
346.41481932
 20
-205.58188647
 30
0.0
 11
346.41481932
 21
-202.58188647
 31
0.0
  0
LINE
  5
2EF
  8
LE_ALL
  6
STRICHPUNKT2
 62
     1
 10
346.41481932
 20
-205.58188647
 30
0.0
 11
346.41481932
 21
-208.58188647
 31
0.0
  0
LINE
  5
2F0
  8
LE_ALL
  6
STRICHPUNKT2
 62
     1
 10
346.41481932
 20
-205.58188647
 30
0.0
 11
349.41481932
 21
-205.58188647
 31
0.0
  0
LINE
  5
2F1
  8
LE_ALL
  6
STRICHPUNKT2
 62
     1
 10
346.41481932
 20
-205.58188647
 30
0.0
 11
343.41481932
 21
-205.58188647
 31
0.0
  0
LINE
  5
2F2
  8
LE_ALL
  6
STRICHPUNKT2
 62
     1
 10
346.41481932
 20
-205.58188647
 30
0.0
 11
346.41481932
 21
-202.58188647
 31
0.0
  0
LINE
  5
2F3
  8
LE_ALL
  6
STRICHPUNKT2
 62
     1
 10
346.41481932
 20
-205.58188647
 30
0.0
 11
346.41481932
 21
-208.58188647
 31
0.0
  0
LINE
  5
2F4
  8
LE_ALL
  6
STRICHPUNKT2
 62
     1
 10
368.41481932
 20
-205.58188647
 30
0.0
 11
371.41481932
 21
-205.58188647
 31
0.0
  0
LINE
  5
2F5
  8
LE_ALL
  6
STRICHPUNKT2
 62
     1
 10
368.41481932
 20
-205.58188647
 30
0.0
 11
365.41481932
 21
-205.58188647
 31
0.0
  0
LINE
  5
2F6
  8
LE_ALL
  6
STRICHPUNKT2
 62
     1
 10
368.41481932
 20
-205.58188647
 30
0.0
 11
368.41481932
 21
-202.58188647
 31
0.0
  0
LINE
  5
2F7
  8
LE_ALL
  6
STRICHPUNKT2
 62
     1
 10
368.41481932
 20
-205.58188647
 30
0.0
 11
368.41481932
 21
-208.58188647
 31
0.0
  0
LINE
  5
2F8
  8
LE_ALL
  6
STRICHPUNKT2
 62
     1
 10
368.41481932
 20
-205.58188647
 30
0.0
 11
371.41481932
 21
-205.58188647
 31
0.0
  0
LINE
  5
2F9
  8
LE_ALL
  6
STRICHPUNKT2
 62
     1
 10
368.41481932
 20
-205.58188647
 30
0.0
 11
365.41481932
 21
-205.58188647
 31
0.0
  0
LINE
  5
2FA
  8
LE_ALL
  6
STRICHPUNKT2
 62
     1
 10
368.41481932
 20
-205.58188647
 30
0.0
 11
368.41481932
 21
-202.58188647
 31
0.0
  0
LINE
  5
2FB
  8
LE_ALL
  6
STRICHPUNKT2
 62
     1
 10
368.41481932
 20
-205.58188647
 30
0.0
 11
368.41481932
 21
-208.58188647
 31
0.0
  0
LINE
  5
2FC
  8
LE_ALL
  6
STRICHPUNKT2
 62
     1
 10
390.41481932
 20
-205.58188647
 30
0.0
 11
393.41481932
 21
-205.58188647
 31
0.0
  0
LINE
  5
2FD
  8
LE_ALL
  6
STRICHPUNKT2
 62
     1
 10
390.41481932
 20
-205.58188647
 30
0.0
 11
387.41481932
 21
-205.58188647
 31
0.0
  0
LINE
  5
2FE
  8
LE_ALL
  6
STRICHPUNKT2
 62
     1
 10
390.41481932
 20
-205.58188647
 30
0.0
 11
390.41481932
 21
-202.58188647
 31
0.0
  0
LINE
  5
2FF
  8
LE_ALL
  6
STRICHPUNKT2
 62
     1
 10
390.41481932
 20
-205.58188647
 30
0.0
 11
390.41481932
 21
-208.58188647
 31
0.0
  0
LINE
  5
300
  8
LE_ALL
  6
STRICHPUNKT2
 62
     1
 10
390.41481932
 20
-205.58188647
 30
0.0
 11
393.41481932
 21
-205.58188647
 31
0.0
  0
LINE
  5
301
  8
LE_ALL
  6
STRICHPUNKT2
 62
     1
 10
390.41481932
 20
-205.58188647
 30
0.0
 11
387.41481932
 21
-205.58188647
 31
0.0
  0
LINE
  5
302
  8
LE_ALL
  6
STRICHPUNKT2
 62
     1
 10
390.41481932
 20
-205.58188647
 30
0.0
 11
390.41481932
 21
-202.58188647
 31
0.0
  0
LINE
  5
303
  8
LE_ALL
  6
STRICHPUNKT2
 62
     1
 10
390.41481932
 20
-205.58188647
 30
0.0
 11
390.41481932
 21
-208.58188647
 31
0.0
  0
LINE
  5
304
  8
LE_ALL
  6
STRICHPUNKT2
 62
     1
 10
355.41481932
 20
-224.58188647
 30
0.0
 11
358.41481932
 21
-224.58188647
 31
0.0
  0
LINE
  5
305
  8
LE_ALL
  6
STRICHPUNKT2
 62
     1
 10
355.41481932
 20
-224.58188647
 30
0.0
 11
352.41481932
 21
-224.58188647
 31
0.0
  0
LINE
  5
306
  8
LE_ALL
  6
STRICHPUNKT2
 62
     1
 10
355.41481932
 20
-224.58188647
 30
0.0
 11
355.41481932
 21
-221.58188647
 31
0.0
  0
LINE
  5
307
  8
LE_ALL
  6
STRICHPUNKT2
 62
     1
 10
355.41481932
 20
-224.58188647
 30
0.0
 11
355.41481932
 21
-227.58188647
 31
0.0
  0
LINE
  5
308
  8
LE_ALL
  6
STRICHPUNKT2
 62
     1
 10
355.41481932
 20
-224.58188647
 30
0.0
 11
358.41481932
 21
-224.58188647
 31
0.0
  0
LINE
  5
309
  8
LE_ALL
  6
STRICHPUNKT2
 62
     1
 10
355.41481932
 20
-224.58188647
 30
0.0
 11
352.41481932
 21
-224.58188647
 31
0.0
  0
LINE
  5
30A
  8
LE_ALL
  6
STRICHPUNKT2
 62
     1
 10
355.41481932
 20
-224.58188647
 30
0.0
 11
355.41481932
 21
-221.58188647
 31
0.0
  0
LINE
  5
30B
  8
LE_ALL
  6
STRICHPUNKT2
 62
     1
 10
355.41481932
 20
-224.58188647
 30
0.0
 11
355.41481932
 21
-227.58188647
 31
0.0
  0
LINE
  5
30C
  8
LE_ALL
  6
STRICHPUNKT2
 62
     1
 10
381.41481932
 20
-224.58188647
 30
0.0
 11
384.41481932
 21
-224.58188647
 31
0.0
  0
LINE
  5
30D
  8
LE_ALL
  6
STRICHPUNKT2
 62
     1
 10
381.41481932
 20
-224.58188647
 30
0.0
 11
378.41481932
 21
-224.58188647
 31
0.0
  0
LINE
  5
30E
  8
LE_ALL
  6
STRICHPUNKT2
 62
     1
 10
381.41481932
 20
-224.58188647
 30
0.0
 11
381.41481932
 21
-221.58188647
 31
0.0
  0
LINE
  5
30F
  8
LE_ALL
  6
STRICHPUNKT2
 62
     1
 10
381.41481932
 20
-224.58188647
 30
0.0
 11
381.41481932
 21
-227.58188647
 31
0.0
  0
LINE
  5
310
  8
LE_ALL
  6
STRICHPUNKT2
 62
     1
 10
381.41481932
 20
-224.58188647
 30
0.0
 11
384.41481932
 21
-224.58188647
 31
0.0
  0
LINE
  5
311
  8
LE_ALL
  6
STRICHPUNKT2
 62
     1
 10
381.41481932
 20
-224.58188647
 30
0.0
 11
378.41481932
 21
-224.58188647
 31
0.0
  0
LINE
  5
312
  8
LE_ALL
  6
STRICHPUNKT2
 62
     1
 10
381.41481932
 20
-224.58188647
 30
0.0
 11
381.41481932
 21
-221.58188647
 31
0.0
  0
LINE
  5
313
  8
LE_ALL
  6
STRICHPUNKT2
 62
     1
 10
381.41481932
 20
-224.58188647
 30
0.0
 11
381.41481932
 21
-227.58188647
 31
0.0
  0
LINE
  5
314
  8
LE_ALL
  6
STRICHPUNKT2
 62
     1
 10
353.41481932
 20
-214.58188647
 30
0.0
 11
360.16481932
 21
-214.58188647
 31
0.0
  0
LINE
  5
315
  8
LE_ALL
  6
STRICHPUNKT2
 62
     1
 10
353.41481932
 20
-214.58188647
 30
0.0
 11
346.66481932
 21
-214.58188647
 31
0.0
  0
LINE
  5
316
  8
LE_ALL
  6
STRICHPUNKT2
 62
     1
 10
353.41481932
 20
-214.58188647
 30
0.0
 11
353.41481932
 21
-207.83188647
 31
0.0
  0
LINE
  5
317
  8
LE_ALL
  6
STRICHPUNKT2
 62
     1
 10
353.41481932
 20
-214.58188647
 30
0.0
 11
353.41481932
 21
-221.33188647
 31
0.0
  0
LINE
  5
318
  8
LE_ALL
  6
STRICHPUNKT2
 62
     1
 10
353.41481932
 20
-214.58188647
 30
0.0
 11
360.16481932
 21
-214.58188647
 31
0.0
  0
LINE
  5
319
  8
LE_ALL
  6
STRICHPUNKT2
 62
     1
 10
353.41481932
 20
-214.58188647
 30
0.0
 11
346.66481932
 21
-214.58188647
 31
0.0
  0
LINE
  5
31A
  8
LE_ALL
  6
STRICHPUNKT2
 62
     1
 10
353.41481932
 20
-214.58188647
 30
0.0
 11
353.41481932
 21
-207.83188647
 31
0.0
  0
LINE
  5
31B
  8
LE_ALL
  6
STRICHPUNKT2
 62
     1
 10
353.41481932
 20
-214.58188647
 30
0.0
 11
353.41481932
 21
-221.33188647
 31
0.0
  0
LINE
  5
31C
  8
LE_ALL
  6
STRICHPUNKT2
 62
     1
 10
383.41481932
 20
-214.58188647
 30
0.0
 11
390.16481932
 21
-214.58188647
 31
0.0
  0
LINE
  5
31D
  8
LE_ALL
  6
STRICHPUNKT2
 62
     1
 10
383.41481932
 20
-214.58188647
 30
0.0
 11
376.66481932
 21
-214.58188647
 31
0.0
  0
LINE
  5
31E
  8
LE_ALL
  6
STRICHPUNKT2
 62
     1
 10
383.41481932
 20
-214.58188647
 30
0.0
 11
383.41481932
 21
-207.83188647
 31
0.0
  0
LINE
  5
31F
  8
LE_ALL
  6
STRICHPUNKT2
 62
     1
 10
383.41481932
 20
-214.58188647
 30
0.0
 11
383.41481932
 21
-221.33188647
 31
0.0
  0
LINE
  5
320
  8
LE_ALL
  6
STRICHPUNKT2
 62
     1
 10
383.41481932
 20
-214.58188647
 30
0.0
 11
390.16481932
 21
-214.58188647
 31
0.0
  0
LINE
  5
321
  8
LE_ALL
  6
STRICHPUNKT2
 62
     1
 10
383.41481932
 20
-214.58188647
 30
0.0
 11
376.66481932
 21
-214.58188647
 31
0.0
  0
LINE
  5
322
  8
LE_ALL
  6
STRICHPUNKT2
 62
     1
 10
383.41481932
 20
-214.58188647
 30
0.0
 11
383.41481932
 21
-207.83188647
 31
0.0
  0
LINE
  5
323
  8
LE_ALL
  6
STRICHPUNKT2
 62
     1
 10
383.41481932
 20
-214.58188647
 30
0.0
 11
383.41481932
 21
-221.33188647
 31
0.0
  0
LINE
  5
324
  8
LE_ALL
  6
STRICHPUNKT2
 62
     1
 10
368.41481932
 20
-218.58188647
 30
0.0
 11
376.66481932
 21
-218.58188647
 31
0.0
  0
LINE
  5
325
  8
LE_ALL
  6
STRICHPUNKT2
 62
     1
 10
368.41481932
 20
-218.58188647
 30
0.0
 11
360.16481932
 21
-218.58188647
 31
0.0
  0
LINE
  5
326
  8
LE_ALL
  6
STRICHPUNKT2
 62
     1
 10
368.41481932
 20
-218.58188647
 30
0.0
 11
368.41481932
 21
-210.33188647
 31
0.0
  0
LINE
  5
327
  8
LE_ALL
  6
STRICHPUNKT2
 62
     1
 10
368.41481932
 20
-218.58188647
 30
0.0
 11
368.41481932
 21
-226.83188647
 31
0.0
  0
LINE
  5
328
  8
LE_ALL
  6
STRICHPUNKT2
 62
     1
 10
368.41481932
 20
-218.58188647
 30
0.0
 11
376.66481932
 21
-218.58188647
 31
0.0
  0
LINE
  5
329
  8
LE_ALL
  6
STRICHPUNKT2
 62
     1
 10
368.41481932
 20
-218.58188647
 30
0.0
 11
360.16481932
 21
-218.58188647
 31
0.0
  0
LINE
  5
32A
  8
LE_ALL
  6
STRICHPUNKT2
 62
     1
 10
368.41481932
 20
-218.58188647
 30
0.0
 11
368.41481932
 21
-210.33188647
 31
0.0
  0
LINE
  5
32B
  8
LE_ALL
  6
STRICHPUNKT2
 62
     1
 10
368.41481932
 20
-218.58188647
 30
0.0
 11
368.41481932
 21
-226.83188647
 31
0.0
  0
ENDBLK
  8
0
  0
BLOCK
  8
0
  2
_ANS0005_00042
 70
     0
 10
0.0
 20
0.0
 30
0.0
  0
INSERT
  5
32E
  8
0
  2
_A3D0005_00043
 10
0.0
 20
0.0
 30
0.0
  0
ENDBLK
  8
0
  0
BLOCK
  8
0
  2
_A3D0005_00043
 70
     0
 10
0.0
 20
0.0
 30
0.0
  0
INSERT
  5
331
  8
0
  2
PLAATWERK__D___2_5MM_00044
 10
0.0
 20
0.0
 30
0.0
  0
ENDBLK
  8
0
  0
BLOCK
  8
0
  2
PLAATWERK__D___2_5MM_00044
 70
     0
 10
0.0
 20
0.0
 30
0.0
  0
INSERT
  5
334
  8
0
  2
SHEET_FLANGE_00045
 10
0.0
 20
0.0
 30
0.0
  0
INSERT
  5
335
  8
0
  2
BEND_ZONE_00049
 10
0.0
 20
0.0
 30
0.0
  0
INSERT
  5
336
  8
0
  2
SHEET_FLANGE_00051
 10
0.0
 20
0.0
 30
0.0
  0
ENDBLK
  8
0
  0
BLOCK
  8
0
  2
SHEET_FLANGE_00045
 70
     0
 10
0.0
 20
0.0
 30
0.0
  0
INSERT
  5
339
  8
0
  2
SHEET_FLANGE_00046
 10
279.79214276
 20
-96.70443646
 30
0.0
  0
INSERT
  5
33A
  8
0
  2
_00047
 10
0.0
 20
0.0
 30
0.0
  0
ENDBLK
  8
0
  0
BLOCK
  8
0
  2
SHEET_FLANGE_00046
 70
     0
 10
279.79214276
 20
-96.70443646
 30
0.0
  0
LINE
  5
33D
  8
LE_ALL
  6
DOT
 62
     3
 10
279.79214276
 20
-96.70443646
 30
0.0
 11
279.79214276
 21
-96.70443646
 31
0.0
  0
LINE
  5
33E
  8
LE_ALL
  6
DOT
 62
     3
 10
283.29214276
 20
-153.20443646
 30
0.0
 11
283.29214276
 21
-153.20443646
 31
0.0
  0
LINE
  5
33F
  8
LE_ALL
  6
DOT
 62
     3
 10
283.29214276
 20
-100.20443646
 30
0.0
 11
283.29214276
 21
-100.20443646
 31
0.0
  0
LINE
  5
340
  8
LE_ALL
  6
DOT
 62
     3
 10
279.79214276
 20
-156.70443646
 30
0.0
 11
279.79214276
 21
-156.70443646
 31
0.0
  0
LINE
  5
341
  8
LE_ALL
  6
DOT
 62
     3
 10
240.29214276
 20
-121.20443646
 30
0.0
 11
240.29214276
 21
-121.20443646
 31
0.0
  0
LINE
  5
342
  8
LE_ALL
  6
DOT
 62
     3
 10
240.29214276
 20
-132.20443646
 30
0.0
 11
240.29214276
 21
-132.20443646
 31
0.0
  0
LINE
  5
343
  8
LE_ALL
  6
DOT
 62
     3
 10
259.29214276
 20
-121.20443646
 30
0.0
 11
259.29214276
 21
-121.20443646
 31
0.0
  0
LINE
  5
344
  8
LE_ALL
  6
DOT
 62
     3
 10
259.29214276
 20
-132.20443646
 30
0.0
 11
259.29214276
 21
-132.20443646
 31
0.0
  0
POLYLINE
  5
345
  8
LE_ALL
 66
     1
 10
0.0
 20
0.0
 30
0.0
 70
     1
  0
VERTEX
  5
346
  8
LE_ALL
 10
240.29214276
 20
-132.20443646
 30
0.0
 42
-1.0
  0
VERTEX
  5
347
  8
LE_ALL
 10
240.29214276
 20
-121.20443646
 30
0.0
  0
VERTEX
  5
348
  8
LE_ALL
 10
259.29214276
 20
-121.20443646
 30
0.0
 42
-1.0
  0
VERTEX
  5
349
  8
LE_ALL
 10
259.29214276
 20
-132.20443646
 30
0.0
  0
SEQEND
  5
34A
  8
LE_ALL
  0
CIRCLE
  5
34B
  8
LE_ALL
 10
259.29214276
 20
-113.70443646
 30
0.0
 40
3.0
  0
CIRCLE
  5
34C
  8
LE_ALL
 10
259.29214276
 20
-139.70443646
 30
0.0
 40
3.0
  0
CIRCLE
  5
34D
  8
LE_ALL
 10
239.29214276
 20
-104.70443646
 30
0.0
 40
2.0
  0
CIRCLE
  5
34E
  8
LE_ALL
 10
239.29214276
 20
-148.70443646
 30
0.0
 40
2.0
  0
CIRCLE
  5
34F
  8
LE_ALL
 10
277.29214276
 20
-104.70443646
 30
0.0
 40
2.0
  0
CIRCLE
  5
350
  8
LE_ALL
 10
277.29214276
 20
-126.70443646
 30
0.0
 40
2.0
  0
CIRCLE
  5
351
  8
LE_ALL
 10
277.29214276
 20
-148.70443646
 30
0.0
 40
2.0
  0
LINE
  5
352
  8
LE_ALL
 10
228.29214276
 20
-96.70443646
 30
0.0
 11
279.79214276
 21
-96.70443646
 31
0.0
  0
LINE
  5
353
  8
LE_ALL
 10
283.29214276
 20
-100.20443646
 30
0.0
 11
279.79214276
 21
-96.70443646
 31
0.0
  0
LINE
  5
354
  8
LE_ALL
 10
283.29214276
 20
-100.20443646
 30
0.0
 11
283.29214276
 21
-153.20443646
 31
0.0
  0
LINE
  5
355
  8
LE_ALL
 10
279.79214276
 20
-156.70443646
 30
0.0
 11
283.29214276
 21
-153.20443646
 31
0.0
  0
POLYLINE
  5
356
  8
LE_ALL
 66
     1
 10
0.0
 20
0.0
 30
0.0
  0
VERTEX
  5
357
  8
LE_ALL
 10
279.79214276
 20
-156.70443646
 30
0.0
  0
VERTEX
  5
358
  8
LE_ALL
 10
228.29214276
 20
-156.70443646
 30
0.0
  0
VERTEX
  5
359
  8
LE_ALL
 10
228.29214276
 20
-96.70443646
 30
0.0
  0
SEQEND
  5
35A
  8
LE_ALL
  0
ENDBLK
  8
0
  0
BLOCK
  8
0
  2
_00047
 70
     0
 10
0.0
 20
0.0
 30
0.0
  0
INSERT
  5
35D
  8
0
  2
_00048
 10
277.29214276
 20
-148.70443646
 30
0.0
  0
ENDBLK
  8
0
  0
BLOCK
  8
0
  2
_00048
 70
     0
 10
277.29214276
 20
-148.70443646
 30
0.0
  0
LINE
  5
360
  8
LE_ALL
  6
STRICHPUNKT2
 62
     1
 10
277.29214276
 20
-148.70443646
 30
0.0
 11
280.29214276
 21
-148.70443646
 31
0.0
  0
LINE
  5
361
  8
LE_ALL
  6
STRICHPUNKT2
 62
     1
 10
277.29214276
 20
-148.70443646
 30
0.0
 11
274.29214276
 21
-148.70443646
 31
0.0
  0
LINE
  5
362
  8
LE_ALL
  6
STRICHPUNKT2
 62
     1
 10
277.29214276
 20
-148.70443646
 30
0.0
 11
277.29214276
 21
-145.70443646
 31
0.0
  0
LINE
  5
363
  8
LE_ALL
  6
STRICHPUNKT2
 62
     1
 10
277.29214276
 20
-148.70443646
 30
0.0
 11
277.29214276
 21
-151.70443646
 31
0.0
  0
LINE
  5
364
  8
LE_ALL
  6
STRICHPUNKT2
 62
     1
 10
277.29214276
 20
-148.70443646
 30
0.0
 11
280.29214276
 21
-148.70443646
 31
0.0
  0
LINE
  5
365
  8
LE_ALL
  6
STRICHPUNKT2
 62
     1
 10
277.29214276
 20
-148.70443646
 30
0.0
 11
274.29214276
 21
-148.70443646
 31
0.0
  0
LINE
  5
366
  8
LE_ALL
  6
STRICHPUNKT2
 62
     1
 10
277.29214276
 20
-148.70443646
 30
0.0
 11
277.29214276
 21
-145.70443646
 31
0.0
  0
LINE
  5
367
  8
LE_ALL
  6
STRICHPUNKT2
 62
     1
 10
277.29214276
 20
-148.70443646
 30
0.0
 11
277.29214276
 21
-151.70443646
 31
0.0
  0
LINE
  5
368
  8
LE_ALL
  6
STRICHPUNKT2
 62
     1
 10
277.29214276
 20
-126.70443646
 30
0.0
 11
280.29214276
 21
-126.70443646
 31
0.0
  0
LINE
  5
369
  8
LE_ALL
  6
STRICHPUNKT2
 62
     1
 10
277.29214276
 20
-126.70443646
 30
0.0
 11
274.29214276
 21
-126.70443646
 31
0.0
  0
LINE
  5
36A
  8
LE_ALL
  6
STRICHPUNKT2
 62
     1
 10
277.29214276
 20
-126.70443646
 30
0.0
 11
277.29214276
 21
-123.70443646
 31
0.0
  0
LINE
  5
36B
  8
LE_ALL
  6
STRICHPUNKT2
 62
     1
 10
277.29214276
 20
-126.70443646
 30
0.0
 11
277.29214276
 21
-129.70443646
 31
0.0
  0
LINE
  5
36C
  8
LE_ALL
  6
STRICHPUNKT2
 62
     1
 10
277.29214276
 20
-126.70443646
 30
0.0
 11
280.29214276
 21
-126.70443646
 31
0.0
  0
LINE
  5
36D
  8
LE_ALL
  6
STRICHPUNKT2
 62
     1
 10
277.29214276
 20
-126.70443646
 30
0.0
 11
274.29214276
 21
-126.70443646
 31
0.0
  0
LINE
  5
36E
  8
LE_ALL
  6
STRICHPUNKT2
 62
     1
 10
277.29214276
 20
-126.70443646
 30
0.0
 11
277.29214276
 21
-123.70443646
 31
0.0
  0
LINE
  5
36F
  8
LE_ALL
  6
STRICHPUNKT2
 62
     1
 10
277.29214276
 20
-126.70443646
 30
0.0
 11
277.29214276
 21
-129.70443646
 31
0.0
  0
LINE
  5
370
  8
LE_ALL
  6
STRICHPUNKT2
 62
     1
 10
277.29214276
 20
-104.70443646
 30
0.0
 11
280.29214276
 21
-104.70443646
 31
0.0
  0
LINE
  5
371
  8
LE_ALL
  6
STRICHPUNKT2
 62
     1
 10
277.29214276
 20
-104.70443646
 30
0.0
 11
274.29214276
 21
-104.70443646
 31
0.0
  0
LINE
  5
372
  8
LE_ALL
  6
STRICHPUNKT2
 62
     1
 10
277.29214276
 20
-104.70443646
 30
0.0
 11
277.29214276
 21
-101.70443646
 31
0.0
  0
LINE
  5
373
  8
LE_ALL
  6
STRICHPUNKT2
 62
     1
 10
277.29214276
 20
-104.70443646
 30
0.0
 11
277.29214276
 21
-107.70443646
 31
0.0
  0
LINE
  5
374
  8
LE_ALL
  6
STRICHPUNKT2
 62
     1
 10
277.29214276
 20
-104.70443646
 30
0.0
 11
280.29214276
 21
-104.70443646
 31
0.0
  0
LINE
  5
375
  8
LE_ALL
  6
STRICHPUNKT2
 62
     1
 10
277.29214276
 20
-104.70443646
 30
0.0
 11
274.29214276
 21
-104.70443646
 31
0.0
  0
LINE
  5
376
  8
LE_ALL
  6
STRICHPUNKT2
 62
     1
 10
277.29214276
 20
-104.70443646
 30
0.0
 11
277.29214276
 21
-101.70443646
 31
0.0
  0
LINE
  5
377
  8
LE_ALL
  6
STRICHPUNKT2
 62
     1
 10
277.29214276
 20
-104.70443646
 30
0.0
 11
277.29214276
 21
-107.70443646
 31
0.0
  0
LINE
  5
378
  8
LE_ALL
  6
STRICHPUNKT2
 62
     1
 10
239.29214276
 20
-148.70443646
 30
0.0
 11
242.29214276
 21
-148.70443646
 31
0.0
  0
LINE
  5
379
  8
LE_ALL
  6
STRICHPUNKT2
 62
     1
 10
239.29214276
 20
-148.70443646
 30
0.0
 11
236.29214276
 21
-148.70443646
 31
0.0
  0
LINE
  5
37A
  8
LE_ALL
  6
STRICHPUNKT2
 62
     1
 10
239.29214276
 20
-148.70443646
 30
0.0
 11
239.29214276
 21
-145.70443646
 31
0.0
  0
LINE
  5
37B
  8
LE_ALL
  6
STRICHPUNKT2
 62
     1
 10
239.29214276
 20
-148.70443646
 30
0.0
 11
239.29214276
 21
-151.70443646
 31
0.0
  0
LINE
  5
37C
  8
LE_ALL
  6
STRICHPUNKT2
 62
     1
 10
239.29214276
 20
-148.70443646
 30
0.0
 11
242.29214276
 21
-148.70443646
 31
0.0
  0
LINE
  5
37D
  8
LE_ALL
  6
STRICHPUNKT2
 62
     1
 10
239.29214276
 20
-148.70443646
 30
0.0
 11
236.29214276
 21
-148.70443646
 31
0.0
  0
LINE
  5
37E
  8
LE_ALL
  6
STRICHPUNKT2
 62
     1
 10
239.29214276
 20
-148.70443646
 30
0.0
 11
239.29214276
 21
-145.70443646
 31
0.0
  0
LINE
  5
37F
  8
LE_ALL
  6
STRICHPUNKT2
 62
     1
 10
239.29214276
 20
-148.70443646
 30
0.0
 11
239.29214276
 21
-151.70443646
 31
0.0
  0
LINE
  5
380
  8
LE_ALL
  6
STRICHPUNKT2
 62
     1
 10
239.29214276
 20
-104.70443646
 30
0.0
 11
242.29214276
 21
-104.70443646
 31
0.0
  0
LINE
  5
381
  8
LE_ALL
  6
STRICHPUNKT2
 62
     1
 10
239.29214276
 20
-104.70443646
 30
0.0
 11
236.29214276
 21
-104.70443646
 31
0.0
  0
LINE
  5
382
  8
LE_ALL
  6
STRICHPUNKT2
 62
     1
 10
239.29214276
 20
-104.70443646
 30
0.0
 11
239.29214276
 21
-101.70443646
 31
0.0
  0
LINE
  5
383
  8
LE_ALL
  6
STRICHPUNKT2
 62
     1
 10
239.29214276
 20
-104.70443646
 30
0.0
 11
239.29214276
 21
-107.70443646
 31
0.0
  0
LINE
  5
384
  8
LE_ALL
  6
STRICHPUNKT2
 62
     1
 10
239.29214276
 20
-104.70443646
 30
0.0
 11
242.29214276
 21
-104.70443646
 31
0.0
  0
LINE
  5
385
  8
LE_ALL
  6
STRICHPUNKT2
 62
     1
 10
239.29214276
 20
-104.70443646
 30
0.0
 11
236.29214276
 21
-104.70443646
 31
0.0
  0
LINE
  5
386
  8
LE_ALL
  6
STRICHPUNKT2
 62
     1
 10
239.29214276
 20
-104.70443646
 30
0.0
 11
239.29214276
 21
-101.70443646
 31
0.0
  0
LINE
  5
387
  8
LE_ALL
  6
STRICHPUNKT2
 62
     1
 10
239.29214276
 20
-104.70443646
 30
0.0
 11
239.29214276
 21
-107.70443646
 31
0.0
  0
LINE
  5
388
  8
LE_ALL
  6
STRICHPUNKT2
 62
     1
 10
259.29214276
 20
-139.70443646
 30
0.0
 11
263.79214276
 21
-139.70443646
 31
0.0
  0
LINE
  5
389
  8
LE_ALL
  6
STRICHPUNKT2
 62
     1
 10
259.29214276
 20
-139.70443646
 30
0.0
 11
254.79214276
 21
-139.70443646
 31
0.0
  0
LINE
  5
38A
  8
LE_ALL
  6
STRICHPUNKT2
 62
     1
 10
259.29214276
 20
-139.70443646
 30
0.0
 11
259.29214276
 21
-135.20443646
 31
0.0
  0
LINE
  5
38B
  8
LE_ALL
  6
STRICHPUNKT2
 62
     1
 10
259.29214276
 20
-139.70443646
 30
0.0
 11
259.29214276
 21
-144.20443646
 31
0.0
  0
LINE
  5
38C
  8
LE_ALL
  6
STRICHPUNKT2
 62
     1
 10
259.29214276
 20
-139.70443646
 30
0.0
 11
263.79214276
 21
-139.70443646
 31
0.0
  0
LINE
  5
38D
  8
LE_ALL
  6
STRICHPUNKT2
 62
     1
 10
259.29214276
 20
-139.70443646
 30
0.0
 11
254.79214276
 21
-139.70443646
 31
0.0
  0
LINE
  5
38E
  8
LE_ALL
  6
STRICHPUNKT2
 62
     1
 10
259.29214276
 20
-139.70443646
 30
0.0
 11
259.29214276
 21
-135.20443646
 31
0.0
  0
LINE
  5
38F
  8
LE_ALL
  6
STRICHPUNKT2
 62
     1
 10
259.29214276
 20
-139.70443646
 30
0.0
 11
259.29214276
 21
-144.20443646
 31
0.0
  0
LINE
  5
390
  8
LE_ALL
  6
STRICHPUNKT2
 62
     1
 10
259.29214276
 20
-113.70443646
 30
0.0
 11
263.79214276
 21
-113.70443646
 31
0.0
  0
LINE
  5
391
  8
LE_ALL
  6
STRICHPUNKT2
 62
     1
 10
259.29214276
 20
-113.70443646
 30
0.0
 11
254.79214276
 21
-113.70443646
 31
0.0
  0
LINE
  5
392
  8
LE_ALL
  6
STRICHPUNKT2
 62
     1
 10
259.29214276
 20
-113.70443646
 30
0.0
 11
259.29214276
 21
-109.20443646
 31
0.0
  0
LINE
  5
393
  8
LE_ALL
  6
STRICHPUNKT2
 62
     1
 10
259.29214276
 20
-113.70443646
 30
0.0
 11
259.29214276
 21
-118.20443646
 31
0.0
  0
LINE
  5
394
  8
LE_ALL
  6
STRICHPUNKT2
 62
     1
 10
259.29214276
 20
-113.70443646
 30
0.0
 11
263.79214276
 21
-113.70443646
 31
0.0
  0
LINE
  5
395
  8
LE_ALL
  6
STRICHPUNKT2
 62
     1
 10
259.29214276
 20
-113.70443646
 30
0.0
 11
254.79214276
 21
-113.70443646
 31
0.0
  0
LINE
  5
396
  8
LE_ALL
  6
STRICHPUNKT2
 62
     1
 10
259.29214276
 20
-113.70443646
 30
0.0
 11
259.29214276
 21
-109.20443646
 31
0.0
  0
LINE
  5
397
  8
LE_ALL
  6
STRICHPUNKT2
 62
     1
 10
259.29214276
 20
-113.70443646
 30
0.0
 11
259.29214276
 21
-118.20443646
 31
0.0
  0
LINE
  5
398
  8
LE_ALL
  6
STRICHPUNKT2
 62
     1
 10
232.04214276
 20
-126.70443646
 30
0.0
 11
267.54214276
 21
-126.70443646
 31
0.0
  0
LINE
  5
399
  8
LE_ALL
  6
STRICHPUNKT2
 62
     1
 10
240.29214276
 20
-134.95443646
 30
0.0
 11
240.29214276
 21
-118.45443646
 31
0.0
  0
LINE
  5
39A
  8
LE_ALL
  6
STRICHPUNKT2
 62
     1
 10
259.29214276
 20
-134.95443646
 30
0.0
 11
259.29214276
 21
-118.45443646
 31
0.0
  0
LINE
  5
39B
  8
LE_ALL
  6
STRICHPUNKT2
 62
     1
 10
232.04214276
 20
-126.70443646
 30
0.0
 11
267.54214276
 21
-126.70443646
 31
0.0
  0
LINE
  5
39C
  8
LE_ALL
  6
STRICHPUNKT2
 62
     1
 10
240.29214276
 20
-134.95443646
 30
0.0
 11
240.29214276
 21
-118.45443646
 31
0.0
  0
LINE
  5
39D
  8
LE_ALL
  6
STRICHPUNKT2
 62
     1
 10
259.29214276
 20
-134.95443646
 30
0.0
 11
259.29214276
 21
-118.45443646
 31
0.0
  0
ENDBLK
  8
0
  0
BLOCK
  8
0
  2
BEND_ZONE_00049
 70
     0
 10
0.0
 20
0.0
 30
0.0
  0
INSERT
  5
3A0
  8
0
  2
BEND_ZONE_00050
 10
225.79214276
 20
-156.70443646
 30
0.0
  0
ENDBLK
  8
0
  0
BLOCK
  8
0
  2
BEND_ZONE_00050
 70
     0
 10
225.79214276
 20
-156.70443646
 30
0.0
  0
LINE
  5
3A3
  8
LE_ALL
  6
DOT
 62
     3
 10
225.79214276
 20
-156.70443646
 30
0.0
 11
225.79214276
 21
-96.70443646
 31
0.0
  0
POLYLINE
  5
3A4
  8
LE_ALL
 66
     1
 10
0.0
 20
0.0
 30
0.0
  0
VERTEX
  5
3A5
  8
LE_ALL
 10
225.79214276
 20
-156.70443646
 30
0.0
  0
VERTEX
  5
3A6
  8
LE_ALL
 10
228.29214276
 20
-156.70443646
 30
0.0
  0
VERTEX
  5
3A7
  8
LE_ALL
 10
228.29214276
 20
-96.70443646
 30
0.0
  0
VERTEX
  5
3A8
  8
LE_ALL
 10
225.79214276
 20
-96.70443646
 30
0.0
  0
SEQEND
  5
3A9
  8
LE_ALL
  0
ENDBLK
  8
0
  0
BLOCK
  8
0
  2
SHEET_FLANGE_00051
 70
     0
 10
0.0
 20
0.0
 30
0.0
  0
INSERT
  5
3AC
  8
0
  2
SHEET_FLANGE_00052
 10
223.29214276
 20
-156.70443646
 30
0.0
  0
INSERT
  5
3AD
  8
0
  2
_00053
 10
0.0
 20
0.0
 30
0.0
  0
ENDBLK
  8
0
  0
BLOCK
  8
0
  2
SHEET_FLANGE_00052
 70
     0
 10
223.29214276
 20
-156.70443646
 30
0.0
  0
LINE
  5
3B0
  8
LE_ALL
  6
DOT
 62
     3
 10
223.29214276
 20
-156.70443646
 30
0.0
 11
223.29214276
 21
-156.70443646
 31
0.0
  0
LINE
  5
3B1
  8
LE_ALL
  6
DOT
 62
     3
 10
225.79214276
 20
-156.70443646
 30
0.0
 11
225.79214276
 21
-156.70443646
 31
0.0
  0
LINE
  5
3B2
  8
LE_ALL
  6
DOT
 62
     3
 10
223.29214276
 20
-96.70443646
 30
0.0
 11
223.29214276
 21
-96.70443646
 31
0.0
  0
LINE
  5
3B3
  8
LE_ALL
  6
DOT
 62
     3
 10
225.79214276
 20
-96.70443646
 30
0.0
 11
225.79214276
 21
-96.70443646
 31
0.0
  0
LINE
  5
3B4
  8
LE_ALL
  6
DOT
 62
     3
 10
225.79214276
 20
-137.70443646
 30
0.0
 11
223.29214276
 21
-137.70443646
 31
0.0
  0
LINE
  5
3B5
  8
LE_ALL
  6
DOT
 62
     3
 10
225.79214276
 20
-141.70443646
 30
0.0
 11
223.29214276
 21
-141.70443646
 31
0.0
  0
LINE
  5
3B6
  8
LE_ALL
  6
DOT
 62
     3
 10
225.79214276
 20
-146.70443646
 30
0.0
 11
223.29214276
 21
-146.70443646
 31
0.0
  0
LINE
  5
3B7
  8
LE_ALL
  6
DOT
 62
     3
 10
225.79214276
 20
-150.70443646
 30
0.0
 11
223.29214276
 21
-150.70443646
 31
0.0
  0
LINE
  5
3B8
  8
LE_ALL
  6
DOT
 62
     3
 10
225.79214276
 20
-124.70443646
 30
0.0
 11
223.29214276
 21
-124.70443646
 31
0.0
  0
LINE
  5
3B9
  8
LE_ALL
  6
DOT
 62
     3
 10
225.79214276
 20
-128.70443646
 30
0.0
 11
223.29214276
 21
-128.70443646
 31
0.0
  0
LINE
  5
3BA
  8
LE_ALL
  6
DOT
 62
     3
 10
225.79214276
 20
-111.70443646
 30
0.0
 11
223.29214276
 21
-111.70443646
 31
0.0
  0
LINE
  5
3BB
  8
LE_ALL
  6
DOT
 62
     3
 10
225.79214276
 20
-115.70443646
 30
0.0
 11
223.29214276
 21
-115.70443646
 31
0.0
  0
LINE
  5
3BC
  8
LE_ALL
  6
DOT
 62
     3
 10
225.79214276
 20
-102.70443646
 30
0.0
 11
223.29214276
 21
-102.70443646
 31
0.0
  0
LINE
  5
3BD
  8
LE_ALL
  6
DOT
 62
     3
 10
225.79214276
 20
-106.70443646
 30
0.0
 11
223.29214276
 21
-106.70443646
 31
0.0
  0
LINE
  5
3BE
  8
LE_ALL
  6
DOT
 62
     3
 10
225.79214276
 20
-137.20443646
 30
0.0
 11
223.29214276
 21
-137.20443646
 31
0.0
  0
LINE
  5
3BF
  8
LE_ALL
  6
DOT
 62
     3
 10
225.79214276
 20
-146.20443646
 30
0.0
 11
223.29214276
 21
-146.20443646
 31
0.0
  0
LINE
  5
3C0
  8
LE_ALL
  6
DOT
 62
     3
 10
225.79214276
 20
-107.20443646
 30
0.0
 11
223.29214276
 21
-107.20443646
 31
0.0
  0
LINE
  5
3C1
  8
LE_ALL
  6
DOT
 62
     3
 10
225.79214276
 20
-116.20443646
 30
0.0
 11
223.29214276
 21
-116.20443646
 31
0.0
  0
LINE
  5
3C2
  8
LE_ALL
  6
DOT
 62
     3
 10
225.79214276
 20
-121.20443646
 30
0.0
 11
223.29214276
 21
-121.20443646
 31
0.0
  0
LINE
  5
3C3
  8
LE_ALL
  6
DOT
 62
     3
 10
225.79214276
 20
-132.20443646
 30
0.0
 11
223.29214276
 21
-132.20443646
 31
0.0
  0
POLYLINE
  5
3C4
  8
LE_ALL
 66
     1
 10
0.0
 20
0.0
 30
0.0
  0
VERTEX
  5
3C5
  8
LE_ALL
 10
225.79214276
 20
-100.20443646
 30
0.0
  0
VERTEX
  5
3C6
  8
LE_ALL
 10
225.79214276
 20
-153.20443646
 30
0.0
  0
VERTEX
  5
3C7
  8
LE_ALL
 10
223.29214276
 20
-153.20443646
 30
0.0
  0
VERTEX
  5
3C8
  8
LE_ALL
 10
223.29214276
 20
-100.20443646
 30
0.0
  0
SEQEND
  5
3C9
  8
LE_ALL
  0
LINE
  5
3CA
  8
LE_ALL
 10
225.79214276
 20
-100.20443646
 30
0.0
 11
223.29214276
 21
-100.20443646
 31
0.0
  0
LINE
  5
3CB
  8
LE_ALL
 10
225.79214276
 20
-96.70443646
 30
0.0
 11
225.79214276
 21
-100.20443646
 31
0.0
  0
LINE
  5
3CC
  8
LE_ALL
 10
225.79214276
 20
-96.70443646
 30
0.0
 11
223.29214276
 21
-96.70443646
 31
0.0
  0
LINE
  5
3CD
  8
LE_ALL
 10
223.29214276
 20
-100.20443646
 30
0.0
 11
223.29214276
 21
-96.70443646
 31
0.0
  0
LINE
  5
3CE
  8
LE_ALL
 10
223.29214276
 20
-156.70443646
 30
0.0
 11
223.29214276
 21
-153.20443646
 31
0.0
  0
LINE
  5
3CF
  8
LE_ALL
 10
225.79214276
 20
-156.70443646
 30
0.0
 11
223.29214276
 21
-156.70443646
 31
0.0
  0
LINE
  5
3D0
  8
LE_ALL
 10
225.79214276
 20
-153.20443646
 30
0.0
 11
225.79214276
 21
-156.70443646
 31
0.0
  0
ENDBLK
  8
0
  0
BLOCK
  8
0
  2
_00053
 70
     0
 10
0.0
 20
0.0
 30
0.0
  0
INSERT
  5
3D3
  8
0
  2
_00054
 10
226.79214276
 20
-148.70443646
 30
0.0
  0
ENDBLK
  8
0
  0
BLOCK
  8
0
  2
_00054
 70
     0
 10
226.79214276
 20
-148.70443646
 30
0.0
  0
LINE
  5
3D6
  8
LE_ALL
  6
STRICHPUNKT2
 62
     1
 10
226.79214276
 20
-148.70443646
 30
0.0
 11
222.29214276
 21
-148.70443646
 31
0.0
  0
LINE
  5
3D7
  8
LE_ALL
  6
STRICHPUNKT2
 62
     1
 10
228.04214276
 20
-141.70443646
 30
0.0
 11
221.04214276
 21
-141.70443646
 31
0.0
  0
LINE
  5
3D8
  8
LE_ALL
  6
STRICHPUNKT2
 62
     1
 10
228.04214276
 20
-111.70443646
 30
0.0
 11
221.04214276
 21
-111.70443646
 31
0.0
  0
LINE
  5
3D9
  8
LE_ALL
  6
STRICHPUNKT2
 62
     1
 10
228.54214276
 20
-126.70443646
 30
0.0
 11
220.54214276
 21
-126.70443646
 31
0.0
  0
LINE
  5
3DA
  8
LE_ALL
  6
STRICHPUNKT2
 62
     1
 10
226.79214276
 20
-113.70443646
 30
0.0
 11
222.29214276
 21
-113.70443646
 31
0.0
  0
LINE
  5
3DB
  8
LE_ALL
  6
STRICHPUNKT2
 62
     1
 10
226.79214276
 20
-104.70443646
 30
0.0
 11
222.29214276
 21
-104.70443646
 31
0.0
  0
LINE
  5
3DC
  8
LE_ALL
  6
STRICHPUNKT2
 62
     1
 10
226.79214276
 20
-139.70443646
 30
0.0
 11
222.29214276
 21
-139.70443646
 31
0.0
  0
LINE
  5
3DD
  8
LE_ALL
  6
STRICHPUNKT2
 62
     1
 10
226.79214276
 20
-126.70443646
 30
0.0
 11
222.29214276
 21
-126.70443646
 31
0.0
  0
ENDBLK
  8
0
  0
BLOCK
  8
0
  2
_ANS0006_00055
 70
     0
 10
0.0
 20
0.0
 30
0.0
  0
INSERT
  5
3E0
  8
0
  2
_A3D0006_00056
 10
0.0
 20
0.0
 30
0.0
  0
ENDBLK
  8
0
  0
BLOCK
  8
0
  2
_A3D0006_00056
 70
     0
 10
0.0
 20
0.0
 30
0.0
  0
INSERT
  5
3E3
  8
0
  2
PLAATWERK__D___2_5MM_00057
 10
0.0
 20
0.0
 30
0.0
  0
ENDBLK
  8
0
  0
BLOCK
  8
0
  2
PLAATWERK__D___2_5MM_00057
 70
     0
 10
0.0
 20
0.0
 30
0.0
  0
INSERT
  5
3E6
  8
0
  2
SHEET_FLANGE_00058
 10
0.0
 20
0.0
 30
0.0
  0
INSERT
  5
3E7
  8
0
  2
BEND_ZONE_00062
 10
0.0
 20
0.0
 30
0.0
  0
INSERT
  5
3E8
  8
0
  2
SHEET_FLANGE_00064
 10
0.0
 20
0.0
 30
0.0
  0
ENDBLK
  8
0
  0
BLOCK
  8
0
  2
SHEET_FLANGE_00058
 70
     0
 10
0.0
 20
0.0
 30
0.0
  0
INSERT
  5
3EB
  8
0
  2
SHEET_FLANGE_00059
 10
456.58931446
 20
-124.25168621
 30
0.0
  0
INSERT
  5
3EC
  8
0
  2
_00060
 10
0.0
 20
0.0
 30
0.0
  0
ENDBLK
  8
0
  0
BLOCK
  8
0
  2
SHEET_FLANGE_00059
 70
     0
 10
456.58931446
 20
-124.25168621
 30
0.0
  0
POLYLINE
  5
3EF
  8
LE_ALL
 66
     1
 10
0.0
 20
0.0
 30
0.0
  0
VERTEX
  5
75C
  8
LE_ALL
 10
453.03385811
 20
-122.5367599034187
 30
0.0
  0
VERTEX
  5
75D
  8
LE_ALL
 10
453.1452157705029
 20
-122.9038102717775
 30
0.0
  0
VERTEX
  5
75E
  8
LE_ALL
 10
453.4747794766475
 20
-123.255997414309
 30
0.0
  0
VERTEX
  5
75F
  8
LE_ALL
 10
454.0092039758498
 20
-123.57905997187
 30
0.0
  0
VERTEX
  5
760
  8
LE_ALL
 10
454.7268484448156
 20
-123.859915947412
 30
0.0
  0
VERTEX
  5
761
  8
LE_ALL
 10
455.5986528064635
 20
-124.0871924443952
 30
0.0
  0
VERTEX
  5
762
  8
LE_ALL
 10
456.589314479857
 20
-124.251686197405
 30
0.0
  0
SEQEND
  5
9BE
  8
LE_ALL
  0
POLYLINE
  5
3F0
  8
LE_ALL
 66
     1
 10
0.0
 20
0.0
 30
0.0
  0
VERTEX
  5
763
  8
LE_ALL
 10
460.4784017731221
 20
-120.8218336267499
 30
0.0
  0
VERTEX
  5
764
  8
LE_ALL
 10
459.4543353574894
 20
-120.7292840442075
 30
0.0
  0
VERTEX
  5
765
  8
LE_ALL
 10
458.3960119478176
 20
-120.7040024904284
 30
0.0
  0
VERTEX
  5
766
  8
LE_ALL
 10
457.3428186977116
 20
-120.7469298578024
 30
0.0
  0
VERTEX
  5
767
  8
LE_ALL
 10
456.3339518338994
 20
-120.8564685375105
 30
0.0
  0
VERTEX
  5
768
  8
LE_ALL
 10
455.406957907623
 20
-121.0285418770248
 30
0.0
  0
VERTEX
  5
769
  8
LE_ALL
 10
454.5963364412694
 20
-121.2567458990802
 30
0.0
  0
VERTEX
  5
76A
  8
LE_ALL
 10
453.9322559749264
 20
-121.5325876356598
 30
0.0
  0
VERTEX
  5
76B
  8
LE_ALL
 10
453.4394312971877
 20
-121.8458012070241
 30
0.0
  0
VERTEX
  5
76C
  8
LE_ALL
 10
453.1362036458118
 20
-122.1847298824103
 30
0.0
  0
VERTEX
  5
76D
  8
LE_ALL
 10
453.03385811
 20
-122.5367599034187
 30
0.0
  0
SEQEND
  5
9BF
  8
LE_ALL
  0
POLYLINE
  5
3F1
  8
LE_ALL
 66
     1
 10
0.0
 20
0.0
 30
0.0
  0
VERTEX
  5
3F2
  8
LE_ALL
 10
460.47840176
 20
-120.82183361
 30
0.0
  0
VERTEX
  5
3F3
  8
LE_ALL
 10
478.25127434
 20
-123.06100508
 30
0.0
  0
SEQEND
  5
3F4
  8
LE_ALL
  0
POLYLINE
  5
3F5
  8
LE_ALL
 66
     1
 10
0.0
 20
0.0
 30
0.0
  0
VERTEX
  5
76E
  8
LE_ALL
 10
481.80673069
 20
-124.77593139
 30
0.0
  0
VERTEX
  5
76F
  8
LE_ALL
 10
481.6953730273794
 20
-124.4088810247681
 30
0.0
  0
VERTEX
  5
770
  8
LE_ALL
 10
481.3658093227991
 20
-124.0566938852585
 30
0.0
  0
VERTEX
  5
771
  8
LE_ALL
 10
480.8313848285597
 20
-123.7336313302569
 30
0.0
  0
VERTEX
  5
772
  8
LE_ALL
 10
480.113740367398
 20
-123.4527753564925
 30
0.0
  0
VERTEX
  5
773
  8
LE_ALL
 10
479.2419360156001
 20
-123.2254988602459
 30
0.0
  0
VERTEX
  5
774
  8
LE_ALL
 10
478.2512743531221
 20
-123.0610051067499
 30
0.0
  0
SEQEND
  5
9C0
  8
LE_ALL
  0
POLYLINE
  5
3F6
  8
LE_ALL
 66
     1
 10
0.0
 20
0.0
 30
0.0
  0
VERTEX
  5
775
  8
LE_ALL
 10
474.362187059857
 20
-126.490857677405
 30
0.0
  0
VERTEX
  5
776
  8
LE_ALL
 10
475.3862534757401
 20
-126.5834072576727
 30
0.0
  0
VERTEX
  5
777
  8
LE_ALL
 10
476.4445768843259
 20
-126.6086888093029
 30
0.0
  0
VERTEX
  5
778
  8
LE_ALL
 10
477.4977701321647
 20
-126.5657614399886
 30
0.0
  0
VERTEX
  5
779
  8
LE_ALL
 10
478.5066369927267
 20
-126.4562227586162
 30
0.0
  0
VERTEX
  5
77A
  8
LE_ALL
 10
479.4336309150003
 20
-126.2841494177637
 30
0.0
  0
VERTEX
  5
77B
  8
LE_ALL
 10
480.2442523768477
 20
-126.0559453947274
 30
0.0
  0
VERTEX
  5
77C
  8
LE_ALL
 10
480.9083328384368
 20
-125.780103657536
 30
0.0
  0
VERTEX
  5
77D
  8
LE_ALL
 10
481.4011575114228
 20
-125.466890085922
 30
0.0
  0
VERTEX
  5
77E
  8
LE_ALL
 10
481.7043851582771
 20
-125.1279614106234
 30
0.0
  0
VERTEX
  5
77F
  8
LE_ALL
 10
481.80673069
 20
-124.77593139
 30
0.0
  0
SEQEND
  5
9C1
  8
LE_ALL
  0
LINE
  5
3F7
  8
LE_ALL
 10
474.36218705
 20
-126.49085769
 30
0.0
 11
456.58931446
 21
-124.25168621
 31
0.0
  0
POLYLINE
  5
3F8
  8
LE_ALL
 66
     1
 10
0.0
 20
0.0
 30
0.0
  0
VERTEX
  5
780
  8
LE_ALL
 10
480.5198055706136
 20
-125.9544426974344
 30
0.0
  0
VERTEX
  5
781
  8
LE_ALL
 10
479.8591746226326
 20
-125.7333452449534
 30
0.0
  0
VERTEX
  5
782
  8
LE_ALL
 10
479.0956237945697
 20
-125.5527966559966
 30
0.0
  0
VERTEX
  5
783
  8
LE_ALL
 10
478.2512743531221
 20
-125.41802770675
 30
0.0
  0
SEQEND
  5
9C2
  8
LE_ALL
  0
POLYLINE
  5
3F9
  8
LE_ALL
 66
     1
 10
0.0
 20
0.0
 30
0.0
  0
VERTEX
  5
3FA
  8
LE_ALL
 10
478.25127434
 20
-125.41802769
 30
0.0
  0
VERTEX
  5
3FB
  8
LE_ALL
 10
460.47840176
 20
-123.17885621
 30
0.0
  0
VERTEX
  5
3FC
  8
LE_ALL
 10
460.47840176
 20
-120.82183361
 30
0.0
  0
SEQEND
  5
3FD
  8
LE_ALL
  0
POLYLINE
  5
3FE
  8
LE_ALL
 66
     1
 10
0.0
 20
0.0
 30
0.0
  0
VERTEX
  5
784
  8
LE_ALL
 10
460.4784017731221
 20
-123.17885623675
 30
0.0
  0
VERTEX
  5
785
  8
LE_ALL
 10
459.3867694626074
 20
-123.0826275283459
 30
0.0
  0
VERTEX
  5
786
  8
LE_ALL
 10
458.259187973862
 20
-123.0627368044222
 30
0.0
  0
VERTEX
  5
787
  8
LE_ALL
 10
457.1431834979545
 20
-123.1200224348485
 30
0.0
  0
VERTEX
  5
788
  8
LE_ALL
 10
456.0857942689146
 20
-123.2520698998367
 30
0.0
  0
VERTEX
  5
789
  8
LE_ALL
 10
455.1315879592654
 20
-123.4533135590197
 30
0.0
  0
VERTEX
  5
78A
  8
LE_ALL
 10
454.3207832067229
 20
-123.7152712364366
 30
0.0
  0
SEQEND
  5
9C3
  8
LE_ALL
  0
LINE
  5
3FF
  8
LE_ALL
 10
478.25127434
 20
-125.41802769
 30
0.0
 11
478.25127434
 21
-123.06100508
 31
0.0
  0
POLYLINE
  5
400
  8
LE_ALL
 66
     1
 10
0.0
 20
0.0
 30
0.0
  0
VERTEX
  5
78B
  8
LE_ALL
 10
483.90292477
 20
-120.72246922
 30
0.0
  0
VERTEX
  5
78C
  8
LE_ALL
 10
483.845280611341
 20
-120.5273789001548
 30
0.0
  0
VERTEX
  5
78D
  8
LE_ALL
 10
483.6745633680491
 20
-120.3397857918763
 30
0.0
  0
VERTEX
  5
78E
  8
LE_ALL
 10
483.3973336080295
 20
-120.1668989930957
 30
0.0
  0
VERTEX
  5
78F
  8
LE_ALL
 10
483.0242451154634
 20
-120.0153624465191
 30
0.0
  0
VERTEX
  5
790
  8
LE_ALL
 10
482.5696354718571
 20
-119.8909996166354
 30
0.0
  0
VERTEX
  5
791
  8
LE_ALL
 10
482.0509750708264
 20
-119.7985896972427
 30
0.0
  0
VERTEX
  5
792
  8
LE_ALL
 10
481.4881957406695
 20
-119.741683949711
 30
0.0
  0
VERTEX
  5
793
  8
LE_ALL
 10
480.9029247753847
 20
-119.72246923
 30
0.0
  0
VERTEX
  5
794
  8
LE_ALL
 10
480.317653809893
 20
-119.7416839490107
 30
0.0
  0
VERTEX
  5
795
  8
LE_ALL
 10
479.7548744791233
 20
-119.7985896958689
 30
0.0
  0
VERTEX
  5
796
  8
LE_ALL
 10
479.2362140770974
 20
-119.890999614641
 30
0.0
  0
VERTEX
  5
797
  8
LE_ALL
 10
478.7816044321517
 20
-120.0153624439807
 30
0.0
  0
VERTEX
  5
798
  8
LE_ALL
 10
478.4085159379537
 20
-120.1668989901109
 30
0.0
  0
VERTEX
  5
799
  8
LE_ALL
 10
478.1312861760723
 20
-120.3397857885598
 30
0.0
  0
VERTEX
  5
79A
  8
LE_ALL
 10
477.96056893076
 20
-120.527378896634
 30
0.0
  0
VERTEX
  5
79B
  8
LE_ALL
 10
477.90292477
 20
-120.7224692164102
 30
0.0
  0
SEQEND
  5
9C4
  8
LE_ALL
  0
POLYLINE
  5
401
  8
LE_ALL
 66
     1
 10
0.0
 20
0.0
 30
0.0
  0
VERTEX
  5
79C
  8
LE_ALL
 10
477.90292477
 20
-120.7224692164102
 30
0.0
  0
VERTEX
  5
79D
  8
LE_ALL
 10
477.9605689268207
 20
-120.9175595367645
 30
0.0
  0
VERTEX
  5
79E
  8
LE_ALL
 10
478.1312861688601
 20
-121.1051526456363
 30
0.0
  0
VERTEX
  5
79F
  8
LE_ALL
 10
478.4085159282311
 20
-121.2780394450387
 30
0.0
  0
VERTEX
  5
7A0
  8
LE_ALL
 10
478.7816044207291
 20
-121.4295759922117
 30
0.0
  0
VERTEX
  5
7A1
  8
LE_ALL
 10
479.2362140647851
 20
-121.5539388226167
 30
0.0
  0
VERTEX
  5
7A2
  8
LE_ALL
 10
479.7548744666863
 20
-121.6463487424139
 30
0.0
  0
VERTEX
  5
7A3
  8
LE_ALL
 10
480.3176537980103
 20
-121.7032544902014
 30
0.0
  0
VERTEX
  5
7A4
  8
LE_ALL
 10
480.9029247646154
 20
-121.72246921
 30
0.0
  0
VERTEX
  5
7A5
  8
LE_ALL
 10
481.4881957314274
 20
-121.7032544909018
 30
0.0
  0
VERTEX
  5
7A6
  8
LE_ALL
 10
482.0509750633642
 20
-121.6463487437876
 30
0.0
  0
VERTEX
  5
7A7
  8
LE_ALL
 10
482.5696354662606
 20
-121.5539388246111
 30
0.0
  0
VERTEX
  5
7A8
  8
LE_ALL
 10
483.0242451116559
 20
-121.4295759947501
 30
0.0
  0
VERTEX
  5
7A9
  8
LE_ALL
 10
483.3973336057858
 20
-121.2780394480235
 30
0.0
  0
VERTEX
  5
7AA
  8
LE_ALL
 10
483.6745633670187
 20
-121.1051526489528
 30
0.0
  0
VERTEX
  5
7AB
  8
LE_ALL
 10
483.8452806110784
 20
-120.9175595402853
 30
0.0
  0
VERTEX
  5
7AC
  8
LE_ALL
 10
483.90292477
 20
-120.72246922
 30
0.0
  0
SEQEND
  5
9C5
  8
LE_ALL
  0
POLYLINE
  5
402
  8
LE_ALL
 66
     1
 10
0.0
 20
0.0
 30
0.0
  0
VERTEX
  5
7AD
  8
LE_ALL
 10
474.71053662
 20
-128.82939355
 30
0.0
  0
VERTEX
  5
7AE
  8
LE_ALL
 10
474.652892461341
 20
-128.6343032301548
 30
0.0
  0
VERTEX
  5
7AF
  8
LE_ALL
 10
474.4821752180491
 20
-128.4467101218763
 30
0.0
  0
VERTEX
  5
7B0
  8
LE_ALL
 10
474.2049454580295
 20
-128.2738233230957
 30
0.0
  0
VERTEX
  5
7B1
  8
LE_ALL
 10
473.8318569654634
 20
-128.1222867765191
 30
0.0
  0
VERTEX
  5
7B2
  8
LE_ALL
 10
473.3772473218571
 20
-127.9979239466354
 30
0.0
  0
VERTEX
  5
7B3
  8
LE_ALL
 10
472.8585869208264
 20
-127.9055140272427
 30
0.0
  0
VERTEX
  5
7B4
  8
LE_ALL
 10
472.2958075906695
 20
-127.848608279711
 30
0.0
  0
VERTEX
  5
7B5
  8
LE_ALL
 10
471.7105366253847
 20
-127.82939356
 30
0.0
  0
VERTEX
  5
7B6
  8
LE_ALL
 10
471.125265659893
 20
-127.8486082790107
 30
0.0
  0
VERTEX
  5
7B7
  8
LE_ALL
 10
470.5624863291233
 20
-127.9055140258689
 30
0.0
  0
VERTEX
  5
7B8
  8
LE_ALL
 10
470.0438259270974
 20
-127.997923944641
 30
0.0
  0
VERTEX
  5
7B9
  8
LE_ALL
 10
469.5892162821517
 20
-128.1222867739807
 30
0.0
  0
VERTEX
  5
7BA
  8
LE_ALL
 10
469.2161277879537
 20
-128.2738233201109
 30
0.0
  0
VERTEX
  5
7BB
  8
LE_ALL
 10
468.9388980260723
 20
-128.4467101185598
 30
0.0
  0
VERTEX
  5
7BC
  8
LE_ALL
 10
468.76818078076
 20
-128.634303226634
 30
0.0
  0
VERTEX
  5
7BD
  8
LE_ALL
 10
468.71053662
 20
-128.8293935464102
 30
0.0
  0
SEQEND
  5
9C6
  8
LE_ALL
  0
POLYLINE
  5
403
  8
LE_ALL
 66
     1
 10
0.0
 20
0.0
 30
0.0
  0
VERTEX
  5
7BE
  8
LE_ALL
 10
468.71053662
 20
-128.8293935464102
 30
0.0
  0
VERTEX
  5
7BF
  8
LE_ALL
 10
468.7681807768207
 20
-129.0244838667645
 30
0.0
  0
VERTEX
  5
7C0
  8
LE_ALL
 10
468.9388980188601
 20
-129.2120769756363
 30
0.0
  0
VERTEX
  5
7C1
  8
LE_ALL
 10
469.2161277782311
 20
-129.3849637750387
 30
0.0
  0
VERTEX
  5
7C2
  8
LE_ALL
 10
469.5892162707291
 20
-129.5365003222117
 30
0.0
  0
VERTEX
  5
7C3
  8
LE_ALL
 10
470.0438259147851
 20
-129.6608631526167
 30
0.0
  0
VERTEX
  5
7C4
  8
LE_ALL
 10
470.5624863166863
 20
-129.7532730724139
 30
0.0
  0
VERTEX
  5
7C5
  8
LE_ALL
 10
471.1252656480103
 20
-129.8101788202014
 30
0.0
  0
VERTEX
  5
7C6
  8
LE_ALL
 10
471.7105366146154
 20
-129.82939354
 30
0.0
  0
VERTEX
  5
7C7
  8
LE_ALL
 10
472.2958075814274
 20
-129.8101788209018
 30
0.0
  0
VERTEX
  5
7C8
  8
LE_ALL
 10
472.8585869133642
 20
-129.7532730737877
 30
0.0
  0
VERTEX
  5
7C9
  8
LE_ALL
 10
473.3772473162606
 20
-129.6608631546111
 30
0.0
  0
VERTEX
  5
7CA
  8
LE_ALL
 10
473.8318569616559
 20
-129.5365003247501
 30
0.0
  0
VERTEX
  5
7CB
  8
LE_ALL
 10
474.2049454557858
 20
-129.3849637780235
 30
0.0
  0
VERTEX
  5
7CC
  8
LE_ALL
 10
474.4821752170187
 20
-129.2120769789528
 30
0.0
  0
VERTEX
  5
7CD
  8
LE_ALL
 10
474.6528924610784
 20
-129.0244838702853
 30
0.0
  0
VERTEX
  5
7CE
  8
LE_ALL
 10
474.71053662
 20
-128.82939355
 30
0.0
  0
SEQEND
  5
9C7
  8
LE_ALL
  0
POLYLINE
  5
404
  8
LE_ALL
 66
     1
 10
0.0
 20
0.0
 30
0.0
  0
VERTEX
  5
7CF
  8
LE_ALL
 10
467.37661835
 20
-115.55920357
 30
0.0
  0
VERTEX
  5
7D0
  8
LE_ALL
 10
467.338188910894
 20
-115.4291433567699
 30
0.0
  0
VERTEX
  5
7D1
  8
LE_ALL
 10
467.224377415366
 20
-115.3040812845842
 30
0.0
  0
VERTEX
  5
7D2
  8
LE_ALL
 10
467.039557575353
 20
-115.1888234187305
 30
0.0
  0
VERTEX
  5
7D3
  8
LE_ALL
 10
466.7908319136423
 20
-115.0877990543461
 30
0.0
  0
VERTEX
  5
7D4
  8
LE_ALL
 10
466.4877588179047
 20
-115.0048905010903
 30
0.0
  0
VERTEX
  5
7D5
  8
LE_ALL
 10
466.1419852172176
 20
-114.9432838881618
 30
0.0
  0
VERTEX
  5
7D6
  8
LE_ALL
 10
465.766798997113
 20
-114.9053467231407
 30
0.0
  0
VERTEX
  5
7D7
  8
LE_ALL
 10
465.3766183535898
 20
-114.89253691
 30
0.0
  0
VERTEX
  5
7D8
  8
LE_ALL
 10
464.9864377099287
 20
-114.9053467226738
 30
0.0
  0
VERTEX
  5
7D9
  8
LE_ALL
 10
464.6112514894155
 20
-114.9432838872459
 30
0.0
  0
VERTEX
  5
7DA
  8
LE_ALL
 10
464.2654778880649
 20
-115.0048904997607
 30
0.0
  0
VERTEX
  5
7DB
  8
LE_ALL
 10
463.9624047914344
 20
-115.0877990526538
 30
0.0
  0
VERTEX
  5
7DC
  8
LE_ALL
 10
463.7136791286358
 20
-115.1888234167406
 30
0.0
  0
VERTEX
  5
7DD
  8
LE_ALL
 10
463.5288592873815
 20
-115.3040812823732
 30
0.0
  0
VERTEX
  5
7DE
  8
LE_ALL
 10
463.4150477905067
 20
-115.4291433544227
 30
0.0
  0
VERTEX
  5
7DF
  8
LE_ALL
 10
463.37661835
 20
-115.5592035676068
 30
0.0
  0
SEQEND
  5
9C8
  8
LE_ALL
  0
POLYLINE
  5
405
  8
LE_ALL
 66
     1
 10
0.0
 20
0.0
 30
0.0
  0
VERTEX
  5
7E0
  8
LE_ALL
 10
463.37661835
 20
-115.5592035676068
 30
0.0
  0
VERTEX
  5
7E1
  8
LE_ALL
 10
463.4150477878804
 20
-115.6892637811763
 30
0.0
  0
VERTEX
  5
7E2
  8
LE_ALL
 10
463.5288592825734
 20
-115.8143258537575
 30
0.0
  0
VERTEX
  5
7E3
  8
LE_ALL
 10
463.713679122154
 20
-115.9295837200258
 30
0.0
  0
VERTEX
  5
7E4
  8
LE_ALL
 10
463.9624047838194
 20
-116.0306080848078
 30
0.0
  0
VERTEX
  5
7E5
  8
LE_ALL
 10
464.2654778798567
 20
-116.1135166384111
 30
0.0
  0
VERTEX
  5
7E6
  8
LE_ALL
 10
464.6112514811242
 20
-116.1751232516093
 30
0.0
  0
VERTEX
  5
7E7
  8
LE_ALL
 10
464.9864377020068
 20
-116.213060416801
 30
0.0
  0
VERTEX
  5
7E8
  8
LE_ALL
 10
465.3766183464102
 20
-116.22587023
 30
0.0
  0
VERTEX
  5
7E9
  8
LE_ALL
 10
465.7667989909515
 20
-116.2130604172678
 30
0.0
  0
VERTEX
  5
7EA
  8
LE_ALL
 10
466.1419852122428
 20
-116.1751232525251
 30
0.0
  0
VERTEX
  5
7EB
  8
LE_ALL
 10
466.4877588141737
 20
-116.1135166397407
 30
0.0
  0
VERTEX
  5
7EC
  8
LE_ALL
 10
466.7908319111039
 20
-116.0306080865
 30
0.0
  0
VERTEX
  5
7ED
  8
LE_ALL
 10
467.0395575738572
 20
-115.9295837220157
 30
0.0
  0
VERTEX
  5
7EE
  8
LE_ALL
 10
467.2243774146791
 20
-115.8143258559685
 30
0.0
  0
VERTEX
  5
7EF
  8
LE_ALL
 10
467.3381889107189
 20
-115.6892637835235
 30
0.0
  0
VERTEX
  5
7F0
  8
LE_ALL
 10
467.37661835
 20
-115.55920357
 30
0.0
  0
SEQEND
  5
9C9
  8
LE_ALL
  0
POLYLINE
  5
406
  8
LE_ALL
 66
     1
 10
0.0
 20
0.0
 30
0.0
  0
VERTEX
  5
7F1
  8
LE_ALL
 10
451.82026917
 20
-129.27861399
 30
0.0
  0
VERTEX
  5
7F2
  8
LE_ALL
 10
451.781839730894
 20
-129.1485537767699
 30
0.0
  0
VERTEX
  5
7F3
  8
LE_ALL
 10
451.668028235366
 20
-129.0234917045842
 30
0.0
  0
VERTEX
  5
7F4
  8
LE_ALL
 10
451.483208395353
 20
-128.9082338387305
 30
0.0
  0
VERTEX
  5
7F5
  8
LE_ALL
 10
451.2344827336423
 20
-128.8072094743461
 30
0.0
  0
VERTEX
  5
7F6
  8
LE_ALL
 10
450.9314096379047
 20
-128.7243009210902
 30
0.0
  0
VERTEX
  5
7F7
  8
LE_ALL
 10
450.5856360372176
 20
-128.6626943081618
 30
0.0
  0
VERTEX
  5
7F8
  8
LE_ALL
 10
450.210449817113
 20
-128.6247571431407
 30
0.0
  0
VERTEX
  5
7F9
  8
LE_ALL
 10
449.8202691735898
 20
-128.61194733
 30
0.0
  0
VERTEX
  5
7FA
  8
LE_ALL
 10
449.4300885299287
 20
-128.6247571426738
 30
0.0
  0
VERTEX
  5
7FB
  8
LE_ALL
 10
449.0549023094155
 20
-128.6626943072459
 30
0.0
  0
VERTEX
  5
7FC
  8
LE_ALL
 10
448.7091287080649
 20
-128.7243009197607
 30
0.0
  0
VERTEX
  5
7FD
  8
LE_ALL
 10
448.4060556114345
 20
-128.8072094726538
 30
0.0
  0
VERTEX
  5
7FE
  8
LE_ALL
 10
448.1573299486358
 20
-128.9082338367406
 30
0.0
  0
VERTEX
  5
7FF
  8
LE_ALL
 10
447.9725101073815
 20
-129.0234917023732
 30
0.0
  0
VERTEX
  5
800
  8
LE_ALL
 10
447.8586986105067
 20
-129.1485537744227
 30
0.0
  0
VERTEX
  5
801
  8
LE_ALL
 10
447.82026917
 20
-129.2786139876068
 30
0.0
  0
SEQEND
  5
9CA
  8
LE_ALL
  0
POLYLINE
  5
407
  8
LE_ALL
 66
     1
 10
0.0
 20
0.0
 30
0.0
  0
VERTEX
  5
802
  8
LE_ALL
 10
447.82026917
 20
-129.2786139876068
 30
0.0
  0
VERTEX
  5
803
  8
LE_ALL
 10
447.8586986078805
 20
-129.4086742011763
 30
0.0
  0
VERTEX
  5
804
  8
LE_ALL
 10
447.9725101025734
 20
-129.5337362737575
 30
0.0
  0
VERTEX
  5
805
  8
LE_ALL
 10
448.157329942154
 20
-129.6489941400258
 30
0.0
  0
VERTEX
  5
806
  8
LE_ALL
 10
448.4060556038194
 20
-129.7500185048078
 30
0.0
  0
VERTEX
  5
807
  8
LE_ALL
 10
448.7091286998567
 20
-129.8329270584111
 30
0.0
  0
VERTEX
  5
808
  8
LE_ALL
 10
449.0549023011242
 20
-129.8945336716093
 30
0.0
  0
VERTEX
  5
809
  8
LE_ALL
 10
449.4300885220068
 20
-129.9324708368009
 30
0.0
  0
VERTEX
  5
80A
  8
LE_ALL
 10
449.8202691664102
 20
-129.94528065
 30
0.0
  0
VERTEX
  5
80B
  8
LE_ALL
 10
450.2104498109516
 20
-129.9324708372679
 30
0.0
  0
VERTEX
  5
80C
  8
LE_ALL
 10
450.5856360322428
 20
-129.8945336725251
 30
0.0
  0
VERTEX
  5
80D
  8
LE_ALL
 10
450.9314096341737
 20
-129.8329270597407
 30
0.0
  0
VERTEX
  5
80E
  8
LE_ALL
 10
451.2344827311039
 20
-129.7500185065001
 30
0.0
  0
VERTEX
  5
80F
  8
LE_ALL
 10
451.4832083938572
 20
-129.6489941420157
 30
0.0
  0
VERTEX
  5
810
  8
LE_ALL
 10
451.6680282346791
 20
-129.5337362759686
 30
0.0
  0
VERTEX
  5
811
  8
LE_ALL
 10
451.781839730719
 20
-129.4086742035235
 30
0.0
  0
VERTEX
  5
812
  8
LE_ALL
 10
451.82026917
 20
-129.27861399
 30
0.0
  0
SEQEND
  5
9CB
  8
LE_ALL
  0
POLYLINE
  5
408
  8
LE_ALL
 66
     1
 10
0.0
 20
0.0
 30
0.0
  0
VERTEX
  5
813
  8
LE_ALL
 10
502.92236353
 20
-120.03754652
 30
0.0
  0
VERTEX
  5
814
  8
LE_ALL
 10
502.883934090894
 20
-119.9074863067699
 30
0.0
  0
VERTEX
  5
815
  8
LE_ALL
 10
502.770122595366
 20
-119.7824242345842
 30
0.0
  0
VERTEX
  5
816
  8
LE_ALL
 10
502.585302755353
 20
-119.6671663687305
 30
0.0
  0
VERTEX
  5
817
  8
LE_ALL
 10
502.3365770936423
 20
-119.5661420043461
 30
0.0
  0
VERTEX
  5
818
  8
LE_ALL
 10
502.0335039979047
 20
-119.4832334510903
 30
0.0
  0
VERTEX
  5
819
  8
LE_ALL
 10
501.6877303972176
 20
-119.4216268381618
 30
0.0
  0
VERTEX
  5
81A
  8
LE_ALL
 10
501.312544177113
 20
-119.3836896731407
 30
0.0
  0
VERTEX
  5
81B
  8
LE_ALL
 10
500.9223635335898
 20
-119.37087986
 30
0.0
  0
VERTEX
  5
81C
  8
LE_ALL
 10
500.5321828899287
 20
-119.3836896726738
 30
0.0
  0
VERTEX
  5
81D
  8
LE_ALL
 10
500.1569966694155
 20
-119.421626837246
 30
0.0
  0
VERTEX
  5
81E
  8
LE_ALL
 10
499.8112230680649
 20
-119.4832334497607
 30
0.0
  0
VERTEX
  5
81F
  8
LE_ALL
 10
499.5081499714344
 20
-119.5661420026538
 30
0.0
  0
VERTEX
  5
820
  8
LE_ALL
 10
499.2594243086357
 20
-119.6671663667406
 30
0.0
  0
VERTEX
  5
821
  8
LE_ALL
 10
499.0746044673815
 20
-119.7824242323732
 30
0.0
  0
VERTEX
  5
822
  8
LE_ALL
 10
498.9607929705066
 20
-119.9074863044227
 30
0.0
  0
VERTEX
  5
823
  8
LE_ALL
 10
498.92236353
 20
-120.0375465176068
 30
0.0
  0
SEQEND
  5
9CC
  8
LE_ALL
  0
POLYLINE
  5
409
  8
LE_ALL
 66
     1
 10
0.0
 20
0.0
 30
0.0
  0
VERTEX
  5
824
  8
LE_ALL
 10
498.92236353
 20
-120.0375465176068
 30
0.0
  0
VERTEX
  5
825
  8
LE_ALL
 10
498.9607929678804
 20
-120.1676067311763
 30
0.0
  0
VERTEX
  5
826
  8
LE_ALL
 10
499.0746044625733
 20
-120.2926688037575
 30
0.0
  0
VERTEX
  5
827
  8
LE_ALL
 10
499.259424302154
 20
-120.4079266700258
 30
0.0
  0
VERTEX
  5
828
  8
LE_ALL
 10
499.5081499638193
 20
-120.5089510348078
 30
0.0
  0
VERTEX
  5
829
  8
LE_ALL
 10
499.8112230598567
 20
-120.5918595884112
 30
0.0
  0
VERTEX
  5
82A
  8
LE_ALL
 10
500.1569966611241
 20
-120.6534662016093
 30
0.0
  0
VERTEX
  5
82B
  8
LE_ALL
 10
500.5321828820068
 20
-120.691403366801
 30
0.0
  0
VERTEX
  5
82C
  8
LE_ALL
 10
500.9223635264102
 20
-120.70421318
 30
0.0
  0
VERTEX
  5
82D
  8
LE_ALL
 10
501.3125441709515
 20
-120.6914033672679
 30
0.0
  0
VERTEX
  5
82E
  8
LE_ALL
 10
501.6877303922428
 20
-120.6534662025251
 30
0.0
  0
VERTEX
  5
82F
  8
LE_ALL
 10
502.0335039941737
 20
-120.5918595897407
 30
0.0
  0
VERTEX
  5
830
  8
LE_ALL
 10
502.3365770911039
 20
-120.5089510365001
 30
0.0
  0
VERTEX
  5
831
  8
LE_ALL
 10
502.5853027538572
 20
-120.4079266720157
 30
0.0
  0
VERTEX
  5
832
  8
LE_ALL
 10
502.7701225946791
 20
-120.2926688059686
 30
0.0
  0
VERTEX
  5
833
  8
LE_ALL
 10
502.8839340907189
 20
-120.1676067335235
 30
0.0
  0
VERTEX
  5
834
  8
LE_ALL
 10
502.92236353
 20
-120.03754652
 30
0.0
  0
SEQEND
  5
9CD
  8
LE_ALL
  0
POLYLINE
  5
40A
  8
LE_ALL
 66
     1
 10
0.0
 20
0.0
 30
0.0
  0
VERTEX
  5
835
  8
LE_ALL
 10
495.14418894
 20
-126.89725173
 30
0.0
  0
VERTEX
  5
836
  8
LE_ALL
 10
495.105759500894
 20
-126.7671915167699
 30
0.0
  0
VERTEX
  5
837
  8
LE_ALL
 10
494.991948005366
 20
-126.6421294445842
 30
0.0
  0
VERTEX
  5
838
  8
LE_ALL
 10
494.807128165353
 20
-126.5268715787305
 30
0.0
  0
VERTEX
  5
839
  8
LE_ALL
 10
494.5584025036423
 20
-126.4258472143461
 30
0.0
  0
VERTEX
  5
83A
  8
LE_ALL
 10
494.2553294079047
 20
-126.3429386610903
 30
0.0
  0
VERTEX
  5
83B
  8
LE_ALL
 10
493.9095558072176
 20
-126.2813320481618
 30
0.0
  0
VERTEX
  5
83C
  8
LE_ALL
 10
493.534369587113
 20
-126.2433948831407
 30
0.0
  0
VERTEX
  5
83D
  8
LE_ALL
 10
493.1441889435898
 20
-126.23058507
 30
0.0
  0
VERTEX
  5
83E
  8
LE_ALL
 10
492.7540082999287
 20
-126.2433948826738
 30
0.0
  0
VERTEX
  5
83F
  8
LE_ALL
 10
492.3788220794155
 20
-126.2813320472459
 30
0.0
  0
VERTEX
  5
840
  8
LE_ALL
 10
492.0330484780649
 20
-126.3429386597607
 30
0.0
  0
VERTEX
  5
841
  8
LE_ALL
 10
491.7299753814344
 20
-126.4258472126538
 30
0.0
  0
VERTEX
  5
842
  8
LE_ALL
 10
491.4812497186358
 20
-126.5268715767406
 30
0.0
  0
VERTEX
  5
843
  8
LE_ALL
 10
491.2964298773815
 20
-126.6421294423732
 30
0.0
  0
VERTEX
  5
844
  8
LE_ALL
 10
491.1826183805067
 20
-126.7671915144227
 30
0.0
  0
VERTEX
  5
845
  8
LE_ALL
 10
491.14418894
 20
-126.8972517276068
 30
0.0
  0
SEQEND
  5
9CE
  8
LE_ALL
  0
POLYLINE
  5
40B
  8
LE_ALL
 66
     1
 10
0.0
 20
0.0
 30
0.0
  0
VERTEX
  5
846
  8
LE_ALL
 10
491.14418894
 20
-126.8972517276068
 30
0.0
  0
VERTEX
  5
847
  8
LE_ALL
 10
491.1826183778804
 20
-127.0273119411763
 30
0.0
  0
VERTEX
  5
848
  8
LE_ALL
 10
491.2964298725734
 20
-127.1523740137575
 30
0.0
  0
VERTEX
  5
849
  8
LE_ALL
 10
491.481249712154
 20
-127.2676318800258
 30
0.0
  0
VERTEX
  5
84A
  8
LE_ALL
 10
491.7299753738193
 20
-127.3686562448078
 30
0.0
  0
VERTEX
  5
84B
  8
LE_ALL
 10
492.0330484698567
 20
-127.4515647984111
 30
0.0
  0
VERTEX
  5
84C
  8
LE_ALL
 10
492.3788220711241
 20
-127.5131714116093
 30
0.0
  0
VERTEX
  5
84D
  8
LE_ALL
 10
492.7540082920068
 20
-127.551108576801
 30
0.0
  0
VERTEX
  5
84E
  8
LE_ALL
 10
493.1441889364102
 20
-127.56391839
 30
0.0
  0
VERTEX
  5
84F
  8
LE_ALL
 10
493.5343695809515
 20
-127.5511085772678
 30
0.0
  0
VERTEX
  5
850
  8
LE_ALL
 10
493.9095558022428
 20
-127.5131714125251
 30
0.0
  0
VERTEX
  5
851
  8
LE_ALL
 10
494.2553294041737
 20
-127.4515647997407
 30
0.0
  0
VERTEX
  5
852
  8
LE_ALL
 10
494.5584025011039
 20
-127.3686562465
 30
0.0
  0
VERTEX
  5
853
  8
LE_ALL
 10
494.8071281638572
 20
-127.2676318820157
 30
0.0
  0
VERTEX
  5
854
  8
LE_ALL
 10
494.9919480046791
 20
-127.1523740159685
 30
0.0
  0
VERTEX
  5
855
  8
LE_ALL
 10
495.1057595007189
 20
-127.0273119435235
 30
0.0
  0
VERTEX
  5
856
  8
LE_ALL
 10
495.14418894
 20
-126.89725173
 30
0.0
  0
SEQEND
  5
9CF
  8
LE_ALL
  0
POLYLINE
  5
40C
  8
LE_ALL
 66
     1
 10
0.0
 20
0.0
 30
0.0
  0
VERTEX
  5
857
  8
LE_ALL
 10
487.36601434
 20
-133.75695694
 30
0.0
  0
VERTEX
  5
858
  8
LE_ALL
 10
487.327584900894
 20
-133.6268967267699
 30
0.0
  0
VERTEX
  5
859
  8
LE_ALL
 10
487.213773405366
 20
-133.5018346545842
 30
0.0
  0
VERTEX
  5
85A
  8
LE_ALL
 10
487.028953565353
 20
-133.3865767887305
 30
0.0
  0
VERTEX
  5
85B
  8
LE_ALL
 10
486.7802279036423
 20
-133.2855524243461
 30
0.0
  0
VERTEX
  5
85C
  8
LE_ALL
 10
486.4771548079047
 20
-133.2026438710903
 30
0.0
  0
VERTEX
  5
85D
  8
LE_ALL
 10
486.1313812072176
 20
-133.1410372581618
 30
0.0
  0
VERTEX
  5
85E
  8
LE_ALL
 10
485.756194987113
 20
-133.1031000931407
 30
0.0
  0
VERTEX
  5
85F
  8
LE_ALL
 10
485.3660143435898
 20
-133.09029028
 30
0.0
  0
VERTEX
  5
860
  8
LE_ALL
 10
484.9758336999287
 20
-133.1031000926738
 30
0.0
  0
VERTEX
  5
861
  8
LE_ALL
 10
484.6006474794155
 20
-133.141037257246
 30
0.0
  0
VERTEX
  5
862
  8
LE_ALL
 10
484.2548738780649
 20
-133.2026438697607
 30
0.0
  0
VERTEX
  5
863
  8
LE_ALL
 10
483.9518007814344
 20
-133.2855524226538
 30
0.0
  0
VERTEX
  5
864
  8
LE_ALL
 10
483.7030751186358
 20
-133.3865767867406
 30
0.0
  0
VERTEX
  5
865
  8
LE_ALL
 10
483.5182552773815
 20
-133.5018346523732
 30
0.0
  0
VERTEX
  5
866
  8
LE_ALL
 10
483.4044437805067
 20
-133.6268967244227
 30
0.0
  0
VERTEX
  5
867
  8
LE_ALL
 10
483.36601434
 20
-133.7569569376068
 30
0.0
  0
SEQEND
  5
9D0
  8
LE_ALL
  0
POLYLINE
  5
40D
  8
LE_ALL
 66
     1
 10
0.0
 20
0.0
 30
0.0
  0
VERTEX
  5
868
  8
LE_ALL
 10
483.36601434
 20
-133.7569569376068
 30
0.0
  0
VERTEX
  5
869
  8
LE_ALL
 10
483.4044437778804
 20
-133.8870171511763
 30
0.0
  0
VERTEX
  5
86A
  8
LE_ALL
 10
483.5182552725734
 20
-134.0120792237575
 30
0.0
  0
VERTEX
  5
86B
  8
LE_ALL
 10
483.703075112154
 20
-134.1273370900258
 30
0.0
  0
VERTEX
  5
86C
  8
LE_ALL
 10
483.9518007738193
 20
-134.2283614548078
 30
0.0
  0
VERTEX
  5
86D
  8
LE_ALL
 10
484.2548738698567
 20
-134.3112700084112
 30
0.0
  0
VERTEX
  5
86E
  8
LE_ALL
 10
484.6006474711241
 20
-134.3728766216093
 30
0.0
  0
VERTEX
  5
86F
  8
LE_ALL
 10
484.9758336920068
 20
-134.410813786801
 30
0.0
  0
VERTEX
  5
870
  8
LE_ALL
 10
485.3660143364102
 20
-134.4236236
 30
0.0
  0
VERTEX
  5
871
  8
LE_ALL
 10
485.7561949809515
 20
-134.4108137872679
 30
0.0
  0
VERTEX
  5
872
  8
LE_ALL
 10
486.1313812022428
 20
-134.3728766225251
 30
0.0
  0
VERTEX
  5
873
  8
LE_ALL
 10
486.4771548041737
 20
-134.3112700097407
 30
0.0
  0
VERTEX
  5
874
  8
LE_ALL
 10
486.7802279011039
 20
-134.2283614565001
 30
0.0
  0
VERTEX
  5
875
  8
LE_ALL
 10
487.0289535638572
 20
-134.1273370920157
 30
0.0
  0
VERTEX
  5
876
  8
LE_ALL
 10
487.2137734046791
 20
-134.0120792259686
 30
0.0
  0
VERTEX
  5
877
  8
LE_ALL
 10
487.3275849007189
 20
-133.8870171535235
 30
0.0
  0
VERTEX
  5
878
  8
LE_ALL
 10
487.36601434
 20
-133.75695694
 30
0.0
  0
SEQEND
  5
9D1
  8
LE_ALL
  0
LINE
  5
40E
  8
LE_ALL
 10
508.12583987
 20
-119.34153178
 30
0.0
 11
489.38751016
 21
-135.86718524
 31
0.0
  0
LINE
  5
40F
  8
LE_ALL
 10
489.38751016
 20
-138.22420784
 30
0.0
 11
489.38751016
 21
-135.86718524
 31
0.0
  0
POLYLINE
  5
410
  8
LE_ALL
 66
     1
 10
0.0
 20
0.0
 30
0.0
  0
VERTEX
  5
411
  8
LE_ALL
 10
489.38751016
 20
-138.22420784
 30
0.0
  0
VERTEX
  5
412
  8
LE_ALL
 10
508.12583987
 20
-121.69855438
 30
0.0
  0
VERTEX
  5
413
  8
LE_ALL
 10
508.12583987
 20
-119.34153178
 30
0.0
  0
VERTEX
  5
414
  8
LE_ALL
 10
506.08932652
 20
-117.83773609
 30
0.0
  0
SEQEND
  5
415
  8
LE_ALL
  0
LINE
  5
416
  8
LE_ALL
 10
457.91548767
 20
-111.76840288
 30
0.0
 11
506.08932652
 21
-117.83773609
 31
0.0
  0
LINE
  5
417
  8
LE_ALL
 10
436.70228423
 20
-130.47668982
 30
0.0
 11
457.91548767
 21
-111.76840288
 31
0.0
  0
LINE
  5
418
  8
LE_ALL
 10
484.87612308
 20
-136.54602302
 30
0.0
 11
436.70228423
 21
-130.47668982
 31
0.0
  0
LINE
  5
419
  8
LE_ALL
 10
484.87612308
 20
-136.54602302
 30
0.0
 11
489.38751016
 21
-135.86718524
 31
0.0
  0
LINE
  5
41A
  8
LE_ALL
 10
484.87612308
 20
-138.90304563
 30
0.0
 11
484.87612308
 21
-136.54602302
 31
0.0
  0
LINE
  5
41B
  8
LE_ALL
 10
436.70228423
 20
-132.83371242
 30
0.0
 11
484.87612308
 21
-138.90304563
 31
0.0
  0
LINE
  5
41C
  8
LE_ALL
 10
489.38751016
 20
-138.22420784
 30
0.0
 11
484.87612308
 21
-138.90304563
 31
0.0
  0
ENDBLK
  8
0
  0
BLOCK
  8
0
  2
_00060
 70
     0
 10
0.0
 20
0.0
 30
0.0
  0
INSERT
  5
41F
  8
0
  2
_00061
 10
485.36601434
 20
-132.8141479
 30
0.0
  0
ENDBLK
  8
0
  0
BLOCK
  8
0
  2
_00061
 70
     0
 10
485.36601434
 20
-132.8141479
 30
0.0
  0
LINE
  5
422
  8
LE_ALL
  6
STRICHPUNKT2
 62
     1
 10
485.36601434
 20
-132.8141479
 30
0.0
 11
485.36601434
 21
-134.4236236
 31
0.0
  0
LINE
  5
423
  8
LE_ALL
  6
STRICHPUNKT2
 62
     1
 10
485.36601434
 20
-133.75695694
 30
0.0
 11
488.17225738
 21
-134.11051033
 31
0.0
  0
LINE
  5
424
  8
LE_ALL
  6
STRICHPUNKT2
 62
     1
 10
485.36601434
 20
-133.75695694
 30
0.0
 11
482.5597713
 21
-133.40340355
 31
0.0
  0
LINE
  5
425
  8
LE_ALL
  6
STRICHPUNKT2
 62
     1
 10
485.36601434
 20
-133.75695694
 30
0.0
 11
486.42667451
 21
-132.82154259
 31
0.0
  0
LINE
  5
426
  8
LE_ALL
  6
STRICHPUNKT2
 62
     1
 10
485.36601434
 20
-133.75695694
 30
0.0
 11
484.30535417
 21
-134.69237128
 31
0.0
  0
LINE
  5
427
  8
LE_ALL
  6
STRICHPUNKT2
 62
     1
 10
493.14418894
 20
-125.95444269
 30
0.0
 11
493.14418894
 21
-127.5639184
 31
0.0
  0
LINE
  5
428
  8
LE_ALL
  6
STRICHPUNKT2
 62
     1
 10
493.14418894
 20
-126.89725173
 30
0.0
 11
495.95043198
 21
-127.25080512
 31
0.0
  0
LINE
  5
429
  8
LE_ALL
  6
STRICHPUNKT2
 62
     1
 10
493.14418894
 20
-126.89725173
 30
0.0
 11
490.3379459
 21
-126.54369834
 31
0.0
  0
LINE
  5
42A
  8
LE_ALL
  6
STRICHPUNKT2
 62
     1
 10
493.14418894
 20
-126.89725173
 30
0.0
 11
494.20484911
 21
-125.96183738
 31
0.0
  0
LINE
  5
42B
  8
LE_ALL
  6
STRICHPUNKT2
 62
     1
 10
493.14418894
 20
-126.89725173
 30
0.0
 11
492.08352876
 21
-127.83266608
 31
0.0
  0
LINE
  5
42C
  8
LE_ALL
  6
STRICHPUNKT2
 62
     1
 10
500.92236353
 20
-119.09473748
 30
0.0
 11
500.92236353
 21
-120.70421319
 31
0.0
  0
LINE
  5
42D
  8
LE_ALL
  6
STRICHPUNKT2
 62
     1
 10
500.92236353
 20
-120.03754652
 30
0.0
 11
503.72860657
 21
-120.39109991
 31
0.0
  0
LINE
  5
42E
  8
LE_ALL
  6
STRICHPUNKT2
 62
     1
 10
500.92236353
 20
-120.03754652
 30
0.0
 11
498.11612049
 21
-119.68399313
 31
0.0
  0
LINE
  5
42F
  8
LE_ALL
  6
STRICHPUNKT2
 62
     1
 10
500.92236353
 20
-120.03754652
 30
0.0
 11
501.9830237
 21
-119.10213217
 31
0.0
  0
LINE
  5
430
  8
LE_ALL
  6
STRICHPUNKT2
 62
     1
 10
500.92236353
 20
-120.03754652
 30
0.0
 11
499.86170336
 21
-120.97296087
 31
0.0
  0
LINE
  5
431
  8
LE_ALL
  6
STRICHPUNKT2
 62
     1
 10
449.82026917
 20
-128.33580495
 30
0.0
 11
449.82026917
 21
-129.94528066
 31
0.0
  0
LINE
  5
432
  8
LE_ALL
  6
STRICHPUNKT2
 62
     1
 10
449.82026917
 20
-129.27861399
 30
0.0
 11
452.62651221
 21
-129.63216738
 31
0.0
  0
LINE
  5
433
  8
LE_ALL
  6
STRICHPUNKT2
 62
     1
 10
449.82026917
 20
-129.27861399
 30
0.0
 11
447.01402613
 21
-128.9250606
 31
0.0
  0
LINE
  5
434
  8
LE_ALL
  6
STRICHPUNKT2
 62
     1
 10
449.82026917
 20
-129.27861399
 30
0.0
 11
450.88092934
 21
-128.34319964
 31
0.0
  0
LINE
  5
435
  8
LE_ALL
  6
STRICHPUNKT2
 62
     1
 10
449.82026917
 20
-129.27861399
 30
0.0
 11
448.759609
 21
-130.21402834
 31
0.0
  0
LINE
  5
436
  8
LE_ALL
  6
STRICHPUNKT2
 62
     1
 10
465.37661835
 20
-114.61639453
 30
0.0
 11
465.37661835
 21
-116.22587024
 31
0.0
  0
LINE
  5
437
  8
LE_ALL
  6
STRICHPUNKT2
 62
     1
 10
465.37661835
 20
-115.55920357
 30
0.0
 11
468.18286139
 21
-115.91275696
 31
0.0
  0
LINE
  5
438
  8
LE_ALL
  6
STRICHPUNKT2
 62
     1
 10
465.37661835
 20
-115.55920357
 30
0.0
 11
462.57037531
 21
-115.20565018
 31
0.0
  0
LINE
  5
439
  8
LE_ALL
  6
STRICHPUNKT2
 62
     1
 10
465.37661835
 20
-115.55920357
 30
0.0
 11
466.43727853
 21
-114.62378923
 31
0.0
  0
LINE
  5
43A
  8
LE_ALL
  6
STRICHPUNKT2
 62
     1
 10
465.37661835
 20
-115.55920357
 30
0.0
 11
464.31595818
 21
-116.49461792
 31
0.0
  0
LINE
  5
43B
  8
LE_ALL
  6
STRICHPUNKT2
 62
     1
 10
471.71053662
 20
-127.41517999
 30
0.0
 11
471.71053662
 21
-129.82939355
 31
0.0
  0
LINE
  5
43C
  8
LE_ALL
  6
STRICHPUNKT2
 62
     1
 10
471.71053662
 20
-128.82939355
 30
0.0
 11
475.91990118
 21
-129.35972364
 31
0.0
  0
LINE
  5
43D
  8
LE_ALL
  6
STRICHPUNKT2
 62
     1
 10
471.71053662
 20
-128.82939355
 30
0.0
 11
467.50117206
 21
-128.29906347
 31
0.0
  0
LINE
  5
43E
  8
LE_ALL
  6
STRICHPUNKT2
 62
     1
 10
471.71053662
 20
-128.82939355
 30
0.0
 11
473.30152687
 21
-127.42627203
 31
0.0
  0
LINE
  5
43F
  8
LE_ALL
  6
STRICHPUNKT2
 62
     1
 10
471.71053662
 20
-128.82939355
 30
0.0
 11
470.11954636
 21
-130.23251507
 31
0.0
  0
LINE
  5
440
  8
LE_ALL
  6
STRICHPUNKT2
 62
     1
 10
480.90292477
 20
-119.30825565
 30
0.0
 11
480.90292477
 21
-121.72246922
 31
0.0
  0
LINE
  5
441
  8
LE_ALL
  6
STRICHPUNKT2
 62
     1
 10
480.90292477
 20
-120.72246922
 30
0.0
 11
485.11228933
 21
-121.2527993
 31
0.0
  0
LINE
  5
442
  8
LE_ALL
  6
STRICHPUNKT2
 62
     1
 10
480.90292477
 20
-120.72246922
 30
0.0
 11
476.69356021
 21
-120.19213913
 31
0.0
  0
LINE
  5
443
  8
LE_ALL
  6
STRICHPUNKT2
 62
     1
 10
480.90292477
 20
-120.72246922
 30
0.0
 11
482.49391503
 21
-119.3193477
 31
0.0
  0
LINE
  5
444
  8
LE_ALL
  6
STRICHPUNKT2
 62
     1
 10
480.90292477
 20
-120.72246922
 30
0.0
 11
479.31193451
 21
-122.12559074
 31
0.0
  0
LINE
  5
445
  8
LE_ALL
  6
STRICHPUNKT2
 62
     1
 10
458.53385811
 20
-119.94403505
 30
0.0
 11
458.53385811
 21
-124.49667569
 31
0.0
  0
LINE
  5
446
  8
LE_ALL
  6
STRICHPUNKT2
 62
     1
 10
476.30673069
 20
-122.18320652
 30
0.0
 11
476.30673069
 21
-126.60926472
 31
0.0
  0
LINE
  5
447
  8
LE_ALL
  6
STRICHPUNKT2
 62
     1
 10
450.81668975
 20
-121.56448809
 30
0.0
 11
484.02389906
 21
-125.74820321
 31
0.0
  0
LINE
  5
448
  8
LE_ALL
  6
STRICHPUNKT2
 62
     1
 10
455.61704264
 20
-125.10914936
 30
0.0
 11
461.45067358
 21
-119.96437046
 31
0.0
  0
LINE
  5
449
  8
LE_ALL
  6
STRICHPUNKT2
 62
     1
 10
473.38991522
 20
-127.34832084
 30
0.0
 11
479.22354617
 21
-122.20354193
 31
0.0
  0
LINE
  5
44A
  8
LE_ALL
  6
STRICHPUNKT2
 62
     1
 10
458.92785033
 20
-124.54631404
 30
0.0
 11
460.47840176
 21
-123.17885621
 31
0.0
  0
LINE
  5
44B
  8
LE_ALL
  6
STRICHPUNKT2
 62
     1
 10
476.91321575
 20
-126.59808444
 30
0.0
 11
478.25127434
 21
-125.41802769
 31
0.0
  0
ENDBLK
  8
0
  0
BLOCK
  8
0
  2
BEND_ZONE_00062
 70
     0
 10
0.0
 20
0.0
 30
0.0
  0
INSERT
  5
44E
  8
0
  2
BEND_ZONE_00063
 10
434.36374836
 20
-127.82503939
 30
0.0
  0
ENDBLK
  8
0
  0
BLOCK
  8
0
  2
BEND_ZONE_00063
 70
     0
 10
434.36374836
 20
-127.82503939
 30
0.0
  0
LINE
  5
451
  8
LE_ALL
 10
434.36374836
 20
-127.82503939
 30
0.0
 11
455.5769518
 21
-109.11675245
 31
0.0
  0
POLYLINE
  5
452
  8
LE_ALL
 66
     1
 10
0.0
 20
0.0
 30
0.0
  0
VERTEX
  5
879
  8
LE_ALL
 10
432.0252125054856
 20
-127.5304115653177
 30
0.0
  0
VERTEX
  5
87A
  8
LE_ALL
 10
432.1150811312494
 20
-128.4613985396922
 30
0.0
  0
VERTEX
  5
87B
  8
LE_ALL
 10
432.3812333980447
 20
-129.379252970825
 30
0.0
  0
VERTEX
  5
87C
  8
LE_ALL
 10
432.8134412236069
 20
-130.2487022279706
 30
0.0
  0
VERTEX
  5
87D
  8
LE_ALL
 10
433.3950951037277
 20
-131.0363338640577
 30
0.0
  0
VERTEX
  5
87E
  8
LE_ALL
 10
434.1038424061821
 20
-131.7118796372815
 30
0.0
  0
VERTEX
  5
87F
  8
LE_ALL
 10
434.9124463698418
 20
-132.2493787026513
 30
0.0
  0
VERTEX
  5
880
  8
LE_ALL
 10
435.7898327981215
 20
-132.628175272696
 30
0.0
  0
VERTEX
  5
881
  8
LE_ALL
 10
436.7022842229172
 20
-132.8337124077858
 30
0.0
  0
SEQEND
  5
9D2
  8
LE_ALL
  0
POLYLINE
  5
453
  8
LE_ALL
 66
     1
 10
0.0
 20
0.0
 30
0.0
  0
VERTEX
  5
882
  8
LE_ALL
 10
434.3637483677427
 20
-127.8250393876588
 30
0.0
  0
VERTEX
  5
883
  8
LE_ALL
 10
434.4086826806246
 20
-128.2905328748461
 30
0.0
  0
VERTEX
  5
884
  8
LE_ALL
 10
434.5417588140223
 20
-128.7494600904125
 30
0.0
  0
VERTEX
  5
885
  8
LE_ALL
 10
434.7578627268035
 20
-129.1841847189853
 30
0.0
  0
VERTEX
  5
886
  8
LE_ALL
 10
435.0486896668638
 20
-129.5780005370289
 30
0.0
  0
VERTEX
  5
887
  8
LE_ALL
 10
435.4030633180911
 20
-129.9157734236408
 30
0.0
  0
VERTEX
  5
888
  8
LE_ALL
 10
435.8073652999209
 20
-130.1845229563257
 30
0.0
  0
VERTEX
  5
889
  8
LE_ALL
 10
436.2460585140607
 20
-130.373921241348
 30
0.0
  0
VERTEX
  5
88A
  8
LE_ALL
 10
436.7022842264586
 20
-130.4766898088929
 30
0.0
  0
SEQEND
  5
9D3
  8
LE_ALL
  0
POLYLINE
  5
454
  8
LE_ALL
 66
     1
 10
0.0
 20
0.0
 30
0.0
  0
VERTEX
  5
455
  8
LE_ALL
 10
436.70228423
 20
-130.47668982
 30
0.0
  0
VERTEX
  5
456
  8
LE_ALL
 10
457.91548767
 20
-111.76840288
 30
0.0
  0
SEQEND
  5
457
  8
LE_ALL
  0
POLYLINE
  5
458
  8
LE_ALL
 66
     1
 10
0.0
 20
0.0
 30
0.0
  0
VERTEX
  5
88B
  8
LE_ALL
 10
455.5769518077428
 20
-109.1167524576588
 30
0.0
  0
VERTEX
  5
88C
  8
LE_ALL
 10
455.6218861206247
 20
-109.5822459448461
 30
0.0
  0
VERTEX
  5
88D
  8
LE_ALL
 10
455.7549622540224
 20
-110.0411731604125
 30
0.0
  0
VERTEX
  5
88E
  8
LE_ALL
 10
455.9710661668035
 20
-110.4758977889853
 30
0.0
  0
VERTEX
  5
88F
  8
LE_ALL
 10
456.2618931068639
 20
-110.8697136070289
 30
0.0
  0
VERTEX
  5
890
  8
LE_ALL
 10
456.6162667580911
 20
-111.2074864936408
 30
0.0
  0
VERTEX
  5
891
  8
LE_ALL
 10
457.0205687399209
 20
-111.4762360263257
 30
0.0
  0
VERTEX
  5
892
  8
LE_ALL
 10
457.4592619540608
 20
-111.665634311348
 30
0.0
  0
VERTEX
  5
893
  8
LE_ALL
 10
457.9154876664587
 20
-111.7684028788929
 30
0.0
  0
SEQEND
  5
9D4
  8
LE_ALL
  0
ENDBLK
  8
0
  0
BLOCK
  8
0
  2
SHEET_FLANGE_00064
 70
     0
 10
0.0
 20
0.0
 30
0.0
  0
INSERT
  5
45B
  8
0
  2
SHEET_FLANGE_00065
 10
444.28285008
 20
-108.84281333
 30
0.0
  0
INSERT
  5
45C
  8
0
  2
_00066
 10
0.0
 20
0.0
 30
0.0
  0
ENDBLK
  8
0
  0
BLOCK
  8
0
  2
SHEET_FLANGE_00065
 70
     0
 10
444.28285008
 20
-108.84281333
 30
0.0
  0
POLYLINE
  5
45F
  8
LE_ALL
 66
     1
 10
0.0
 20
0.0
 30
0.0
  0
VERTEX
  5
894
  8
LE_ALL
 10
444.28285008
 20
-108.84281333
 30
0.0
  0
VERTEX
  5
895
  8
LE_ALL
 10
444.6509205225388
 20
-108.7826694537913
 30
0.0
  0
VERTEX
  5
896
  8
LE_ALL
 10
445.0312664638046
 20
-108.5151327239977
 30
0.0
  0
VERTEX
  5
897
  8
LE_ALL
 10
445.4092714226085
 20
-108.0504844270855
 30
0.0
  0
VERTEX
  5
898
  8
LE_ALL
 10
445.7704088804043
 20
-107.4065807364866
 30
0.0
  0
VERTEX
  5
899
  8
LE_ALL
 10
446.1008005272487
 20
-106.6081665098691
 30
0.0
  0
VERTEX
  5
89A
  8
LE_ALL
 10
446.3877495974683
 20
-105.6859243581359
 30
0.0
  0
VERTEX
  5
89B
  8
LE_ALL
 10
446.6202287992425
 20
-104.6752955298982
 30
0.0
  0
VERTEX
  5
89C
  8
LE_ALL
 10
446.7893040872431
 20
-103.6151179241695
 30
0.0
  0
VERTEX
  5
89D
  8
LE_ALL
 10
446.8884779929859
 20
-102.5461335716907
 30
0.0
  0
VERTEX
  5
89E
  8
LE_ALL
 10
446.9139393188991
 20
-101.5094229415406
 30
0.0
  0
VERTEX
  5
89F
  8
LE_ALL
 10
446.8647096005088
 20
-100.5448262417511
 30
0.0
  0
VERTEX
  5
8A0
  8
LE_ALL
 10
446.7426807082804
 20
-99.68941238245866
 30
0.0
  0
VERTEX
  5
8A1
  8
LE_ALL
 10
446.5525421440968
 20
-98.97605443847935
 30
0.0
  0
VERTEX
  5
8A2
  8
LE_ALL
 10
446.3016008263319
 20
-98.4321663554821
 30
0.0
  0
VERTEX
  5
8A3
  8
LE_ALL
 10
445.9995002890761
 20
-98.07864944743292
 30
0.0
  0
VERTEX
  5
8A4
  8
LE_ALL
 10
445.6578500865297
 20
-97.92908917082266
 30
0.0
  0
SEQEND
  5
9D5
  8
LE_ALL
  0
POLYLINE
  5
460
  8
LE_ALL
 66
     1
 10
0.0
 20
0.0
 30
0.0
  0
VERTEX
  5
8A5
  8
LE_ALL
 10
445.6578500865297
 20
-97.92908917082266
 30
0.0
  0
VERTEX
  5
8A6
  8
LE_ALL
 10
445.2897796434862
 20
-97.98923304357082
 30
0.0
  0
VERTEX
  5
8A7
  8
LE_ALL
 10
444.9094337014282
 20
-98.25676977095004
 30
0.0
  0
VERTEX
  5
8A8
  8
LE_ALL
 10
444.5314287416417
 20
-98.72141806654007
 30
0.0
  0
VERTEX
  5
8A9
  8
LE_ALL
 10
444.1702912827769
 20
-99.36532175687846
 30
0.0
  0
VERTEX
  5
8AA
  8
LE_ALL
 10
443.8398996348812
 20
-100.1637359841945
 30
0.0
  0
VERTEX
  5
8AB
  8
LE_ALL
 10
443.5529505637264
 20
-101.0859781374184
 30
0.0
  0
VERTEX
  5
8AC
  8
LE_ALL
 10
443.3204713612194
 20
-102.0966069677203
 30
0.0
  0
VERTEX
  5
8AD
  8
LE_ALL
 10
443.1513960727569
 20
-103.1567845758305
 30
0.0
  0
VERTEX
  5
8AE
  8
LE_ALL
 10
443.0522221668708
 20
-104.225768930731
 30
0.0
  0
VERTEX
  5
8AF
  8
LE_ALL
 10
443.0267608411556
 20
-105.2624795630626
 30
0.0
  0
VERTEX
  5
8B0
  8
LE_ALL
 10
443.075990560082
 20
-106.2270762645282
 30
0.0
  0
VERTEX
  5
8B1
  8
LE_ALL
 10
443.1980194531556
 20
-107.082490124758
 30
0.0
  0
VERTEX
  5
8B2
  8
LE_ALL
 10
443.3881580184395
 20
-107.7958480687501
 30
0.0
  0
VERTEX
  5
8B3
  8
LE_ALL
 10
443.6390993374842
 20
-108.3397361507102
 30
0.0
  0
VERTEX
  5
8B4
  8
LE_ALL
 10
443.9411998761063
 20
-108.693253056617
 30
0.0
  0
VERTEX
  5
8B5
  8
LE_ALL
 10
444.28285008
 20
-108.84281333
 30
0.0
  0
SEQEND
  5
9D6
  8
LE_ALL
  0
POLYLINE
  5
461
  8
LE_ALL
 66
     1
 10
0.0
 20
0.0
 30
0.0
  0
VERTEX
  5
8B6
  8
LE_ALL
 10
443.2744477741512
 20
-107.4186679881563
 30
0.0
  0
VERTEX
  5
8B7
  8
LE_ALL
 10
443.6160659094411
 20
-106.6954298223641
 30
0.0
  0
VERTEX
  5
8B8
  8
LE_ALL
 10
443.9207891026214
 20
-105.8370907501893
 30
0.0
  0
VERTEX
  5
8B9
  8
LE_ALL
 10
444.1771947220846
 20
-104.8758258447318
 30
0.0
  0
VERTEX
  5
8BA
  8
LE_ALL
 10
444.3756713335887
 20
-103.8476683818896
 30
0.0
  0
VERTEX
  5
8BB
  8
LE_ALL
 10
444.5087789874789
 20
-102.7911591232306
 30
0.0
  0
VERTEX
  5
8BC
  8
LE_ALL
 10
444.5715281072195
 20
-101.7459016050846
 30
0.0
  0
VERTEX
  5
8BD
  8
LE_ALL
 10
444.5615665250251
 20
-100.7510775892342
 30
0.0
  0
VERTEX
  5
8BE
  8
LE_ALL
 10
444.4792676535081
 20
-99.84397832393938
 30
0.0
  0
VERTEX
  5
8BF
  8
LE_ALL
 10
444.3277164882059
 20
-99.05860667137408
 30
0.0
  0
SEQEND
  5
9D7
  8
LE_ALL
  0
POLYLINE
  5
462
  8
LE_ALL
 66
     1
 10
0.0
 20
0.0
 30
0.0
  0
VERTEX
  5
8C0
  8
LE_ALL
 10
449.71115094
 20
-99.40234869
 30
0.0
  0
VERTEX
  5
8C1
  8
LE_ALL
 10
450.0122994840136
 20
-99.3531400639761
 30
0.0
  0
VERTEX
  5
8C2
  8
LE_ALL
 10
450.3234916178902
 20
-99.13424637585972
 30
0.0
  0
VERTEX
  5
8C3
  8
LE_ALL
 10
450.6327684024709
 20
-98.75407958730901
 30
0.0
  0
VERTEX
  5
8C4
  8
LE_ALL
 10
450.9282445043957
 20
-98.22724929477472
 30
0.0
  0
VERTEX
  5
8C5
  8
LE_ALL
 10
451.1985649427983
 20
-97.57400129090298
 30
0.0
  0
VERTEX
  5
8C6
  8
LE_ALL
 10
451.4333414548522
 20
-96.8194395300797
 30
0.0
  0
VERTEX
  5
8C7
  8
LE_ALL
 10
451.6235517108836
 20
-95.99256139754415
 30
0.0
  0
VERTEX
  5
8C8
  8
LE_ALL
 10
451.7618860374413
 20
-95.1251433561387
 30
0.0
  0
VERTEX
  5
8C9
  8
LE_ALL
 10
451.8430283239465
 20
-94.25051979466494
 30
0.0
  0
VERTEX
  5
8CA
  8
LE_ALL
 10
451.8638603178409
 20
-93.40230200601923
 30
0.0
  0
VERTEX
  5
8CB
  8
LE_ALL
 10
451.8235814572839
 20
-92.61308652405896
 30
0.0
  0
VERTEX
  5
8CC
  8
LE_ALL
 10
451.7237396362943
 20
-91.91320245708961
 30
0.0
  0
VERTEX
  5
8CD
  8
LE_ALL
 10
451.5681717200522
 20
-91.32954595724406
 30
0.0
  0
VERTEX
  5
8CE
  8
LE_ALL
 10
451.3628560963217
 20
-90.88454661644194
 30
0.0
  0
VERTEX
  5
8CF
  8
LE_ALL
 10
451.1156829293623
 20
-90.59530550975279
 30
0.0
  0
VERTEX
  5
8D0
  8
LE_ALL
 10
450.8361509453424
 20
-90.47293801067309
 30
0.0
  0
SEQEND
  5
9D8
  8
LE_ALL
  0
POLYLINE
  5
463
  8
LE_ALL
 66
     1
 10
0.0
 20
0.0
 30
0.0
  0
VERTEX
  5
8D1
  8
LE_ALL
 10
450.8361509453424
 20
-90.47293801067309
 30
0.0
  0
VERTEX
  5
8D2
  8
LE_ALL
 10
450.5350024009159
 20
-90.52214663386562
 30
0.0
  0
VERTEX
  5
8D3
  8
LE_ALL
 10
450.2238102663911
 20
-90.74104032000662
 30
0.0
  0
VERTEX
  5
8D4
  8
LE_ALL
 10
449.9145334810065
 20
-91.12120710747557
 30
0.0
  0
VERTEX
  5
8D5
  8
LE_ALL
 10
449.6190573782071
 20
-91.64803739979672
 30
0.0
  0
VERTEX
  5
8D6
  8
LE_ALL
 10
449.3487369389443
 20
-92.3012854042399
 30
0.0
  0
VERTEX
  5
8D7
  8
LE_ALL
 10
449.1139604261253
 20
-93.05584716628285
 30
0.0
  0
VERTEX
  5
8D8
  8
LE_ALL
 10
448.9237501694942
 20
-93.88272530050733
 30
0.0
  0
VERTEX
  5
8D9
  8
LE_ALL
 10
448.7854158425587
 20
-94.75014334386131
 30
0.0
  0
VERTEX
  5
8DA
  8
LE_ALL
 10
448.7042735559362
 20
-95.62476690731641
 30
0.0
  0
VERTEX
  5
8DB
  8
LE_ALL
 10
448.6834415622037
 20
-96.47298469774701
 30
0.0
  0
VERTEX
  5
8DC
  8
LE_ALL
 10
448.7237204231996
 20
-97.26220018107861
 30
0.0
  0
VERTEX
  5
8DD
  8
LE_ALL
 10
448.8235622448806
 20
-97.96208424881488
 30
0.0
  0
VERTEX
  5
8DE
  8
LE_ALL
 10
448.9791301620229
 20
-98.54574074867092
 30
0.0
  0
VERTEX
  5
8DF
  8
LE_ALL
 10
449.1844457868006
 20
-98.9907400886245
 30
0.0
  0
VERTEX
  5
8E0
  8
LE_ALL
 10
449.4316189548778
 20
-99.27998119356079
 30
0.0
  0
VERTEX
  5
8E1
  8
LE_ALL
 10
449.71115094
 20
-99.40234869
 30
0.0
  0
SEQEND
  5
9D9
  8
LE_ALL
  0
POLYLINE
  5
464
  8
LE_ALL
 66
     1
 10
0.0
 20
0.0
 30
0.0
  0
VERTEX
  5
8E2
  8
LE_ALL
 10
448.7563977260841
 20
-97.55237690115797
 30
0.0
  0
VERTEX
  5
8E3
  8
LE_ALL
 10
448.9996414078955
 20
-96.85721748009232
 30
0.0
  0
VERTEX
  5
8E4
  8
LE_ALL
 10
449.2043397673677
 20
-96.0818842532202
 30
0.0
  0
VERTEX
  5
8E5
  8
LE_ALL
 10
449.3630809031064
 20
-95.25445117990375
 30
0.0
  0
VERTEX
  5
8E6
  8
LE_ALL
 10
449.4701169740036
 20
-94.40487869737197
 30
0.0
  0
VERTEX
  5
8E7
  8
LE_ALL
 10
449.5215723222125
 20
-93.56392888639627
 30
0.0
  0
VERTEX
  5
8E8
  8
LE_ALL
 10
449.5155838064351
 20
-92.76205161033954
 30
0.0
  0
VERTEX
  5
8E9
  8
LE_ALL
 10
449.4523682642101
 20
-92.02828195925242
 30
0.0
  0
SEQEND
  5
9DA
  8
LE_ALL
  0
POLYLINE
  5
465
  8
LE_ALL
 66
     1
 10
0.0
 20
0.0
 30
0.0
  0
VERTEX
  5
8EA
  8
LE_ALL
 10
439.10454922
 20
-108.75649216
 30
0.0
  0
VERTEX
  5
8EB
  8
LE_ALL
 10
439.4056977640136
 20
-108.7072835339761
 30
0.0
  0
VERTEX
  5
8EC
  8
LE_ALL
 10
439.7168898978903
 20
-108.4883898458597
 30
0.0
  0
VERTEX
  5
8ED
  8
LE_ALL
 10
440.0261666824709
 20
-108.108223057309
 30
0.0
  0
VERTEX
  5
8EE
  8
LE_ALL
 10
440.3216427843957
 20
-107.5813927647747
 30
0.0
  0
VERTEX
  5
8EF
  8
LE_ALL
 10
440.5919632227984
 20
-106.928144760903
 30
0.0
  0
VERTEX
  5
8F0
  8
LE_ALL
 10
440.8267397348522
 20
-106.1735830000797
 30
0.0
  0
VERTEX
  5
8F1
  8
LE_ALL
 10
441.0169499908837
 20
-105.3467048675441
 30
0.0
  0
VERTEX
  5
8F2
  8
LE_ALL
 10
441.1552843174413
 20
-104.4792868261387
 30
0.0
  0
VERTEX
  5
8F3
  8
LE_ALL
 10
441.2364266039465
 20
-103.6046632646649
 30
0.0
  0
VERTEX
  5
8F4
  8
LE_ALL
 10
441.257258597841
 20
-102.7564454760192
 30
0.0
  0
VERTEX
  5
8F5
  8
LE_ALL
 10
441.2169797372839
 20
-101.967229994059
 30
0.0
  0
VERTEX
  5
8F6
  8
LE_ALL
 10
441.1171379162944
 20
-101.2673459270896
 30
0.0
  0
VERTEX
  5
8F7
  8
LE_ALL
 10
440.9615700000522
 20
-100.6836894272441
 30
0.0
  0
VERTEX
  5
8F8
  8
LE_ALL
 10
440.7562543763217
 20
-100.2386900864419
 30
0.0
  0
VERTEX
  5
8F9
  8
LE_ALL
 10
440.5090812093624
 20
-99.94944897975279
 30
0.0
  0
VERTEX
  5
8FA
  8
LE_ALL
 10
440.2295492253425
 20
-99.82708148067309
 30
0.0
  0
SEQEND
  5
9DB
  8
LE_ALL
  0
POLYLINE
  5
466
  8
LE_ALL
 66
     1
 10
0.0
 20
0.0
 30
0.0
  0
VERTEX
  5
8FB
  8
LE_ALL
 10
440.2295492253425
 20
-99.82708148067309
 30
0.0
  0
VERTEX
  5
8FC
  8
LE_ALL
 10
439.928400680916
 20
-99.87629010386561
 30
0.0
  0
VERTEX
  5
8FD
  8
LE_ALL
 10
439.6172085463912
 20
-100.0951837900066
 30
0.0
  0
VERTEX
  5
8FE
  8
LE_ALL
 10
439.3079317610066
 20
-100.4753505774756
 30
0.0
  0
VERTEX
  5
8FF
  8
LE_ALL
 10
439.0124556582071
 20
-101.0021808697967
 30
0.0
  0
VERTEX
  5
900
  8
LE_ALL
 10
438.7421352189443
 20
-101.6554288742399
 30
0.0
  0
VERTEX
  5
901
  8
LE_ALL
 10
438.5073587061254
 20
-102.4099906362828
 30
0.0
  0
VERTEX
  5
902
  8
LE_ALL
 10
438.3171484494943
 20
-103.2368687705073
 30
0.0
  0
VERTEX
  5
903
  8
LE_ALL
 10
438.1788141225587
 20
-104.1042868138613
 30
0.0
  0
VERTEX
  5
904
  8
LE_ALL
 10
438.0976718359362
 20
-104.9789103773164
 30
0.0
  0
VERTEX
  5
905
  8
LE_ALL
 10
438.0768398422038
 20
-105.827128167747
 30
0.0
  0
VERTEX
  5
906
  8
LE_ALL
 10
438.1171187031996
 20
-106.6163436510786
 30
0.0
  0
VERTEX
  5
907
  8
LE_ALL
 10
438.2169605248806
 20
-107.3162277188149
 30
0.0
  0
VERTEX
  5
908
  8
LE_ALL
 10
438.3725284420229
 20
-107.8998842186709
 30
0.0
  0
VERTEX
  5
909
  8
LE_ALL
 10
438.5778440668007
 20
-108.3448835586245
 30
0.0
  0
VERTEX
  5
90A
  8
LE_ALL
 10
438.8250172348778
 20
-108.6341246635608
 30
0.0
  0
VERTEX
  5
90B
  8
LE_ALL
 10
439.10454922
 20
-108.75649216
 30
0.0
  0
SEQEND
  5
9DC
  8
LE_ALL
  0
POLYLINE
  5
467
  8
LE_ALL
 66
     1
 10
0.0
 20
0.0
 30
0.0
  0
VERTEX
  5
90C
  8
LE_ALL
 10
438.1497960160841
 20
-106.906520371158
 30
0.0
  0
VERTEX
  5
90D
  8
LE_ALL
 10
438.3930396978955
 20
-106.2113609500923
 30
0.0
  0
VERTEX
  5
90E
  8
LE_ALL
 10
438.5977380573677
 20
-105.4360277232202
 30
0.0
  0
VERTEX
  5
90F
  8
LE_ALL
 10
438.7564791931064
 20
-104.6085946499038
 30
0.0
  0
VERTEX
  5
910
  8
LE_ALL
 10
438.8635152640036
 20
-103.759022167372
 30
0.0
  0
VERTEX
  5
911
  8
LE_ALL
 10
438.9149706122125
 20
-102.9180723563963
 30
0.0
  0
VERTEX
  5
912
  8
LE_ALL
 10
438.9089820964351
 20
-102.1161950803395
 30
0.0
  0
VERTEX
  5
913
  8
LE_ALL
 10
438.8457665542101
 20
-101.3824254292524
 30
0.0
  0
SEQEND
  5
9DD
  8
LE_ALL
  0
POLYLINE
  5
468
  8
LE_ALL
 66
     1
 10
0.0
 20
0.0
 30
0.0
  0
VERTEX
  5
914
  8
LE_ALL
 10
449.31654416
 20
-106.97365681
 30
0.0
  0
VERTEX
  5
915
  8
LE_ALL
 10
449.4503879570503
 20
-106.9517863096303
 30
0.0
  0
VERTEX
  5
916
  8
LE_ALL
 10
449.5886955718287
 20
-106.854500226276
 30
0.0
  0
VERTEX
  5
917
  8
LE_ALL
 10
449.7261519202751
 20
-106.685537209553
 30
0.0
  0
VERTEX
  5
918
  8
LE_ALL
 10
449.8574746320172
 20
-106.4513904134239
 30
0.0
  0
VERTEX
  5
919
  8
LE_ALL
 10
449.9776170489008
 20
-106.1610579679321
 30
0.0
  0
VERTEX
  5
91A
  8
LE_ALL
 10
450.0819621652323
 20
-105.8256971861124
 30
0.0
  0
VERTEX
  5
91B
  8
LE_ALL
 10
450.1665000567174
 20
-105.4581957947081
 30
0.0
  0
VERTEX
  5
91C
  8
LE_ALL
 10
450.2279819796036
 20
-105.0726766660616
 30
0.0
  0
VERTEX
  5
91D
  8
LE_ALL
 10
450.2640452180788
 20
-104.6839550840515
 30
0.0
  0
VERTEX
  5
91E
  8
LE_ALL
 10
450.2733038821161
 20
-104.3069694010427
 30
0.0
  0
VERTEX
  5
91F
  8
LE_ALL
 10
450.2554021664499
 20
-103.9562069653843
 30
0.0
  0
VERTEX
  5
920
  8
LE_ALL
 10
450.2110280239721
 20
-103.6451473807381
 30
0.0
  0
VERTEX
  5
921
  8
LE_ALL
 10
450.141886728089
 20
-103.3857444924706
 30
0.0
  0
VERTEX
  5
922
  8
LE_ALL
 10
450.0506353400204
 20
-103.1879670080803
 30
0.0
  0
VERTEX
  5
923
  8
LE_ALL
 10
449.9407805994276
 20
-103.0594154053603
 30
0.0
  0
VERTEX
  5
924
  8
LE_ALL
 10
449.8165441623744
 20
-103.0050298502992
 30
0.0
  0
SEQEND
  5
9DE
  8
LE_ALL
  0
POLYLINE
  5
469
  8
LE_ALL
 66
     1
 10
0.0
 20
0.0
 30
0.0
  0
VERTEX
  5
925
  8
LE_ALL
 10
449.8165441623744
 20
-103.0050298502992
 30
0.0
  0
VERTEX
  5
926
  8
LE_ALL
 10
449.6827003651405
 20
-103.0269003494104
 30
0.0
  0
VERTEX
  5
927
  8
LE_ALL
 10
449.5443927500741
 20
-103.1241864318869
 30
0.0
  0
VERTEX
  5
928
  8
LE_ALL
 10
449.4069364012704
 20
-103.293149448129
 30
0.0
  0
VERTEX
  5
929
  8
LE_ALL
 10
449.2756136891396
 20
-103.5272962441635
 30
0.0
  0
VERTEX
  5
92A
  8
LE_ALL
 10
449.1554712718737
 20
-103.8176286899092
 30
0.0
  0
VERTEX
  5
92B
  8
LE_ALL
 10
449.0511261552022
 20
-104.152989472271
 30
0.0
  0
VERTEX
  5
92C
  8
LE_ALL
 10
448.9665882634504
 20
-104.5204908644259
 30
0.0
  0
VERTEX
  5
92D
  8
LE_ALL
 10
448.9051063403964
 20
-104.9060099939384
 30
0.0
  0
VERTEX
  5
92E
  8
LE_ALL
 10
448.8690431018691
 20
-105.2947315768291
 30
0.0
  0
VERTEX
  5
92F
  8
LE_ALL
 10
448.8597844379037
 20
-105.6717172606312
 30
0.0
  0
VERTEX
  5
930
  8
LE_ALL
 10
448.8776861537649
 20
-106.0224796968991
 30
0.0
  0
VERTEX
  5
931
  8
LE_ALL
 10
448.92206029655
 20
-106.3335392818861
 30
0.0
  0
VERTEX
  5
932
  8
LE_ALL
 10
448.9912015928332
 20
-106.5929421701583
 30
0.0
  0
VERTEX
  5
933
  8
LE_ALL
 10
449.0824529813672
 20
-106.7907196541714
 30
0.0
  0
VERTEX
  5
934
  8
LE_ALL
 10
449.1923077224569
 20
-106.9192712561124
 30
0.0
  0
VERTEX
  5
935
  8
LE_ALL
 10
449.31654416
 20
-106.97365681
 30
0.0
  0
SEQEND
  5
9DF
  8
LE_ALL
  0
POLYLINE
  5
46A
  8
LE_ALL
 66
     1
 10
0.0
 20
0.0
 30
0.0
  0
VERTEX
  5
936
  8
LE_ALL
 10
440.124156
 20
-115.08058115
 30
0.0
  0
VERTEX
  5
937
  8
LE_ALL
 10
440.2579997970504
 20
-115.0587106496303
 30
0.0
  0
VERTEX
  5
938
  8
LE_ALL
 10
440.3963074118287
 20
-114.961424566276
 30
0.0
  0
VERTEX
  5
939
  8
LE_ALL
 10
440.5337637602751
 20
-114.792461549553
 30
0.0
  0
VERTEX
  5
93A
  8
LE_ALL
 10
440.6650864720173
 20
-114.5583147534239
 30
0.0
  0
VERTEX
  5
93B
  8
LE_ALL
 10
440.7852288889009
 20
-114.2679823079321
 30
0.0
  0
VERTEX
  5
93C
  8
LE_ALL
 10
440.8895740052323
 20
-113.9326215261124
 30
0.0
  0
VERTEX
  5
93D
  8
LE_ALL
 10
440.9741118967175
 20
-113.5651201347081
 30
0.0
  0
VERTEX
  5
93E
  8
LE_ALL
 10
441.0355938196036
 20
-113.1796010060616
 30
0.0
  0
VERTEX
  5
93F
  8
LE_ALL
 10
441.0716570580788
 20
-112.7908794240515
 30
0.0
  0
VERTEX
  5
940
  8
LE_ALL
 10
441.0809157221162
 20
-112.4138937410427
 30
0.0
  0
VERTEX
  5
941
  8
LE_ALL
 10
441.06301400645
 20
-112.0631313053843
 30
0.0
  0
VERTEX
  5
942
  8
LE_ALL
 10
441.0186398639722
 20
-111.7520717207381
 30
0.0
  0
VERTEX
  5
943
  8
LE_ALL
 10
440.949498568089
 20
-111.4926688324706
 30
0.0
  0
VERTEX
  5
944
  8
LE_ALL
 10
440.8582471800205
 20
-111.2948913480803
 30
0.0
  0
VERTEX
  5
945
  8
LE_ALL
 10
440.7483924394276
 20
-111.1663397453603
 30
0.0
  0
VERTEX
  5
946
  8
LE_ALL
 10
440.6241560023744
 20
-111.1119541902992
 30
0.0
  0
SEQEND
  5
9E0
  8
LE_ALL
  0
POLYLINE
  5
46B
  8
LE_ALL
 66
     1
 10
0.0
 20
0.0
 30
0.0
  0
VERTEX
  5
947
  8
LE_ALL
 10
440.6241560023744
 20
-111.1119541902992
 30
0.0
  0
VERTEX
  5
948
  8
LE_ALL
 10
440.4903122051406
 20
-111.1338246894104
 30
0.0
  0
VERTEX
  5
949
  8
LE_ALL
 10
440.3520045900741
 20
-111.2311107718869
 30
0.0
  0
VERTEX
  5
94A
  8
LE_ALL
 10
440.2145482412704
 20
-111.400073788129
 30
0.0
  0
VERTEX
  5
94B
  8
LE_ALL
 10
440.0832255291396
 20
-111.6342205841635
 30
0.0
  0
VERTEX
  5
94C
  8
LE_ALL
 10
439.9630831118737
 20
-111.9245530299092
 30
0.0
  0
VERTEX
  5
94D
  8
LE_ALL
 10
439.8587379952022
 20
-112.259913812271
 30
0.0
  0
VERTEX
  5
94E
  8
LE_ALL
 10
439.7742001034504
 20
-112.6274152044259
 30
0.0
  0
VERTEX
  5
94F
  8
LE_ALL
 10
439.7127181803965
 20
-113.0129343339384
 30
0.0
  0
VERTEX
  5
950
  8
LE_ALL
 10
439.6766549418691
 20
-113.4016559168291
 30
0.0
  0
VERTEX
  5
951
  8
LE_ALL
 10
439.6673962779037
 20
-113.7786416006312
 30
0.0
  0
VERTEX
  5
952
  8
LE_ALL
 10
439.6852979937649
 20
-114.1294040368991
 30
0.0
  0
VERTEX
  5
953
  8
LE_ALL
 10
439.7296721365501
 20
-114.4404636218862
 30
0.0
  0
VERTEX
  5
954
  8
LE_ALL
 10
439.7988134328332
 20
-114.6998665101583
 30
0.0
  0
VERTEX
  5
955
  8
LE_ALL
 10
439.8900648213673
 20
-114.8976439941714
 30
0.0
  0
VERTEX
  5
956
  8
LE_ALL
 10
439.999919562457
 20
-115.0261955961124
 30
0.0
  0
VERTEX
  5
957
  8
LE_ALL
 10
440.124156
 20
-115.08058115
 30
0.0
  0
SEQEND
  5
9E1
  8
LE_ALL
  0
POLYLINE
  5
46C
  8
LE_ALL
 66
     1
 10
0.0
 20
0.0
 30
0.0
  0
VERTEX
  5
958
  8
LE_ALL
 10
452.49852467
 20
-86.25404198
 30
0.0
  0
VERTEX
  5
959
  8
LE_ALL
 10
452.6323684670504
 20
-86.23217147963032
 30
0.0
  0
VERTEX
  5
95A
  8
LE_ALL
 10
452.7706760818287
 20
-86.13488539627596
 30
0.0
  0
VERTEX
  5
95B
  8
LE_ALL
 10
452.9081324302751
 20
-85.96592237955304
 30
0.0
  0
VERTEX
  5
95C
  8
LE_ALL
 10
453.0394551420172
 20
-85.73177558342385
 30
0.0
  0
VERTEX
  5
95D
  8
LE_ALL
 10
453.1595975589008
 20
-85.44144313793213
 30
0.0
  0
VERTEX
  5
95E
  8
LE_ALL
 10
453.2639426752323
 20
-85.1060823561124
 30
0.0
  0
VERTEX
  5
95F
  8
LE_ALL
 10
453.3484805667175
 20
-84.7385809647081
 30
0.0
  0
VERTEX
  5
960
  8
LE_ALL
 10
453.4099624896036
 20
-84.35306183606164
 30
0.0
  0
VERTEX
  5
961
  8
LE_ALL
 10
453.4460257280788
 20
-83.96434025405148
 30
0.0
  0
VERTEX
  5
962
  8
LE_ALL
 10
453.4552843921161
 20
-83.5873545710427
 30
0.0
  0
VERTEX
  5
963
  8
LE_ALL
 10
453.4373826764499
 20
-83.2365921353843
 30
0.0
  0
VERTEX
  5
964
  8
LE_ALL
 10
453.3930085339721
 20
-82.92553255073808
 30
0.0
  0
VERTEX
  5
965
  8
LE_ALL
 10
453.323867238089
 20
-82.66612966247055
 30
0.0
  0
VERTEX
  5
966
  8
LE_ALL
 10
453.2326158500205
 20
-82.46835217808032
 30
0.0
  0
VERTEX
  5
967
  8
LE_ALL
 10
453.1227611094276
 20
-82.33980057536029
 30
0.0
  0
VERTEX
  5
968
  8
LE_ALL
 10
452.9985246723744
 20
-82.28541502029915
 30
0.0
  0
SEQEND
  5
9E2
  8
LE_ALL
  0
POLYLINE
  5
46D
  8
LE_ALL
 66
     1
 10
0.0
 20
0.0
 30
0.0
  0
VERTEX
  5
969
  8
LE_ALL
 10
452.9985246723744
 20
-82.28541502029915
 30
0.0
  0
VERTEX
  5
96A
  8
LE_ALL
 10
452.8646808751406
 20
-82.30728551941043
 30
0.0
  0
VERTEX
  5
96B
  8
LE_ALL
 10
452.7263732600741
 20
-82.40457160188686
 30
0.0
  0
VERTEX
  5
96C
  8
LE_ALL
 10
452.5889169112704
 20
-82.573534618129
 30
0.0
  0
VERTEX
  5
96D
  8
LE_ALL
 10
452.4575941991396
 20
-82.80768141416347
 30
0.0
  0
VERTEX
  5
96E
  8
LE_ALL
 10
452.3374517818737
 20
-83.09801385990914
 30
0.0
  0
VERTEX
  5
96F
  8
LE_ALL
 10
452.2331066652022
 20
-83.43337464227096
 30
0.0
  0
VERTEX
  5
970
  8
LE_ALL
 10
452.1485687734504
 20
-83.80087603442588
 30
0.0
  0
VERTEX
  5
971
  8
LE_ALL
 10
452.0870868503964
 20
-84.18639516393836
 30
0.0
  0
VERTEX
  5
972
  8
LE_ALL
 10
452.0510236118691
 20
-84.57511674682911
 30
0.0
  0
VERTEX
  5
973
  8
LE_ALL
 10
452.0417649479037
 20
-84.95210243063117
 30
0.0
  0
VERTEX
  5
974
  8
LE_ALL
 10
452.0596666637649
 20
-85.30286486689907
 30
0.0
  0
VERTEX
  5
975
  8
LE_ALL
 10
452.10404080655
 20
-85.61392445188615
 30
0.0
  0
VERTEX
  5
976
  8
LE_ALL
 10
452.1731821028332
 20
-85.87332734015831
 30
0.0
  0
VERTEX
  5
977
  8
LE_ALL
 10
452.2644334913672
 20
-86.07110482417143
 30
0.0
  0
VERTEX
  5
978
  8
LE_ALL
 10
452.3742882324569
 20
-86.19965642611241
 30
0.0
  0
VERTEX
  5
979
  8
LE_ALL
 10
452.49852467
 20
-86.25404198
 30
0.0
  0
SEQEND
  5
9E3
  8
LE_ALL
  0
POLYLINE
  5
46E
  8
LE_ALL
 66
     1
 10
0.0
 20
0.0
 30
0.0
  0
VERTEX
  5
97A
  8
LE_ALL
 10
444.72035008
 20
-93.11374719
 30
0.0
  0
VERTEX
  5
97B
  8
LE_ALL
 10
444.8541938770504
 20
-93.09187668963033
 30
0.0
  0
VERTEX
  5
97C
  8
LE_ALL
 10
444.9925014918287
 20
-92.99459060627596
 30
0.0
  0
VERTEX
  5
97D
  8
LE_ALL
 10
445.1299578402751
 20
-92.82562758955304
 30
0.0
  0
VERTEX
  5
97E
  8
LE_ALL
 10
445.2612805520172
 20
-92.59148079342386
 30
0.0
  0
VERTEX
  5
97F
  8
LE_ALL
 10
445.3814229689008
 20
-92.30114834793213
 30
0.0
  0
VERTEX
  5
980
  8
LE_ALL
 10
445.4857680852323
 20
-91.9657875661124
 30
0.0
  0
VERTEX
  5
981
  8
LE_ALL
 10
445.5703059767175
 20
-91.59828617470811
 30
0.0
  0
VERTEX
  5
982
  8
LE_ALL
 10
445.6317878996036
 20
-91.21276704606164
 30
0.0
  0
VERTEX
  5
983
  8
LE_ALL
 10
445.6678511380788
 20
-90.82404546405148
 30
0.0
  0
VERTEX
  5
984
  8
LE_ALL
 10
445.6771098021161
 20
-90.4470597810427
 30
0.0
  0
VERTEX
  5
985
  8
LE_ALL
 10
445.65920808645
 20
-90.0962973453843
 30
0.0
  0
VERTEX
  5
986
  8
LE_ALL
 10
445.6148339439721
 20
-89.78523776073808
 30
0.0
  0
VERTEX
  5
987
  8
LE_ALL
 10
445.545692648089
 20
-89.52583487247055
 30
0.0
  0
VERTEX
  5
988
  8
LE_ALL
 10
445.4544412600205
 20
-89.32805738808032
 30
0.0
  0
VERTEX
  5
989
  8
LE_ALL
 10
445.3445865194276
 20
-89.19950578536029
 30
0.0
  0
VERTEX
  5
98A
  8
LE_ALL
 10
445.2203500823744
 20
-89.14512023029916
 30
0.0
  0
SEQEND
  5
9E4
  8
LE_ALL
  0
POLYLINE
  5
46F
  8
LE_ALL
 66
     1
 10
0.0
 20
0.0
 30
0.0
  0
VERTEX
  5
98B
  8
LE_ALL
 10
445.2203500823744
 20
-89.14512023029916
 30
0.0
  0
VERTEX
  5
98C
  8
LE_ALL
 10
445.0865062851406
 20
-89.16699072941043
 30
0.0
  0
VERTEX
  5
98D
  8
LE_ALL
 10
444.9481986700741
 20
-89.26427681188686
 30
0.0
  0
VERTEX
  5
98E
  8
LE_ALL
 10
444.8107423212704
 20
-89.433239828129
 30
0.0
  0
VERTEX
  5
98F
  8
LE_ALL
 10
444.6794196091396
 20
-89.66738662416347
 30
0.0
  0
VERTEX
  5
990
  8
LE_ALL
 10
444.5592771918737
 20
-89.95771906990916
 30
0.0
  0
VERTEX
  5
991
  8
LE_ALL
 10
444.4549320752022
 20
-90.29307985227096
 30
0.0
  0
VERTEX
  5
992
  8
LE_ALL
 10
444.3703941834504
 20
-90.66058124442588
 30
0.0
  0
VERTEX
  5
993
  8
LE_ALL
 10
444.3089122603964
 20
-91.04610037393836
 30
0.0
  0
VERTEX
  5
994
  8
LE_ALL
 10
444.2728490218691
 20
-91.43482195682911
 30
0.0
  0
VERTEX
  5
995
  8
LE_ALL
 10
444.2635903579037
 20
-91.81180764063117
 30
0.0
  0
VERTEX
  5
996
  8
LE_ALL
 10
444.2814920737649
 20
-92.16257007689907
 30
0.0
  0
VERTEX
  5
997
  8
LE_ALL
 10
444.32586621655
 20
-92.47362966188615
 30
0.0
  0
VERTEX
  5
998
  8
LE_ALL
 10
444.3950075128332
 20
-92.73303255015831
 30
0.0
  0
VERTEX
  5
999
  8
LE_ALL
 10
444.4862589013673
 20
-92.93081003417143
 30
0.0
  0
VERTEX
  5
99A
  8
LE_ALL
 10
444.5961136424569
 20
-93.05936163611241
 30
0.0
  0
VERTEX
  5
99B
  8
LE_ALL
 10
444.72035008
 20
-93.11374719
 30
0.0
  0
SEQEND
  5
9E5
  8
LE_ALL
  0
POLYLINE
  5
470
  8
LE_ALL
 66
     1
 10
0.0
 20
0.0
 30
0.0
  0
VERTEX
  5
99C
  8
LE_ALL
 10
436.94217549
 20
-99.9734524
 30
0.0
  0
VERTEX
  5
99D
  8
LE_ALL
 10
437.0760192870504
 20
-99.95158189963033
 30
0.0
  0
VERTEX
  5
99E
  8
LE_ALL
 10
437.2143269018287
 20
-99.85429581627596
 30
0.0
  0
VERTEX
  5
99F
  8
LE_ALL
 10
437.3517832502751
 20
-99.68533279955304
 30
0.0
  0
VERTEX
  5
9A0
  8
LE_ALL
 10
437.4831059620172
 20
-99.45118600342386
 30
0.0
  0
VERTEX
  5
9A1
  8
LE_ALL
 10
437.6032483789008
 20
-99.16085355793213
 30
0.0
  0
VERTEX
  5
9A2
  8
LE_ALL
 10
437.7075934952323
 20
-98.8254927761124
 30
0.0
  0
VERTEX
  5
9A3
  8
LE_ALL
 10
437.7921313867175
 20
-98.45799138470811
 30
0.0
  0
VERTEX
  5
9A4
  8
LE_ALL
 10
437.8536133096036
 20
-98.07247225606164
 30
0.0
  0
VERTEX
  5
9A5
  8
LE_ALL
 10
437.8896765480788
 20
-97.68375067405148
 30
0.0
  0
VERTEX
  5
9A6
  8
LE_ALL
 10
437.8989352121162
 20
-97.3067649910427
 30
0.0
  0
VERTEX
  5
9A7
  8
LE_ALL
 10
437.88103349645
 20
-96.9560025553843
 30
0.0
  0
VERTEX
  5
9A8
  8
LE_ALL
 10
437.8366593539722
 20
-96.64494297073809
 30
0.0
  0
VERTEX
  5
9A9
  8
LE_ALL
 10
437.767518058089
 20
-96.38554008247056
 30
0.0
  0
VERTEX
  5
9AA
  8
LE_ALL
 10
437.6762666700205
 20
-96.18776259808033
 30
0.0
  0
VERTEX
  5
9AB
  8
LE_ALL
 10
437.5664119294276
 20
-96.05921099536029
 30
0.0
  0
VERTEX
  5
9AC
  8
LE_ALL
 10
437.4421754923744
 20
-96.00482544029916
 30
0.0
  0
SEQEND
  5
9E6
  8
LE_ALL
  0
POLYLINE
  5
471
  8
LE_ALL
 66
     1
 10
0.0
 20
0.0
 30
0.0
  0
VERTEX
  5
9AD
  8
LE_ALL
 10
437.4421754923744
 20
-96.00482544029916
 30
0.0
  0
VERTEX
  5
9AE
  8
LE_ALL
 10
437.3083316951406
 20
-96.02669593941043
 30
0.0
  0
VERTEX
  5
9AF
  8
LE_ALL
 10
437.1700240800741
 20
-96.12398202188686
 30
0.0
  0
VERTEX
  5
9B0
  8
LE_ALL
 10
437.0325677312704
 20
-96.292945038129
 30
0.0
  0
VERTEX
  5
9B1
  8
LE_ALL
 10
436.9012450191396
 20
-96.52709183416347
 30
0.0
  0
VERTEX
  5
9B2
  8
LE_ALL
 10
436.7811026018737
 20
-96.81742427990915
 30
0.0
  0
VERTEX
  5
9B3
  8
LE_ALL
 10
436.6767574852022
 20
-97.15278506227096
 30
0.0
  0
VERTEX
  5
9B4
  8
LE_ALL
 10
436.5922195934504
 20
-97.52028645442589
 30
0.0
  0
VERTEX
  5
9B5
  8
LE_ALL
 10
436.5307376703964
 20
-97.90580558393836
 30
0.0
  0
VERTEX
  5
9B6
  8
LE_ALL
 10
436.4946744318691
 20
-98.29452716682911
 30
0.0
  0
VERTEX
  5
9B7
  8
LE_ALL
 10
436.4854157679037
 20
-98.67151285063117
 30
0.0
  0
VERTEX
  5
9B8
  8
LE_ALL
 10
436.5033174837649
 20
-99.02227528689907
 30
0.0
  0
VERTEX
  5
9B9
  8
LE_ALL
 10
436.54769162655
 20
-99.33333487188615
 30
0.0
  0
VERTEX
  5
9BA
  8
LE_ALL
 10
436.6168329228332
 20
-99.59273776015831
 30
0.0
  0
VERTEX
  5
9BB
  8
LE_ALL
 10
436.7080843113673
 20
-99.79051524417143
 30
0.0
  0
VERTEX
  5
9BC
  8
LE_ALL
 10
436.8179390524569
 20
-99.91906684611241
 30
0.0
  0
VERTEX
  5
9BD
  8
LE_ALL
 10
436.94217549
 20
-99.9734524
 30
0.0
  0
SEQEND
  5
9E7
  8
LE_ALL
  0
LINE
  5
472
  8
LE_ALL
 10
432.0252125
 20
-127.53041156
 30
0.0
 11
432.0252125
 21
-97.83192675
 31
0.0
  0
LINE
  5
473
  8
LE_ALL
 10
434.36374836
 20
-98.12655458
 30
0.0
 11
432.0252125
 21
-97.83192675
 31
0.0
  0
POLYLINE
  5
474
  8
LE_ALL
 66
     1
 10
0.0
 20
0.0
 30
0.0
 70
     1
  0
VERTEX
  5
475
  8
LE_ALL
 10
434.36374836
 20
-98.12655458
 30
0.0
  0
VERTEX
  5
476
  8
LE_ALL
 10
434.36374836
 20
-127.82503939
 30
0.0
  0
VERTEX
  5
477
  8
LE_ALL
 10
455.5769518
 20
-109.11675245
 30
0.0
  0
VERTEX
  5
478
  8
LE_ALL
 10
455.5769518
 20
-79.41826764
 30
0.0
  0
VERTEX
  5
479
  8
LE_ALL
 10
454.33951493
 20
-77.20975274
 30
0.0
  0
VERTEX
  5
47A
  8
LE_ALL
 10
435.60118523
 20
-93.73540619
 30
0.0
  0
SEQEND
  5
47B
  8
LE_ALL
  0
POLYLINE
  5
47C
  8
LE_ALL
 66
     1
 10
0.0
 20
0.0
 30
0.0
  0
VERTEX
  5
47D
  8
LE_ALL
 10
435.60118523
 20
-93.73540619
 30
0.0
  0
VERTEX
  5
47E
  8
LE_ALL
 10
433.26264936
 20
-93.44077837
 30
0.0
  0
VERTEX
  5
47F
  8
LE_ALL
 10
452.00097906
 20
-76.91512491
 30
0.0
  0
SEQEND
  5
480
  8
LE_ALL
  0
LINE
  5
481
  8
LE_ALL
 10
454.33951493
 20
-77.20975274
 30
0.0
 11
452.00097906
 21
-76.91512491
 31
0.0
  0
LINE
  5
482
  8
LE_ALL
 10
432.0252125
 20
-97.83192675
 30
0.0
 11
433.26264936
 21
-93.44077837
 31
0.0
  0
ENDBLK
  8
0
  0
BLOCK
  8
0
  2
_00066
 70
     0
 10
0.0
 20
0.0
 30
0.0
  0
INSERT
  5
485
  8
0
  2
_00067
 10
438.12758983
 20
-98.10699005
 30
0.0
  0
ENDBLK
  8
0
  0
BLOCK
  8
0
  2
_00067
 70
     0
 10
438.12758983
 20
-98.10699005
 30
0.0
  0
LINE
  5
488
  8
LE_ALL
  6
STRICHPUNKT2
 62
     1
 10
438.12758983
 20
-98.10699005
 30
0.0
 11
436.53073766
 21
-97.90580559
 31
0.0
  0
LINE
  5
489
  8
LE_ALL
  6
STRICHPUNKT2
 62
     1
 10
437.19217549
 20
-97.98913892
 30
0.0
 11
438.25283566
 21
-97.05372458
 31
0.0
  0
LINE
  5
48A
  8
LE_ALL
  6
STRICHPUNKT2
 62
     1
 10
437.19217549
 20
-97.98913892
 30
0.0
 11
436.13151532
 21
-98.92455327
 31
0.0
  0
LINE
  5
48B
  8
LE_ALL
  6
STRICHPUNKT2
 62
     1
 10
437.19217549
 20
-97.98913892
 30
0.0
 11
437.19217549
 21
-95.1607118
 31
0.0
  0
LINE
  5
48C
  8
LE_ALL
  6
STRICHPUNKT2
 62
     1
 10
437.19217549
 20
-97.98913892
 30
0.0
 11
437.19217549
 21
-100.81756605
 31
0.0
  0
LINE
  5
48D
  8
LE_ALL
  6
STRICHPUNKT2
 62
     1
 10
445.90576443
 20
-91.24728484
 30
0.0
 11
444.30891225
 21
-91.04610038
 31
0.0
  0
LINE
  5
48E
  8
LE_ALL
  6
STRICHPUNKT2
 62
     1
 10
444.97035008
 20
-91.12943371
 30
0.0
 11
446.03101025
 21
-90.19401937
 31
0.0
  0
LINE
  5
48F
  8
LE_ALL
  6
STRICHPUNKT2
 62
     1
 10
444.97035008
 20
-91.12943371
 30
0.0
 11
443.90968991
 21
-92.06484806
 31
0.0
  0
LINE
  5
490
  8
LE_ALL
  6
STRICHPUNKT2
 62
     1
 10
444.97035008
 20
-91.12943371
 30
0.0
 11
444.97035008
 21
-88.30100659
 31
0.0
  0
LINE
  5
491
  8
LE_ALL
  6
STRICHPUNKT2
 62
     1
 10
444.97035008
 20
-91.12943371
 30
0.0
 11
444.97035008
 21
-93.95786084
 31
0.0
  0
LINE
  5
492
  8
LE_ALL
  6
STRICHPUNKT2
 62
     1
 10
453.68393902
 20
-84.38757963
 30
0.0
 11
452.08708685
 21
-84.18639517
 31
0.0
  0
LINE
  5
493
  8
LE_ALL
  6
STRICHPUNKT2
 62
     1
 10
452.74852467
 20
-84.2697285
 30
0.0
 11
453.80918485
 21
-83.33431416
 31
0.0
  0
LINE
  5
494
  8
LE_ALL
  6
STRICHPUNKT2
 62
     1
 10
452.74852467
 20
-84.2697285
 30
0.0
 11
451.6878645
 21
-85.20514285
 31
0.0
  0
LINE
  5
495
  8
LE_ALL
  6
STRICHPUNKT2
 62
     1
 10
452.74852467
 20
-84.2697285
 30
0.0
 11
452.74852467
 21
-81.44130138
 31
0.0
  0
LINE
  5
496
  8
LE_ALL
  6
STRICHPUNKT2
 62
     1
 10
452.74852467
 20
-84.2697285
 30
0.0
 11
452.74852467
 21
-87.09815563
 31
0.0
  0
LINE
  5
497
  8
LE_ALL
  6
STRICHPUNKT2
 62
     1
 10
441.30957035
 20
-113.2141188
 30
0.0
 11
439.71271818
 21
-113.01293434
 31
0.0
  0
LINE
  5
498
  8
LE_ALL
  6
STRICHPUNKT2
 62
     1
 10
440.374156
 20
-113.09626767
 30
0.0
 11
441.43481617
 21
-112.16085333
 31
0.0
  0
LINE
  5
499
  8
LE_ALL
  6
STRICHPUNKT2
 62
     1
 10
440.374156
 20
-113.09626767
 30
0.0
 11
439.31349583
 21
-114.03168202
 31
0.0
  0
LINE
  5
49A
  8
LE_ALL
  6
STRICHPUNKT2
 62
     1
 10
440.374156
 20
-113.09626767
 30
0.0
 11
440.374156
 21
-110.26784055
 31
0.0
  0
LINE
  5
49B
  8
LE_ALL
  6
STRICHPUNKT2
 62
     1
 10
440.374156
 20
-113.09626767
 30
0.0
 11
440.374156
 21
-115.9246948
 31
0.0
  0
LINE
  5
49C
  8
LE_ALL
  6
STRICHPUNKT2
 62
     1
 10
450.50195851
 20
-105.10719447
 30
0.0
 11
448.90510633
 21
-104.90601
 31
0.0
  0
LINE
  5
49D
  8
LE_ALL
  6
STRICHPUNKT2
 62
     1
 10
449.56654416
 20
-104.98934333
 30
0.0
 11
450.62720433
 21
-104.05392899
 31
0.0
  0
LINE
  5
49E
  8
LE_ALL
  6
STRICHPUNKT2
 62
     1
 10
449.56654416
 20
-104.98934333
 30
0.0
 11
448.50588399
 21
-105.92475768
 31
0.0
  0
LINE
  5
49F
  8
LE_ALL
  6
STRICHPUNKT2
 62
     1
 10
449.56654416
 20
-104.98934333
 30
0.0
 11
449.56654416
 21
-102.16091621
 31
0.0
  0
LINE
  5
4A0
  8
LE_ALL
  6
STRICHPUNKT2
 62
     1
 10
449.56654416
 20
-104.98934333
 30
0.0
 11
449.56654416
 21
-107.81777046
 31
0.0
  0
LINE
  5
4A1
  8
LE_ALL
  6
STRICHPUNKT2
 62
     1
 10
441.7717315
 20
-104.55695186
 30
0.0
 11
438.17881411
 21
-104.10428682
 31
0.0
  0
LINE
  5
4A2
  8
LE_ALL
  6
STRICHPUNKT2
 62
     1
 10
439.66704922
 20
-104.29178682
 30
0.0
 11
442.05353461
 21
-102.18710454
 31
0.0
  0
LINE
  5
4A3
  8
LE_ALL
  6
STRICHPUNKT2
 62
     1
 10
439.66704922
 20
-104.29178682
 30
0.0
 11
437.28056384
 21
-106.3964691
 31
0.0
  0
LINE
  5
4A4
  8
LE_ALL
  6
STRICHPUNKT2
 62
     1
 10
439.66704922
 20
-104.29178682
 30
0.0
 11
439.66704922
 21
-97.92782579
 31
0.0
  0
LINE
  5
4A5
  8
LE_ALL
  6
STRICHPUNKT2
 62
     1
 10
439.66704922
 20
-104.29178682
 30
0.0
 11
439.66704922
 21
-110.65574785
 31
0.0
  0
LINE
  5
4A6
  8
LE_ALL
  6
STRICHPUNKT2
 62
     1
 10
438.34417357
 20
-103.10143088
 30
0.0
 11
438.91950361
 21
-102.59403748
 31
0.0
  0
LINE
  5
4A7
  8
LE_ALL
  6
STRICHPUNKT2
 62
     1
 10
452.37833322
 20
-95.2028084
 30
0.0
 11
448.78541583
 21
-94.75014335
 31
0.0
  0
LINE
  5
4A8
  8
LE_ALL
  6
STRICHPUNKT2
 62
     1
 10
450.27365094
 20
-94.93764335
 30
0.0
 11
452.66013633
 21
-92.83296107
 31
0.0
  0
LINE
  5
4A9
  8
LE_ALL
  6
STRICHPUNKT2
 62
     1
 10
450.27365094
 20
-94.93764335
 30
0.0
 11
447.88716555
 21
-97.04232563
 31
0.0
  0
LINE
  5
4AA
  8
LE_ALL
  6
STRICHPUNKT2
 62
     1
 10
450.27365094
 20
-94.93764335
 30
0.0
 11
450.27365094
 21
-88.57368232
 31
0.0
  0
LINE
  5
4AB
  8
LE_ALL
  6
STRICHPUNKT2
 62
     1
 10
450.27365094
 20
-94.93764335
 30
0.0
 11
450.27365094
 21
-101.30160439
 31
0.0
  0
LINE
  5
4AC
  8
LE_ALL
  6
STRICHPUNKT2
 62
     1
 10
448.95077528
 20
-93.74728742
 30
0.0
 11
449.52610533
 21
-93.23989401
 31
0.0
  0
LINE
  5
4AD
  8
LE_ALL
  6
STRICHPUNKT2
 62
     1
 10
447.54273953
 20
-103.71004186
 30
0.0
 11
443.15139605
 21
-103.15678459
 31
0.0
  0
LINE
  5
4AE
  8
LE_ALL
  6
STRICHPUNKT2
 62
     1
 10
444.97035008
 20
-103.38595125
 30
0.0
 11
447.88716555
 21
-100.8135618
 31
0.0
  0
LINE
  5
4AF
  8
LE_ALL
  6
STRICHPUNKT2
 62
     1
 10
444.97035008
 20
-103.38595125
 30
0.0
 11
442.05353461
 21
-105.95834071
 31
0.0
  0
LINE
  5
4B0
  8
LE_ALL
  6
STRICHPUNKT2
 62
     1
 10
444.97035008
 20
-103.38595125
 30
0.0
 11
444.97035008
 21
-95.60777666
 31
0.0
  0
LINE
  5
4B1
  8
LE_ALL
  6
STRICHPUNKT2
 62
     1
 10
444.97035008
 20
-103.38595125
 30
0.0
 11
444.97035008
 21
-111.16412585
 31
0.0
  0
LINE
  5
4B2
  8
LE_ALL
  6
STRICHPUNKT2
 62
     1
 10
443.23829927
 20
-102.55645388
 30
0.0
 11
444.57635786
 21
-101.37639713
 31
0.0
  0
ENDBLK
  8
0
  0
BLOCK
  8
0
  2
DVI_FIGURE_00068
 70
     0
 10
0.0
 20
0.0
 30
0.0
  0
INSERT
  5
4B5
  8
0
  2
VIEW_3_00069
 10
0.0
 20
0.0
 30
0.0
  0
INSERT
  5
4B6
  8
0
  2
VIEW_4_00075
 10
0.0
 20
0.0
 30
0.0
  0
INSERT
  5
4B7
  8
0
  2
VIEW_5_00097
 10
0.0
 20
0.0
 30
0.0
  0
ENDBLK
  8
0
  0
BLOCK
  8
0
  2
VIEW_3_00069
 70
     0
 10
0.0
 20
0.0
 30
0.0
  0
INSERT
  5
4BA
  8
0
  2
PART_2_00070
 10
0.0
 20
0.0
 30
0.0
  0
ENDBLK
  8
0
  0
BLOCK
  8
0
  2
PART_2_00070
 70
     0
 10
0.0
 20
0.0
 30
0.0
  0
INSERT
  5
4BD
  8
0
  2
_D1
 10
290.36842526
 20
-235.20778578
 30
0.0
  0
INSERT
  5
4BE
  8
0
  2
_D2
 10
251.37230731
 20
-248.08188647
 30
0.0
  0
INSERT
  5
4BF
  8
0
  2
_D3
 10
210.83222503
 20
-221.50172191
 30
0.0
  0
INSERT
  5
4C0
  8
0
  2
_D4
 10
227.06051279
 20
-189.5864249
 30
0.0
  0
ENDBLK
  8
0
  0
BLOCK
  8
0
  2
VIEW_4_00075
 70
     0
 10
0.0
 20
0.0
 30
0.0
  0
INSERT
  5
4E3
  8
0
  2
PART_2_00076
 10
0.0
 20
0.0
 30
0.0
  0
ENDBLK
  8
0
  0
BLOCK
  8
0
  2
PART_2_00076
 70
     0
 10
0.0
 20
0.0
 30
0.0
  0
INSERT
  5
4E6
  8
0
  2
_D5
 10
343.71778186
 20
-193.52641926
 30
0.0
  0
INSERT
  5
4E7
  8
0
  2
_D6
 10
400.73851498
 20
-193.52641926
 30
0.0
  0
INSERT
  5
4E8
  8
0
  2
_D7
 10
341.45490159
 20
-183.61989085
 30
0.0
  0
INSERT
  5
4E9
  8
0
  2
_D8
 10
348.95490159
 20
-183.61989085
 30
0.0
  0
INSERT
  5
4EA
  8
0
  2
_D9
 10
353.45490159
 20
-181.20488183
 30
0.0
  0
INSERT
  5
4EB
  8
0
  2
_D10
 10
359.99498387
 20
-183.61989085
 30
0.0
  0
INSERT
  5
4EC
  8
0
  2
_D11
 10
372.99498387
 20
-183.61989085
 30
0.0
  0
INSERT
  5
4ED
  8
0
  2
_D12
 10
381.45490159
 20
-180.94160429
 30
0.0
  0
INSERT
  5
4EE
  8
0
  2
_D13
 10
385.95490159
 20
-183.61989085
 30
0.0
  0
INSERT
  5
4EF
  8
0
  2
_D14
 10
393.45490159
 20
-183.61989085
 30
0.0
  0
INSERT
  5
4F0
  8
0
  2
_D15
 10
331.30839094
 20
-234.00172191
 30
0.0
  0
INSERT
  5
4F1
  8
0
  2
_D16
 10
331.30839094
 20
-222.54180419
 30
0.0
  0
INSERT
  5
4F2
  8
0
  2
_D17
 10
331.30839094
 20
-217.54180419
 30
0.0
  0
INSERT
  5
4F3
  8
0
  2
_D18
 10
331.30839094
 20
-211.04180419
 30
0.0
  0
INSERT
  5
4F4
  8
0
  2
_D19
 10
331.30839094
 20
-203.54180419
 30
0.0
  0
INSERT
  5
4F5
  8
0
  2
_D20
 10
346.88503571
 20
-231.37977818
 30
0.0
  0
INSERT
  5
4F6
  8
0
  2
_D21
 10
364.6524473
 20
-228.34696161
 30
0.0
  0
INSERT
  5
4F7
  8
0
  2
_D22
 10
385.39281769
 20
-230.94312988
 30
0.0
  0
INSERT
  5
4F8
  8
0
  2
_D23
 10
350.61236508
 20
-206.7545358
 30
0.0
  0
INSERT
  5
4F9
  8
0
  2
_D24
 10
380.61236508
 20
-206.25451791
 30
0.0
  0
ENDBLK
  8
0
  0
BLOCK
  8
0
  2
VIEW_5_00097
 70
     0
 10
0.0
 20
0.0
 30
0.0
  0
INSERT
  5
5A5
  8
0
  2
PART_2_00098
 10
0.0
 20
0.0
 30
0.0
  0
ENDBLK
  8
0
  0
BLOCK
  8
0
  2
PART_2_00098
 70
     0
 10
0.0
 20
0.0
 30
0.0
  0
INSERT
  5
5A8
  8
0
  2
_D25
 10
229.37230731
 20
-162.62346729
 30
0.0
  0
INSERT
  5
5A9
  8
0
  2
_D26
 10
247.37230731
 20
-162.62346729
 30
0.0
  0
INSERT
  5
5AA
  8
0
  2
_D27
 10
266.37230731
 20
-162.62346729
 30
0.0
  0
INSERT
  5
5AB
  8
0
  2
_D28
 10
279.33222503
 20
-162.62346729
 30
0.0
  0
INSERT
  5
5AC
  8
0
  2
_D29
 10
299.26630624
 20
-153.66435419
 30
0.0
  0
INSERT
  5
5AD
  8
0
  2
_D30
 10
299.26630624
 20
-145.16435419
 30
0.0
  0
INSERT
  5
5AE
  8
0
  2
_D31
 10
299.26630624
 20
-135.12427191
 30
0.0
  0
INSERT
  5
5AF
  8
0
  2
_D32
 10
299.26630624
 20
-122.12427191
 30
0.0
  0
INSERT
  5
5B0
  8
0
  2
_D33
 10
299.26630624
 20
-110.16435419
 30
0.0
  0
INSERT
  5
5B1
  8
0
  2
_D34
 10
299.26630624
 20
-101.66435419
 30
0.0
  0
INSERT
  5
5B2
  8
0
  2
_D35
 10
215.10268735
 20
-143.62427191
 30
0.0
  0
INSERT
  5
5B3
  8
0
  2
_D36
 10
215.10268735
 20
-113.62427191
 30
0.0
  0
INSERT
  5
5B4
  8
0
  2
_D37
 10
290.70232038
 20
-94.09352796
 30
0.0
  0
INSERT
  5
5B5
  8
0
  2
_D38
 10
290.84640392
 20
-150.4495558
 30
0.0
  0
INSERT
  5
5B6
  8
0
  2
_D39
 10
272.12230731
 20
-90.96053958
 30
0.0
  0
INSERT
  5
5B7
  8
0
  2
_D40
 10
247.87230731
 20
-90.96053958
 30
0.0
  0
INSERT
  5
5B8
  8
0
  2
_D41
 10
227.12230731
 20
-90.96053958
 30
0.0
  0
INSERT
  5
5B9
  8
0
  2
_D42
 10
269.64518246
 20
-130.46680848
 30
0.0
  0
INSERT
  5
5BA
  8
0
  2
_D43
 10
205.62985353
 20
-128.62427191
 30
0.0
  0
INSERT
  5
5BB
  8
0
  2
_D44
 10
256.48968852
 20
-105.44736734
 30
0.0
  0
INSERT
  5
5BC
  8
0
  2
_D45
 10
268.85806406
 20
-113.08001091
 30
0.0
  0
INSERT
  5
5BD
  8
0
  2
_D46
 10
230.87878395
 20
-111.1391237
 30
0.0
  0
ENDBLK
  8
0
  0
ENDSEC
  0
SECTION
  2
ENTITIES
  0
INSERT
  5
675
  8
0
  2
_ZBL0002_00001
 10
0.0
 20
0.0
 30
0.0
  0
INSERT
  5
676
  8
0
  2
_ANS0003_00016
 10
0.0
 20
0.0
 30
0.0
  0
INSERT
  5
677
  8
0
  2
_ANS0004_00029
 10
0.0
 20
0.0
 30
0.0
  0
INSERT
  5
678
  8
0
  2
_ANS0005_00042
 10
0.0
 20
0.0
 30
0.0
  0
INSERT
  5
679
  8
0
  2
_ANS0006_00055
 10
0.0
 20
0.0
 30
0.0
  0
INSERT
  5
67A
  8
0
  2
DVI_FIGURE_00068
 10
0.0
 20
0.0
 30
0.0
  0
ENDSEC
  0
EOF
