999
NT  : - 1800
  0
SECTION
  2
HEADER
  9
$ACADVER
  1
AC1015
  9
$DWGCODEPAGE
  3
ANSI_1252
  9
$INSBASE
 10
0.0
 20
0.0
 30
0.0
  9
$EXTMIN
 10
-320.02669401
 20
-254.31518704
 30
0.0
  9
$EXTMAX
 10
854.07318015
 20
223.00227508
 30
0.0
  9
$LIMMIN
 10
-320.02669401
 20
-254.31518704
  9
$LIMMAX
 10
854.07318015
 20
223.00227508
  9
$INSUNITS
 70
     4
  9
$FILLMODE
 70
     1
  9
$QTEXTMODE
 70
     0
  9
$LTSCALE
 40
1.000000000
  9
$ATTMODE
 70
     1
  9
$TEXTSTYLE
  7
Standard
  9
$LUNITS
 70
     2
  9
$LUPREC
 70
     4
  9
$AUNITS
 70
     0
  9
$AUPREC
 70
     0
  9
$ANGBASE
 50
0.0
  9
$ANGDIR
 70
     0
  9
$HANDSEED
  5
533
  9
$TILEMODE
 70
     1
  9
$VISRETAIN
 70
     0
  9
$MEASUREMENT
 70
     1
  0
ENDSEC
  0
SECTION
  2
CLASSES
  0
ENDSEC
  0
SECTION
  2
TABLES
  0
TABLE
  2
VPORT
  5
1
100
AcDbSymbolTable
 70
     1
  0
VPORT
  5
2
100
AcDbSymbolTableRecord
100
AcDbViewportTableRecord
  2
*Active
 70
     0
 10
0.0
 20
0.0
 11
1.0
 21
1.0
 12
267.02324307
 22
-15.65645598
 13
0.0
 23
0.0
 14
1.0
 24
1.0
 15
0.0
 25
0.0
 16
0.0
 26
0.0
 36
1.0
 17
0.0
 27
0.0
 37
0.0
 40
477.317462123
 41
2.459788228
 42
50.0
 43
0.0
 44
0.0
 50
0.0
 51
0.0
 71
     0
 72
   100
 73
     1
 74
     1
 75
     0
 76
     0
 77
     0
 78
     0
  0
ENDTAB
  0
TABLE
  2
LTYPE
  5
3
100
AcDbSymbolTable
 70
    21
  0
LTYPE
  5
4
100
AcDbSymbolTableRecord
100
AcDbLinetypeTableRecord
  2
ByBlock
 70
    64
  3

 72
    65
 73
     0
 40
0.0
  0
LTYPE
  5
5
100
AcDbSymbolTableRecord
100
AcDbLinetypeTableRecord
  2
ByLayer
 70
    64
  3

 72
    65
 73
     0
 40
0.0
  0
LTYPE
  5
6
100
AcDbSymbolTableRecord
100
AcDbLinetypeTableRecord
  2
CONTINUOUS
 70
    64
  3
Solid line
 72
    65
 73
     0
 40
0.0
  0
LTYPE
  5
7
100
AcDbSymbolTableRecord
100
AcDbLinetypeTableRecord
  2
DOT
 70
    64
  3
..............
 72
    65
 73
     2
 40
2.000
 49
0.500
 74
     0
 49
-1.500
 74
     0
  0
LTYPE
  5
8
100
AcDbSymbolTableRecord
100
AcDbLinetypeTableRecord
  2
HIDDEN
 70
    64
  3
-- -- -- -- --
 72
    65
 73
     2
 40
7.000
 49
4.000
 74
     0
 49
-3.000
 74
     0
  0
LTYPE
  5
9
100
AcDbSymbolTableRecord
100
AcDbLinetypeTableRecord
  2
DASHDOT
 70
    64
  3
--.--.--.--.--
 72
    65
 73
     4
 40
8.500
 49
4.000
 74
     0
 49
-2.000
 74
     0
 49
0.500
 74
     0
 49
-2.000
 74
     0
  0
LTYPE
  5
A
100
AcDbSymbolTableRecord
100
AcDbLinetypeTableRecord
  2
STRICHPUNKT2
 70
    64
  3
--.--.--.--.--
 72
    65
 73
     4
 40
18.500
 49
10.000
 74
     0
 49
-4.000
 74
     0
 49
0.500
 74
     0
 49
-4.000
 74
     0
  0
LTYPE
  5
B
100
AcDbSymbolTableRecord
100
AcDbLinetypeTableRecord
  2
STRICHPUNKT3
 70
    64
  3
--.--.--.--.--
 72
    65
 73
     4
 40
35.500
 49
25.000
 74
     0
 49
-5.000
 74
     0
 49
0.500
 74
     0
 49
-5.000
 74
     0
  0
LTYPE
  5
13F
100
AcDbSymbolTableRecord
100
AcDbLinetypeTableRecord
  2
PHANTOM
 70
    64
  3
--..--..--..--
 72
    65
 73
     6
 40
23.000
 49
10.000
 74
     0
 49
-4.000
 74
     0
 49
0.500
 74
     0
 49
-4.000
 74
     0
 49
0.500
 74
     0
 49
-4.000
 74
     0
  0
LTYPE
  5
140
100
AcDbSymbolTableRecord
100
AcDbLinetypeTableRecord
  2
PHANTOM2
 70
    64
  3
--..--..--..--
 72
    65
 73
     6
 40
33.000
 49
20.000
 74
     0
 49
-4.000
 74
     0
 49
0.500
 74
     0
 49
-4.000
 74
     0
 49
0.500
 74
     0
 49
-4.000
 74
     0
  0
LTYPE
  5
141
100
AcDbSymbolTableRecord
100
AcDbLinetypeTableRecord
  2
PHANTOM3
 70
    64
  3
--..--..--..--
 72
    65
 73
     6
 40
50.000
 49
37.000
 74
     0
 49
-4.000
 74
     0
 49
0.500
 74
     0
 49
-4.000
 74
     0
 49
0.500
 74
     0
 49
-4.000
 74
     0
  0
LTYPE
  5
142
100
AcDbSymbolTableRecord
100
AcDbLinetypeTableRecord
  2
STR3PKT
 70
    64
  3
--...--...--...
 72
    65
 73
     8
 40
31.500
 49
20.000
 74
     0
 49
-2.500
 74
     0
 49
0.500
 74
     0
 49
-2.500
 74
     0
 49
0.500
 74
     0
 49
-2.500
 74
     0
 49
0.500
 74
     0
 49
-2.500
 74
     0
  0
LTYPE
  5
143
100
AcDbSymbolTableRecord
100
AcDbLinetypeTableRecord
  2
2STRPKT
 70
    64
  3
--.--.--.--.--
 72
    65
 73
     6
 40
28.000
 49
10.000
 74
     0
 49
-2.500
 74
     0
 49
10.000
 74
     0
 49
-2.500
 74
     0
 49
0.500
 74
     0
 49
-2.500
 74
     0
  0
LTYPE
  5
144
100
AcDbSymbolTableRecord
100
AcDbLinetypeTableRecord
  2
GESTRICHELT2
 70
    64
  3
-- -- -- -- --
 72
    65
 73
     2
 40
25.000
 49
10.000
 74
     0
 49
-15.000
 74
     0
  0
LTYPE
  5
145
100
AcDbSymbolTableRecord
100
AcDbLinetypeTableRecord
  2
2STR2PKT
 70
    64
  3
--..--..--..--
 72
    65
 73
     8
 40
31.000
 49
10.000
 74
     0
 49
-2.500
 74
     0
 49
10.000
 74
     0
 49
-2.500
 74
     0
 49
0.500
 74
     0
 49
-2.500
 74
     0
 49
0.500
 74
     0
 49
-2.500
 74
     0
  0
LTYPE
  5
146
100
AcDbSymbolTableRecord
100
AcDbLinetypeTableRecord
  2
STR3PKT2
 70
    64
  3
--...--...--...
 72
    65
 73
     8
 40
21.000
 49
10.000
 74
     0
 49
-2.500
 74
     0
 49
0.500
 74
     0
 49
-2.500
 74
     0
 49
0.500
 74
     0
 49
-2.500
 74
     0
 49
0.500
 74
     0
 49
-2.000
 74
     0
  0
LTYPE
  5
147
100
AcDbSymbolTableRecord
100
AcDbLinetypeTableRecord
  2
2STR3PKT
 70
    64
  3
--...--...--...
 72
    65
 73
    10
 40
34.000
 49
10.000
 74
     0
 49
-2.500
 74
     0
 49
10.000
 74
     0
 49
-2.500
 74
     0
 49
0.500
 74
     0
 49
-2.500
 74
     0
 49
0.500
 74
     0
 49
-2.500
 74
     0
 49
0.500
 74
     0
 49
-2.500
 74
     0
  0
LTYPE
  5
148
100
AcDbSymbolTableRecord
100
AcDbLinetypeTableRecord
  2
STRKSTR
 70
    64
  3
-- - -- - -- -
 72
    65
 73
     4
 40
30.000
 49
20.000
 74
     0
 49
-2.500
 74
     0
 49
5.000
 74
     0
 49
-2.500
 74
     0
  0
LTYPE
  5
149
100
AcDbSymbolTableRecord
100
AcDbLinetypeTableRecord
  2
STRKSTR2
 70
    64
  3
-- - -- - -- -
 72
    65
 73
     6
 40
37.500
 49
20.000
 74
     0
 49
-2.500
 74
     0
 49
5.000
 74
     0
 49
-2.500
 74
     0
 49
5.000
 74
     0
 49
-2.500
 74
     0
  0
LTYPE
  5
14A
100
AcDbSymbolTableRecord
100
AcDbLinetypeTableRecord
  2
STRKSTR3
 70
    64
  3
-- - -- - -- -
 72
    65
 73
     8
 40
45.000
 49
20.000
 74
     0
 49
-2.500
 74
     0
 49
5.000
 74
     0
 49
-2.500
 74
     0
 49
5.000
 74
     0
 49
-2.500
 74
     0
 49
5.000
 74
     0
 49
-2.500
 74
     0
  0
LTYPE
  5
14B
100
AcDbSymbolTableRecord
100
AcDbLinetypeTableRecord
  2
PUNKT2
 70
    64
  3
..............
 72
    65
 73
     2
 40
3.500
 49
0.500
 74
     0
 49
-3.000
 74
     0
  0
ENDTAB
  0
TABLE
  2
LAYER
  5
14C
100
AcDbSymbolTable
 70
    16
  0
LAYER
  5
14D
100
AcDbSymbolTableRecord
100
AcDbLayerTableRecord
  2
0
 70
    64
 62
     7
  6
CONTINUOUS
370
    -3
390
F
  0
LAYER
  5
14E
100
AcDbSymbolTableRecord
100
AcDbLayerTableRecord
  2
LE_GREEN
 70
    64
 62
     3
  6
CONTINUOUS
370
    -3
390
F
  0
LAYER
  5
14F
100
AcDbSymbolTableRecord
100
AcDbLayerTableRecord
  2
LE_RED
 70
    64
 62
     1
  6
CONTINUOUS
370
    -3
390
F
  0
LAYER
  5
150
100
AcDbSymbolTableRecord
100
AcDbLayerTableRecord
  2
LE_ALL
 70
    64
 62
     7
  6
CONTINUOUS
370
    50
390
F
  0
LAYER
  5
151
100
AcDbSymbolTableRecord
100
AcDbLayerTableRecord
  2
LE_HIDDEN1
 70
    64
 62
     3
  6
HIDDEN
370
    -3
390
F
  0
LAYER
  5
152
100
AcDbSymbolTableRecord
100
AcDbLayerTableRecord
  2
LE_HIDDEN
 70
    64
 62
     7
  6
CONTINUOUS
370
    -3
390
F
  0
LAYER
  5
153
100
AcDbSymbolTableRecord
100
AcDbLayerTableRecord
  2
LE_MIDDLE
 70
    64
 62
     7
  6
CONTINUOUS
370
    -3
390
F
  0
LAYER
  5
154
100
AcDbSymbolTableRecord
100
AcDbLayerTableRecord
  2
TXT_YELLOW
 70
    64
 62
     2
  6
CONTINUOUS
370
    -3
390
F
  0
LAYER
  5
155
100
AcDbSymbolTableRecord
100
AcDbLayerTableRecord
  2
TXT_DIM49
 70
    64
 62
     2
  6
CONTINUOUS
370
    -3
390
F
  0
LAYER
  5
156
100
AcDbSymbolTableRecord
100
AcDbLayerTableRecord
  2
TXT_ALL
 70
    64
 62
     7
  6
CONTINUOUS
370
    -3
390
F
  0
LAYER
  5
157
100
AcDbSymbolTableRecord
100
AcDbLayerTableRecord
  2
DIM49
 70
    64
 62
     4
  6
CONTINUOUS
370
    -3
390
F
  0
LAYER
  5
158
100
AcDbSymbolTableRecord
100
AcDbLayerTableRecord
  2
HATCH
 70
    64
 62
     3
  6
CONTINUOUS
370
    -3
390
F
  0
LAYER
  5
159
100
AcDbSymbolTableRecord
100
AcDbLayerTableRecord
  2
APPLE
 70
    64
 62
     7
  6
CONTINUOUS
370
    -3
390
F
  0
LAYER
  5
15A
100
AcDbSymbolTableRecord
100
AcDbLayerTableRecord
  2
10
 70
    64
 62
     7
  6
CONTINUOUS
370
    -3
390
F
  0
LAYER
  5
15B
100
AcDbSymbolTableRecord
100
AcDbLayerTableRecord
  2
20
 70
    64
 62
     7
  6
CONTINUOUS
370
    -3
390
F
  0
LAYER
  5
15C
100
AcDbSymbolTableRecord
100
AcDbLayerTableRecord
  2
49
 70
    64
 62
     7
  6
CONTINUOUS
370
    -3
390
F
  0
ENDTAB
  0
TABLE
  2
STYLE
  5
15D
100
AcDbSymbolTable
 70
     5
  0
STYLE
  5
15E
100
AcDbSymbolTableRecord
100
AcDbTextStyleTableRecord
  2
MONOTXT
 70
     0
 40
0.0
 41
1.000
 50
0.0
 71
     0
 42
1.000
  3
monotxt.shx
  4

  0
STYLE
  5
15F
100
AcDbSymbolTableRecord
100
AcDbTextStyleTableRecord
  2
STANDARD
 70
     0
 40
0.0
 41
1.000
 50
0.0
 71
     0
 42
1.000
  3
txt
  4

  0
STYLE
  5
160
100
AcDbSymbolTableRecord
100
AcDbTextStyleTableRecord
  2
ARIAL
 70
     0
 40
0.0
 41
1.000
 50
0.0
 71
     0
 42
1.000
  3
arial.ttf
  4

  0
STYLE
  5
161
100
AcDbSymbolTableRecord
100
AcDbTextStyleTableRecord
  2
ARIAL Narrow
 70
     0
 40
0.0
 41
1.000
 50
0.0
 71
     0
 42
1.000
  3
ArialN.ttf
  4

  0
STYLE
  5
162
100
AcDbSymbolTableRecord
100
AcDbTextStyleTableRecord
  2
ISOCPEUR
 70
     0
 40
0.0
 41
1.000
 50
0.0
 71
     0
 42
1.000
  3
ISOCPEUR.ttf
  4

  0
ENDTAB
  0
TABLE
  2
VIEW
  5
163
100
AcDbSymbolTable
 70
     0
  0
ENDTAB
  0
TABLE
  2
UCS
  5
164
100
AcDbSymbolTable
 70
     0
  0
ENDTAB
  0
TABLE
  2
APPID
  5
165
100
AcDbSymbolTable
 70
     1
  0
APPID
  5
166
100
AcDbSymbolTableRecord
100
AcDbRegAppTableRecord
  2
ACAD
 70
     0
  0
ENDTAB
  0
TABLE
  2
DIMSTYLE
  5
167
100
AcDbSymbolTable
100
AcDbDimStyleTable
 70
     0
  0
ENDTAB
  0
TABLE
  2
BLOCK_RECORD
  5
168
100
AcDbSymbolTable
 70
     2
  0
BLOCK_RECORD
  5
1E
100
AcDbSymbolTableRecord
100
AcDbBlockTableRecord
  2
*Model_Space
  0
BLOCK_RECORD
  5
1A
100
AcDbSymbolTableRecord
100
AcDbBlockTableRecord
  2
*Paper_Space
  0
ENDTAB
  0
ENDSEC
  0
SECTION
  2
BLOCKS
  0
BLOCK
  5
169
100
AcDbEntity
  8
0
100
AcDbBlockBegin
  2
*Model_Space
 70
     0
 10
0.0
 20
0.0
 30
0.0
  3
*Model_Space
  1

  0
ENDBLK
  5
16A
100
AcDbEntity
  8
0
100
AcDbBlockEnd
  0
BLOCK
  5
16B
100
AcDbEntity
100
AcDbBlockBegin
 67
     1
  8
0
  2
*Paper_Space
 70
     0
 10
0.0
 20
0.0
 30
0.0
  3
*Paper_Space
  1

  0
ENDBLK
  5
16C
100
AcDbEntity
100
AcDbBlockEnd
 67
     1
  8
0
  0
ENDSEC
  0
SECTION
  2
ENTITIES
  0
POLYLINE
  5
16D
100
AcDbEntity
  8
0
100
AcDb2dPolyline
 66
     1
 70
     1
  0
VERTEX
  5
16E
100
AcDbEntity
  8
0
100
AcDbVertex
100
AcDb2dVertex
 10
-162.18933194
 20
-104.05814890
 30
0.0
  0
VERTEX
  5
16F
100
AcDbEntity
  8
0
100
AcDbVertex
100
AcDb2dVertex
 10
257.81066806
 20
-104.05814890
 30
0.0
  0
VERTEX
  5
170
100
AcDbEntity
  8
0
100
AcDbVertex
100
AcDb2dVertex
 10
257.81066806
 20
192.94185110
 30
0.0
  0
VERTEX
  5
171
100
AcDbEntity
  8
0
100
AcDbVertex
100
AcDb2dVertex
 10
-162.18933194
 20
192.94185110
 30
0.0
  0
SEQEND
  5
172
100
AcDbEntity
  8
0
  0
POLYLINE
  5
173
100
AcDbEntity
  8
0
100
AcDb2dPolyline
 66
     1
 70
     1
  0
VERTEX
  5
174
100
AcDbEntity
  8
0
100
AcDbVertex
100
AcDb2dVertex
 10
-157.18933194
 20
-99.05814890
 30
0.0
  0
VERTEX
  5
175
100
AcDbEntity
  8
0
100
AcDbVertex
100
AcDb2dVertex
 10
252.81066806
 20
-99.05814890
 30
0.0
  0
VERTEX
  5
176
100
AcDbEntity
  8
0
100
AcDbVertex
100
AcDb2dVertex
 10
252.81066806
 20
187.94185110
 30
0.0
  0
VERTEX
  5
177
100
AcDbEntity
  8
0
100
AcDbVertex
100
AcDb2dVertex
 10
-157.18933194
 20
187.94185110
 30
0.0
  0
SEQEND
  5
178
100
AcDbEntity
  8
0
  0
LINE
  5
179
100
AcDbEntity
  8
0
100
AcDbLine
 10
67.81066806
 20
-99.05814890
 30
0.0
 11
67.81066806
 21
-104.05814890
 31
0.0
  0
LINE
  5
17A
100
AcDbEntity
  8
0
100
AcDbLine
 10
67.81066806
 20
187.94185110
 30
0.0
 11
67.81066806
 21
192.94185110
 31
0.0
  0
LINE
  5
17B
100
AcDbEntity
  8
0
100
AcDbLine
 10
-142.18933194
 20
-99.05814890
 30
0.0
 11
-142.18933194
 21
-104.05814890
 31
0.0
  0
LINE
  5
17C
100
AcDbEntity
  8
0
100
AcDbLine
 10
-142.18933194
 20
187.94185110
 30
0.0
 11
-142.18933194
 21
192.94185110
 31
0.0
  0
TEXT
  5
17D
100
AcDbEntity
  8
TXT_ALL
100
AcDbText
 62
     4
 10
256.81066806
 20
-103.05814890
 30
0.0
 40
2.50000000
  1

  7
MONOTXT
 41
1.000
 50
90.000207410
 51
0.0
100
AcDbText
  0
POLYLINE
  5
17E
100
AcDbEntity
  8
0
100
AcDb2dPolyline
 66
     1
  0
VERTEX
  5
17F
100
AcDbEntity
  8
0
100
AcDbVertex
100
AcDb2dVertex
 10
252.81066806
 20
177.94185110
 30
0.0
  0
VERTEX
  5
180
100
AcDbEntity
  8
0
100
AcDbVertex
100
AcDb2dVertex
 10
183.81736806
 20
177.94185110
 30
0.0
  0
VERTEX
  5
181
100
AcDbEntity
  8
0
100
AcDbVertex
100
AcDb2dVertex
 10
183.81736806
 20
187.94185110
 30
0.0
  0
SEQEND
  5
182
100
AcDbEntity
  8
0
  0
LINE
  5
183
100
AcDbEntity
  8
0
100
AcDbLine
 10
185.72066806
 20
-79.55814890
 30
0.0
 11
45.83066806
 21
-79.55814890
 31
0.0
  0
LINE
  5
184
100
AcDbEntity
  8
0
100
AcDbLine
 10
45.83066806
 20
-89.30814890
 30
0.0
 11
185.72066806
 21
-89.30814890
 31
0.0
  0
POLYLINE
  5
185
100
AcDbEntity
  8
0
100
AcDb2dPolyline
 66
     1
  0
VERTEX
  5
186
100
AcDbEntity
  8
0
100
AcDbVertex
100
AcDb2dVertex
 10
45.83066806
 20
-79.55814890
 30
0.0
  0
VERTEX
  5
187
100
AcDbEntity
  8
0
100
AcDbVertex
100
AcDb2dVertex
 10
45.83066806
 20
-89.30814890
 30
0.0
  0
VERTEX
  5
188
100
AcDbEntity
  8
0
100
AcDbVertex
100
AcDb2dVertex
 10
45.83066806
 20
-99.05814890
 30
0.0
  0
SEQEND
  5
189
100
AcDbEntity
  8
0
  0
POLYLINE
  5
18A
100
AcDbEntity
  8
0
100
AcDb2dPolyline
 66
     1
  0
VERTEX
  5
18B
100
AcDbEntity
  8
0
100
AcDbVertex
100
AcDb2dVertex
 10
115.77566806
 20
-79.55814890
 30
0.0
  0
VERTEX
  5
18C
100
AcDbEntity
  8
0
100
AcDbVertex
100
AcDb2dVertex
 10
115.77566806
 20
-89.30814890
 30
0.0
  0
VERTEX
  5
18D
100
AcDbEntity
  8
0
100
AcDbVertex
100
AcDb2dVertex
 10
115.77566806
 20
-99.05814890
 30
0.0
  0
SEQEND
  5
18E
100
AcDbEntity
  8
0
  0
TEXT
  5
18F
100
AcDbEntity
  8
TXT_ALL
100
AcDbText
 10
47.83066806
 20
-85.73314886
 30
0.0
 40
2.59999990
  1
E-mail: verkoop@jonkers-bouwmetaal.nl
  7
Arial
 41
1.000
 50
0.0
 51
0.0
 72
     0
 11
47.83066806
 21
-84.43314890
 31
0.0
100
AcDbText
 73
     2
  0
TEXT
  5
190
100
AcDbEntity
  8
TXT_ALL
100
AcDbText
 10
47.83066806
 20
-95.48314886
 30
0.0
 40
2.59999990
  1
Telefoon: 0527-685156
  7
Arial
 41
1.000
 50
0.0
 51
0.0
 72
     0
 11
47.83066806
 21
-94.18314890
 31
0.0
100
AcDbText
 73
     2
  0
TEXT
  5
191
100
AcDbEntity
  8
TXT_ALL
100
AcDbText
 10
117.77566806
 20
-95.48314886
 30
0.0
 40
2.59999990
  1
Website: www.jonkers-bouwmetaal.nl
  7
Arial
 41
1.000
 50
0.0
 51
0.0
 72
     0
 11
117.77566806
 21
-94.18314890
 31
0.0
100
AcDbText
 73
     2
  0
TEXT
  5
192
100
AcDbEntity
  8
TXT_ALL
100
AcDbText
 10
117.77566806
 20
-85.73314886
 30
0.0
 40
2.59999990
  1
Adres: Hoornse Hop 10, 8321 WX Urk
  7
Arial
 41
1.000
 50
0.0
 51
0.0
 72
     0
 11
117.77566806
 21
-84.43314890
 31
0.0
100
AcDbText
 73
     2
  0
TEXT
  5
193
100
AcDbEntity
  8
TXT_ALL
100
AcDbText
 10
-153.74737169
 20
181.69185110
 30
0.0
 40
2.50000000
  1
Art. nr. 91017098
  7
Arial
 41
1.000
 50
0.0
 51
0.0
 72
     0
 11
-153.74737169
 21
182.94185110
 31
0.0
100
AcDbText
 73
     2
  0
TEXT
  5
194
100
AcDbEntity
  8
TXT_ALL
100
AcDbText
 10
-111.00933487
 20
181.69185110
 30
0.0
 40
2.50000000
  1
Omschrijving: SVH01-anker met ril 90x90 60x2.5
  7
Arial
 41
1.000
 50
0.0
 51
0.0
 72
     0
 11
-111.00933487
 21
182.94185110
 31
0.0
100
AcDbText
 73
     2
  0
LINE
  5
195
100
AcDbEntity
  8
0
100
AcDbLine
 10
252.81066806
 20
177.94185110
 30
0.0
 11
-157.18933194
 21
177.94185110
 31
0.0
  0
LINE
  5
196
100
AcDbEntity
  8
0
100
AcDbLine
 10
-114.16933194
 20
177.94185110
 30
0.0
 11
-114.16933194
 21
187.94185110
 31
0.0
  0
LINE
  5
197
100
AcDbEntity
  8
0
100
AcDbLine
 10
45.83066806
 20
177.94185110
 30
0.0
 11
45.83066806
 21
187.94185110
 31
0.0
  0
TEXT
  5
198
100
AcDbEntity
  8
TXT_ALL
100
AcDbText
 10
116.82436806
 20
181.69185110
 30
0.0
 40
2.50000000
  1
Behandeling: Sendzimir Verzinkt
  7
Arial
 41
1.000
 50
0.0
 51
0.0
 72
     0
 11
116.82436806
 21
182.94185110
 31
0.0
100
AcDbText
 73
     2
  0
LINE
  5
199
100
AcDbEntity
  8
0
100
AcDbLine
 10
185.72066806
 20
-79.55814890
 30
0.0
 11
252.81066806
 21
-79.55814890
 31
0.0
  0
LINE
  5
19A
100
AcDbEntity
  8
0
100
AcDbLine
 10
185.72066806
 20
-99.05814890
 30
0.0
 11
185.72066806
 21
-79.55814890
 31
0.0
  0
LINE
  5
19B
100
AcDbEntity
  8
0
100
AcDbLine
 10
185.72066806
 20
-99.05814890
 30
0.0
 11
185.72066806
 21
-79.55814890
 31
0.0
  0
TEXT
  5
19C
100
AcDbEntity
  8
TXT_ALL
100
AcDbText
 10
-19.82413385
 20
-97.90361549
 30
0.0
 40
2.50000000
  1

  7
MONOTXT
 41
1.000
 50
0.0
 51
0.0
 72
     0
 11
-19.82413385
 21
-96.65361549
 31
0.0
100
AcDbText
 73
     2
  0
TEXT
  5
19D
100
AcDbEntity
  8
TXT_ALL
100
AcDbText
 10
101.31104912
 20
-87.80814890
 30
0.0
 40
2.50000000
  1

  7
MONOTXT
 41
1.000
 50
0.0
 51
0.0
 72
     0
 11
101.31104912
 21
-86.55814890
 31
0.0
100
AcDbText
 73
     2
  0
POLYLINE
  5
19E
100
AcDbEntity
  8
0
100
AcDb2dPolyline
 66
     1
  0
VERTEX
  5
19F
100
AcDbEntity
  8
0
100
AcDbVertex
100
AcDb2dVertex
 10
183.81736806
 20
177.94185110
 30
0.0
  0
VERTEX
  5
1A0
100
AcDbEntity
  8
0
100
AcDbVertex
100
AcDb2dVertex
 10
114.82436806
 20
177.94185110
 30
0.0
  0
VERTEX
  5
1A1
100
AcDbEntity
  8
0
100
AcDbVertex
100
AcDb2dVertex
 10
114.82436806
 20
187.94185110
 30
0.0
  0
SEQEND
  5
1A2
100
AcDbEntity
  8
0
  0
TEXT
  5
1A3
100
AcDbEntity
  8
TXT_ALL
100
AcDbText
 10
185.81736806
 20
181.69185110
 30
0.0
 40
2.50000000
  1
Verpakkingshoeveelheid: 100 st.
  7
Arial
 41
1.000
 50
0.0
 51
0.0
 72
     0
 11
185.81736806
 21
182.94185110
 31
0.0
100
AcDbText
 73
     2
  0
TEXT
  5
1A4
100
AcDbEntity
  8
TXT_ALL
100
AcDbText
 10
47.83066806
 20
181.69185110
 30
0.0
 40
2.50000000
  1
Materiaal: S350
  7
Arial
 41
1.000
 50
0.0
 51
0.0
 72
     0
 11
47.83066806
 21
182.94185110
 31
0.0
100
AcDbText
 73
     2
  0
TEXT
  5
1A5
100
AcDbEntity
  8
TXT_ALL
100
AcDbText
 10
220.59231529
 20
-102.30765875
 30
0.0
 40
1.50000000
  1
Onderdeel van
  7
Arial
 41
1.000
 50
0.0
 51
0.0
 72
     0
 11
220.59231529
 21
-101.55765875
 31
0.0
100
AcDbText
 73
     2
  0
ELLIPSE
  5
1A6
100
AcDbEntity
  8
0
100
AcDbEllipse
 10
215.77118756
 20
63.49995879
 30
0.0
 11
5.50000000
 21
-0.00000000
 31
0.0
 40
0.31706181
 41
0.0
 42
1.03521019
  0
ELLIPSE
  5
1A7
100
AcDbEntity
  8
0
100
AcDbEllipse
 10
215.77118756
 20
63.49995879
 30
0.0
 11
5.50000000
 21
-0.0
 31
0.0
 40
0.31706181
 41
4.17680284
 42
0.0
  0
POLYLINE
  5
1A8
100
AcDbEntity
  8
0
100
AcDb2dPolyline
 66
     1
  0
VERTEX
  5
1A9
100
AcDbEntity
  8
0
100
AcDbVertex
100
AcDb2dVertex
 10
212.96428901
 20
62.00030935
 30
0.0
  0
VERTEX
  5
1AA
100
AcDbEntity
  8
0
100
AcDbVertex
100
AcDb2dVertex
 10
196.62486580
 20
65.07471780
 30
0.0
  0
SEQEND
  5
1AB
100
AcDbEntity
  8
0
  0
ELLIPSE
  5
1AC
100
AcDbEntity
  8
0
100
AcDbEllipse
 10
199.43176435
 20
66.57436724
 30
0.0
 11
5.50000000
 21
-0.00000000
 31
0.0
 40
0.31706181
 41
3.14159265
 42
4.17680284
  0
ELLIPSE
  5
1AD
100
AcDbEntity
  8
0
100
AcDbEllipse
 10
199.43176435
 20
66.57436724
 30
0.0
 11
5.50000000
 21
-0.0
 31
0.0
 40
0.31706181
 41
1.03521019
 42
3.14159265
  0
LINE
  5
1AE
100
AcDbEntity
  8
0
100
AcDbLine
 10
202.23866290
 20
68.07401668
 30
0.0
 11
218.57808611
 21
64.99960822
 31
0.0
  0
ELLIPSE
  5
1AF
100
AcDbEntity
  8
0
100
AcDbEllipse
 10
215.77118756
 20
61.12894660
 30
0.0
 11
5.50000000
 21
0.00000000
 31
0.0
 40
0.31706181
 41
0.74752405
 42
1.03521019
  0
LINE
  5
1B0
100
AcDbEntity
  8
0
100
AcDbLine
 10
202.23866290
 20
65.70300449
 30
0.0
 11
218.57808611
 21
62.62859604
 31
0.0
  0
ELLIPSE
  5
1B1
100
AcDbEntity
  8
0
100
AcDbEllipse
 10
199.43176435
 20
64.20335505
 30
0.0
 11
5.50000000
 21
0.00000000
 31
0.0
 40
0.31706181
 41
1.03521019
 42
2.39406860
  0
ELLIPSE
  5
1B2
100
AcDbEntity
  8
0
100
AcDbEllipse
 10
150.36550587
 20
67.69545223
 30
0.0
 11
2.25000000
 21
0.0
 31
0.0
 40
0.31706181
 41
0.0
 42
3.14159265
  0
ELLIPSE
  5
1B3
100
AcDbEntity
  8
0
100
AcDbEllipse
 10
150.36550587
 20
67.69545223
 30
0.0
 11
2.25000000
 21
-0.0
 31
0.0
 40
0.31706181
 41
3.14159265
 42
0.0
  0
ELLIPSE
  5
1B4
100
AcDbEntity
  8
0
100
AcDbEllipse
 10
172.82069426
 20
79.69264773
 30
0.0
 11
3.25000000
 21
0.0
 31
0.0
 40
0.31706181
 41
0.0
 42
3.14159265
  0
ELLIPSE
  5
1B5
100
AcDbEntity
  8
0
100
AcDbEllipse
 10
172.82069426
 20
79.69264773
 30
0.0
 11
3.25000000
 21
-0.0
 31
0.0
 40
0.31706181
 41
3.14159265
 42
0.0
  0
ELLIPSE
  5
1B6
100
AcDbEntity
  8
0
100
AcDbEllipse
 10
161.58319714
 20
68.71860450
 30
0.0
 11
4.50000000
 21
0.0
 31
0.0
 40
0.31706181
 41
0.0
 42
3.14159265
  0
ELLIPSE
  5
1B7
100
AcDbEntity
  8
0
100
AcDbEllipse
 10
161.58319714
 20
68.71860450
 30
0.0
 11
4.50000000
 21
-0.0
 31
0.0
 40
0.31706181
 41
3.14159265
 42
0.0
  0
ELLIPSE
  5
1B8
100
AcDbEntity
  8
0
100
AcDbEllipse
 10
161.58319714
 20
66.34759231
 30
0.0
 11
4.50000000
 21
0.00000000
 31
0.0
 40
0.31706181
 41
0.98071833
 42
2.16087432
  0
ELLIPSE
  5
1B9
100
AcDbEntity
  8
0
100
AcDbEllipse
 10
193.42187978
 20
72.68248952
 30
0.0
 11
4.50000000
 21
0.0
 31
0.0
 40
0.31706181
 41
0.0
 42
3.14159265
  0
ELLIPSE
  5
1BA
100
AcDbEntity
  8
0
100
AcDbEllipse
 10
193.42187978
 20
72.68248952
 30
0.0
 11
4.50000000
 21
-0.0
 31
0.0
 40
0.31706181
 41
3.14159265
 42
0.0
  0
ELLIPSE
  5
1BB
100
AcDbEntity
  8
0
100
AcDbEllipse
 10
193.42187978
 20
70.31147733
 30
0.0
 11
4.50000000
 21
-0.00000000
 31
0.0
 40
0.31706181
 41
0.98071833
 42
2.16087432
  0
ELLIPSE
  5
1BC
100
AcDbEntity
  8
0
100
AcDbEllipse
 10
200.76970765
 20
74.43379116
 30
0.0
 11
2.25000000
 21
0.0
 31
0.0
 40
0.31706181
 41
0.0
 42
3.14159265
  0
ELLIPSE
  5
1BD
100
AcDbEntity
  8
0
100
AcDbEllipse
 10
200.76970765
 20
74.43379116
 30
0.0
 11
2.25000000
 21
-0.0
 31
0.0
 40
0.31706181
 41
3.14159265
 42
0.0
  0
ELLIPSE
  5
1BE
100
AcDbEntity
  8
0
100
AcDbEllipse
 10
178.31451927
 20
62.43659566
 30
0.0
 11
3.25000000
 21
-0.00000000
 31
0.0
 40
0.31706181
 41
6.28318531
 42
3.14159265
  0
ELLIPSE
  5
1BF
100
AcDbEntity
  8
0
100
AcDbEllipse
 10
178.31451927
 20
62.43659566
 30
0.0
 11
3.25000000
 21
-0.0
 31
0.0
 40
0.31706181
 41
3.14159265
 42
6.28318531
  0
ELLIPSE
  5
1C0
100
AcDbEntity
  8
0
100
AcDbEllipse
 10
208.72652112
 20
69.98712929
 30
0.0
 11
2.25000000
 21
0.0
 31
0.0
 40
0.31706181
 41
0.0
 42
3.14159265
  0
ELLIPSE
  5
1C1
100
AcDbEntity
  8
0
100
AcDbEllipse
 10
208.72652112
 20
69.98712929
 30
0.0
 11
2.25000000
 21
-0.0
 31
0.0
 40
0.31706181
 41
3.14159265
 42
0.0
  0
ELLIPSE
  5
1C2
100
AcDbEntity
  8
0
100
AcDbEllipse
 10
194.43685579
 20
62.35255034
 30
0.0
 11
2.25000000
 21
0.0
 31
0.0
 40
0.31706181
 41
0.0
 42
3.14159265
  0
ELLIPSE
  5
1C3
100
AcDbEntity
  8
0
100
AcDbEllipse
 10
194.43685579
 20
62.35255034
 30
0.0
 11
2.25000000
 21
-0.0
 31
0.0
 40
0.31706181
 41
3.14159265
 42
0.0
  0
ELLIPSE
  5
1C4
100
AcDbEntity
  8
0
100
AcDbEllipse
 10
228.71872104
 20
69.17493459
 30
0.0
 11
3.25000000
 21
0.0
 31
0.0
 40
0.31706181
 41
0.0
 42
3.14159265
  0
ELLIPSE
  5
1C5
100
AcDbEntity
  8
0
100
AcDbEllipse
 10
228.71872104
 20
69.17493459
 30
0.0
 11
3.25000000
 21
-0.0
 31
0.0
 40
0.31706181
 41
3.14159265
 42
0.0
  0
ELLIPSE
  5
1C6
100
AcDbEntity
  8
0
100
AcDbEllipse
 10
206.26353266
 20
57.17773910
 30
0.0
 11
2.25000000
 21
0.0
 31
0.0
 40
0.31706181
 41
0.0
 42
3.14159265
  0
ELLIPSE
  5
1C7
100
AcDbEntity
  8
0
100
AcDbEllipse
 10
206.26353266
 20
57.17773910
 30
0.0
 11
2.25000000
 21
-0.0
 31
0.0
 40
0.31706181
 41
3.14159265
 42
0.0
  0
LINE
  5
1C8
100
AcDbEntity
  8
0
100
AcDbLine
 10
206.00340860
 20
54.55368459
 30
0.0
 11
138.49579164
 21
67.25584584
 31
0.0
  0
LINE
  5
1C9
100
AcDbEntity
  8
0
100
AcDbLine
 10
138.49579164
 20
64.88483365
 30
0.0
 11
206.00340860
 21
52.18267240
 31
0.0
  0
LINE
  5
1CA
100
AcDbEntity
  8
0
100
AcDbLine
 10
206.00340860
 20
54.55368459
 30
0.0
 11
206.00340860
 21
52.18267240
 31
0.0
  0
LINE
  5
1CB
100
AcDbEntity
  8
0
100
AcDbLine
 10
206.00340860
 20
54.55368459
 30
0.0
 11
212.85498276
 21
55.10794740
 31
0.0
  0
LINE
  5
1CC
100
AcDbEntity
  8
0
100
AcDbLine
 10
237.60672450
 20
68.33212880
 30
0.0
 11
212.85498276
 21
55.10794740
 31
0.0
  0
LINE
  5
1CD
100
AcDbEntity
  8
0
100
AcDbLine
 10
237.60672450
 20
68.33212880
 30
0.0
 11
235.85860224
 21
70.50450133
 31
0.0
  0
LINE
  5
1CE
100
AcDbEntity
  8
0
100
AcDbLine
 10
168.35098528
 20
83.20666257
 30
0.0
 11
235.85860224
 21
70.50450133
 31
0.0
  0
LINE
  5
1CF
100
AcDbEntity
  8
0
100
AcDbLine
 10
237.60672450
 20
65.96111661
 30
0.0
 11
237.60672450
 21
68.33212880
 31
0.0
  0
LINE
  5
1D0
100
AcDbEntity
  8
0
100
AcDbLine
 10
212.85498276
 20
52.73693522
 30
0.0
 11
237.60672450
 21
65.96111661
 31
0.0
  0
POLYLINE
  5
1D1
100
AcDbEntity
  8
0
100
AcDb2dPolyline
 66
     1
  0
VERTEX
  5
1D2
100
AcDbEntity
  8
0
100
AcDbVertex
100
AcDb2dVertex
 10
212.85498276
 20
55.10794740
 30
0.0
  0
VERTEX
  5
1D3
100
AcDbEntity
  8
0
100
AcDbVertex
100
AcDb2dVertex
 10
212.85498276
 20
52.73693522
 30
0.0
  0
VERTEX
  5
1D4
100
AcDbEntity
  8
0
100
AcDbVertex
100
AcDb2dVertex
 10
206.00340860
 20
52.18267240
 30
0.0
  0
SEQEND
  5
1D5
100
AcDbEntity
  8
0
  0
LINE
  5
1D6
100
AcDbEntity
  8
0
100
AcDbLine
  6
STRICHPUNKT2
 62
     1
 10
206.26353266
 20
58.24469458
 30
0.0
 11
206.26353266
 21
56.46435002
 31
0.0
  0
LINE
  5
1D7
100
AcDbEntity
  8
0
100
AcDbLine
  6
STRICHPUNKT2
 62
     1
 10
206.26353266
 20
57.17773910
 30
0.0
 11
207.98594767
 21
58.09797852
 31
0.0
  0
LINE
  5
1D8
100
AcDbEntity
  8
0
100
AcDbLine
  6
STRICHPUNKT2
 62
     1
 10
206.26353266
 20
57.17773910
 30
0.0
 11
204.54111764
 21
56.25749967
 31
0.0
  0
LINE
  5
1D9
100
AcDbEntity
  8
0
100
AcDbLine
  6
STRICHPUNKT2
 62
     1
 10
206.26353266
 20
57.17773910
 30
0.0
 11
203.36113511
 21
57.72385112
 31
0.0
  0
LINE
  5
1DA
100
AcDbEntity
  8
0
100
AcDbLine
  6
STRICHPUNKT2
 62
     1
 10
206.26353266
 20
57.17773910
 30
0.0
 11
209.16593020
 21
56.63162707
 31
0.0
  0
LINE
  5
1DB
100
AcDbEntity
  8
0
100
AcDbLine
  6
STRICHPUNKT2
 62
     1
 10
228.71872104
 20
70.71609251
 30
0.0
 11
228.71872104
 21
68.14448370
 31
0.0
  0
LINE
  5
1DC
100
AcDbEntity
  8
0
100
AcDbLine
  6
STRICHPUNKT2
 62
     1
 10
228.71872104
 20
69.17493459
 30
0.0
 11
231.20665384
 21
70.50416932
 31
0.0
  0
LINE
  5
1DD
100
AcDbEntity
  8
0
100
AcDbLine
  6
STRICHPUNKT2
 62
     1
 10
228.71872104
 20
69.17493459
 30
0.0
 11
226.23078823
 21
67.84569986
 31
0.0
  0
LINE
  5
1DE
100
AcDbEntity
  8
0
100
AcDbLine
  6
STRICHPUNKT2
 62
     1
 10
228.71872104
 20
69.17493459
 30
0.0
 11
224.52636903
 21
69.96376308
 31
0.0
  0
LINE
  5
1DF
100
AcDbEntity
  8
0
100
AcDbLine
  6
STRICHPUNKT2
 62
     1
 10
228.71872104
 20
69.17493459
 30
0.0
 11
232.91107305
 21
68.38610611
 31
0.0
  0
LINE
  5
1E0
100
AcDbEntity
  8
0
100
AcDbLine
  6
STRICHPUNKT2
 62
     1
 10
194.43685579
 20
63.41950582
 30
0.0
 11
194.43685579
 21
61.63916126
 31
0.0
  0
LINE
  5
1E1
100
AcDbEntity
  8
0
100
AcDbLine
  6
STRICHPUNKT2
 62
     1
 10
194.43685579
 20
62.35255034
 30
0.0
 11
196.15927081
 21
63.27278976
 31
0.0
  0
LINE
  5
1E2
100
AcDbEntity
  8
0
100
AcDbLine
  6
STRICHPUNKT2
 62
     1
 10
194.43685579
 20
62.35255034
 30
0.0
 11
192.71444077
 21
61.43231091
 31
0.0
  0
LINE
  5
1E3
100
AcDbEntity
  8
0
100
AcDbLine
  6
STRICHPUNKT2
 62
     1
 10
194.43685579
 20
62.35255034
 30
0.0
 11
191.53445824
 21
62.89866237
 31
0.0
  0
LINE
  5
1E4
100
AcDbEntity
  8
0
100
AcDbLine
  6
STRICHPUNKT2
 62
     1
 10
194.43685579
 20
62.35255034
 30
0.0
 11
197.33925333
 21
61.80643831
 31
0.0
  0
LINE
  5
1E5
100
AcDbEntity
  8
0
100
AcDbLine
  6
STRICHPUNKT2
 62
     1
 10
208.72652112
 20
71.05408477
 30
0.0
 11
208.72652112
 21
69.27374021
 31
0.0
  0
LINE
  5
1E6
100
AcDbEntity
  8
0
100
AcDbLine
  6
STRICHPUNKT2
 62
     1
 10
208.72652112
 20
69.98712929
 30
0.0
 11
210.44893614
 21
70.90736872
 31
0.0
  0
LINE
  5
1E7
100
AcDbEntity
  8
0
100
AcDbLine
  6
STRICHPUNKT2
 62
     1
 10
208.72652112
 20
69.98712929
 30
0.0
 11
207.00410610
 21
69.06688986
 31
0.0
  0
LINE
  5
1E8
100
AcDbEntity
  8
0
100
AcDbLine
  6
STRICHPUNKT2
 62
     1
 10
208.72652112
 20
69.98712929
 30
0.0
 11
205.82412358
 21
70.53324132
 31
0.0
  0
LINE
  5
1E9
100
AcDbEntity
  8
0
100
AcDbLine
  6
STRICHPUNKT2
 62
     1
 10
208.72652112
 20
69.98712929
 30
0.0
 11
211.62891867
 21
69.44101726
 31
0.0
  0
LINE
  5
1EA
100
AcDbEntity
  8
0
100
AcDbLine
  6
STRICHPUNKT2
 62
     1
 10
178.31451927
 20
63.97775359
 30
0.0
 11
178.31451927
 21
61.40614477
 31
0.0
  0
LINE
  5
1EB
100
AcDbEntity
  8
0
100
AcDbLine
  6
STRICHPUNKT2
 62
     1
 10
178.31451927
 20
62.43659566
 30
0.0
 11
180.80245207
 21
63.76583039
 31
0.0
  0
LINE
  5
1EC
100
AcDbEntity
  8
0
100
AcDbLine
  6
STRICHPUNKT2
 62
     1
 10
178.31451927
 20
62.43659566
 30
0.0
 11
175.82658646
 21
61.10736094
 31
0.0
  0
LINE
  5
1ED
100
AcDbEntity
  8
0
100
AcDbLine
  6
STRICHPUNKT2
 62
     1
 10
178.31451927
 20
62.43659566
 30
0.0
 11
174.12216726
 21
63.22542415
 31
0.0
  0
LINE
  5
1EE
100
AcDbEntity
  8
0
100
AcDbLine
  6
STRICHPUNKT2
 62
     1
 10
178.31451927
 20
62.43659566
 30
0.0
 11
182.50687127
 21
61.64776718
 31
0.0
  0
LINE
  5
1EF
100
AcDbEntity
  8
0
100
AcDbLine
  6
STRICHPUNKT2
 62
     1
 10
200.76970765
 20
75.50074664
 30
0.0
 11
200.76970765
 21
73.72040208
 31
0.0
  0
LINE
  5
1F0
100
AcDbEntity
  8
0
100
AcDbLine
  6
STRICHPUNKT2
 62
     1
 10
200.76970765
 20
74.43379116
 30
0.0
 11
202.49212267
 21
75.35403059
 31
0.0
  0
LINE
  5
1F1
100
AcDbEntity
  8
0
100
AcDbLine
  6
STRICHPUNKT2
 62
     1
 10
200.76970765
 20
74.43379116
 30
0.0
 11
199.04729263
 21
73.51355173
 31
0.0
  0
LINE
  5
1F2
100
AcDbEntity
  8
0
100
AcDbLine
  6
STRICHPUNKT2
 62
     1
 10
200.76970765
 20
74.43379116
 30
0.0
 11
197.86731010
 21
74.97990319
 31
0.0
  0
LINE
  5
1F3
100
AcDbEntity
  8
0
100
AcDbLine
  6
STRICHPUNKT2
 62
     1
 10
200.76970765
 20
74.43379116
 30
0.0
 11
203.67210519
 21
73.88767913
 31
0.0
  0
LINE
  5
1F4
100
AcDbEntity
  8
0
100
AcDbLine
  6
STRICHPUNKT2
 62
     1
 10
193.42187978
 20
74.81640049
 30
0.0
 11
193.42187978
 21
71.25571136
 31
0.0
  0
LINE
  5
1F5
100
AcDbEntity
  8
0
100
AcDbLine
  6
STRICHPUNKT2
 62
     1
 10
193.42187978
 20
72.68248952
 30
0.0
 11
196.86670981
 21
74.52296837
 31
0.0
  0
LINE
  5
1F6
100
AcDbEntity
  8
0
100
AcDbLine
  6
STRICHPUNKT2
 62
     1
 10
193.42187978
 20
72.68248952
 30
0.0
 11
189.97704974
 21
70.84201066
 31
0.0
  0
LINE
  5
1F7
100
AcDbEntity
  8
0
100
AcDbLine
  6
STRICHPUNKT2
 62
     1
 10
193.42187978
 20
72.68248952
 30
0.0
 11
187.61708469
 21
73.77471358
 31
0.0
  0
LINE
  5
1F8
100
AcDbEntity
  8
0
100
AcDbLine
  6
STRICHPUNKT2
 62
     1
 10
193.42187978
 20
72.68248952
 30
0.0
 11
199.22667487
 21
71.59026546
 31
0.0
  0
LINE
  5
1F9
100
AcDbEntity
  8
0
100
AcDbLine
  6
STRICHPUNKT2
 62
     1
 10
195.48702980
 20
71.41483074
 30
0.0
 11
195.71843314
 21
71.53846323
 31
0.0
  0
LINE
  5
1FA
100
AcDbEntity
  8
0
100
AcDbLine
  6
STRICHPUNKT2
 62
     1
 10
161.58319714
 20
70.85251547
 30
0.0
 11
161.58319714
 21
67.29182634
 31
0.0
  0
LINE
  5
1FB
100
AcDbEntity
  8
0
100
AcDbLine
  6
STRICHPUNKT2
 62
     1
 10
161.58319714
 20
68.71860450
 30
0.0
 11
165.02802717
 21
70.55908335
 31
0.0
  0
LINE
  5
1FC
100
AcDbEntity
  8
0
100
AcDbLine
  6
STRICHPUNKT2
 62
     1
 10
161.58319714
 20
68.71860450
 30
0.0
 11
158.13836710
 21
66.87812564
 31
0.0
  0
LINE
  5
1FD
100
AcDbEntity
  8
0
100
AcDbLine
  6
STRICHPUNKT2
 62
     1
 10
161.58319714
 20
68.71860450
 30
0.0
 11
155.77840205
 21
69.81082856
 31
0.0
  0
LINE
  5
1FE
100
AcDbEntity
  8
0
100
AcDbLine
  6
STRICHPUNKT2
 62
     1
 10
161.58319714
 20
68.71860450
 30
0.0
 11
167.38799222
 21
67.62638044
 31
0.0
  0
LINE
  5
1FF
100
AcDbEntity
  8
0
100
AcDbLine
  6
STRICHPUNKT2
 62
     1
 10
163.64834716
 20
67.45094572
 30
0.0
 11
163.87975049
 21
67.57457821
 31
0.0
  0
LINE
  5
200
100
AcDbEntity
  8
0
100
AcDbLine
  6
STRICHPUNKT2
 62
     1
 10
172.82069426
 20
81.23380565
 30
0.0
 11
172.82069426
 21
78.66219683
 31
0.0
  0
LINE
  5
201
100
AcDbEntity
  8
0
100
AcDbLine
  6
STRICHPUNKT2
 62
     1
 10
172.82069426
 20
79.69264773
 30
0.0
 11
175.30862706
 21
81.02188245
 31
0.0
  0
LINE
  5
202
100
AcDbEntity
  8
0
100
AcDbLine
  6
STRICHPUNKT2
 62
     1
 10
172.82069426
 20
79.69264773
 30
0.0
 11
170.33276145
 21
78.36341300
 31
0.0
  0
LINE
  5
203
100
AcDbEntity
  8
0
100
AcDbLine
  6
STRICHPUNKT2
 62
     1
 10
172.82069426
 20
79.69264773
 30
0.0
 11
168.62834225
 21
80.48147621
 31
0.0
  0
LINE
  5
204
100
AcDbEntity
  8
0
100
AcDbLine
  6
STRICHPUNKT2
 62
     1
 10
172.82069426
 20
79.69264773
 30
0.0
 11
177.01304627
 21
78.90381924
 31
0.0
  0
LINE
  5
205
100
AcDbEntity
  8
0
100
AcDbLine
  6
STRICHPUNKT2
 62
     1
 10
150.36550587
 20
68.76240772
 30
0.0
 11
150.36550587
 21
66.98206315
 31
0.0
  0
LINE
  5
206
100
AcDbEntity
  8
0
100
AcDbLine
  6
STRICHPUNKT2
 62
     1
 10
150.36550587
 20
67.69545223
 30
0.0
 11
152.08792089
 21
68.61569166
 31
0.0
  0
LINE
  5
207
100
AcDbEntity
  8
0
100
AcDbLine
  6
STRICHPUNKT2
 62
     1
 10
150.36550587
 20
67.69545223
 30
0.0
 11
148.64309086
 21
66.77521280
 31
0.0
  0
LINE
  5
208
100
AcDbEntity
  8
0
100
AcDbLine
  6
STRICHPUNKT2
 62
     1
 10
150.36550587
 20
67.69545223
 30
0.0
 11
147.46310833
 21
68.24156426
 31
0.0
  0
LINE
  5
209
100
AcDbEntity
  8
0
100
AcDbLine
  6
STRICHPUNKT2
 62
     1
 10
150.36550587
 20
67.69545223
 30
0.0
 11
153.26790342
 21
67.14934020
 31
0.0
  0
LINE
  5
20A
100
AcDbEntity
  8
0
100
AcDbLine
  6
STRICHPUNKT2
 62
     1
 10
215.77118756
 20
66.10807219
 30
0.0
 11
215.77118756
 21
61.75611882
 31
0.0
  0
LINE
  5
20B
100
AcDbEntity
  8
0
100
AcDbLine
  6
STRICHPUNKT2
 62
     1
 10
199.43176435
 20
69.18248065
 30
0.0
 11
199.43176435
 21
64.54657477
 31
0.0
  0
LINE
  5
20C
100
AcDbEntity
  8
0
100
AcDbLine
  6
STRICHPUNKT2
 62
     1
 10
222.86593711
 20
62.16501827
 30
0.0
 11
192.33701480
 21
67.90930775
 31
0.0
  0
LINE
  5
20D
100
AcDbEntity
  8
0
100
AcDbLine
  6
STRICHPUNKT2
 62
     1
 10
219.98153538
 20
65.74943294
 30
0.0
 11
211.56083974
 21
61.25048463
 31
0.0
  0
LINE
  5
20E
100
AcDbEntity
  8
0
100
AcDbLine
  6
STRICHPUNKT2
 62
     1
 10
203.64211217
 20
68.82384140
 30
0.0
 11
195.22141653
 21
64.32489309
 31
0.0
  0
ELLIPSE
  5
20F
100
AcDbEntity
  8
0
100
AcDbEllipse
 10
138.49579164
 20
69.62685802
 30
0.0
 11
2.35616600
 21
-4.41004328
 31
0.0
 40
0.81559940
 41
4.13245953
 42
5.70325586
  0
ELLIPSE
  5
210
100
AcDbEntity
  8
0
100
AcDbEllipse
 10
138.49579164
 20
69.62685802
 30
0.0
 11
1.17808300
 21
-2.20502164
 31
0.0
 40
0.81559940
 41
4.13245953
 42
5.70325586
  0
ELLIPSE
  5
211
100
AcDbEntity
  8
0
100
AcDbEllipse
 10
168.35098528
 20
85.57767476
 30
0.0
 11
1.17808300
 21
-2.20502164
 31
0.0
 40
0.81559940
 41
4.13245953
 42
5.70325586
  0
ELLIPSE
  5
212
100
AcDbEntity
  8
0
100
AcDbEllipse
 10
162.50105854
 20
93.01523788
 30
0.0
 11
-0.41605667
 21
-2.21119806
 31
0.0
 40
0.48401387
 41
0.0
 42
3.14159265
  0
ELLIPSE
  5
213
100
AcDbEntity
  8
0
100
AcDbEllipse
 10
162.50105854
 20
93.01523788
 30
0.0
 11
-0.41605667
 21
-2.21119806
 31
0.0
 40
0.48401387
 41
3.14159265
 42
6.28318531
  0
ELLIPSE
  5
214
100
AcDbEntity
  8
0
100
AcDbEllipse
 10
139.28035238
 20
80.60904708
 30
0.0
 11
-0.60097074
 21
-3.19395275
 31
0.0
 40
0.48401387
 41
0.0
 42
3.14159265
  0
ELLIPSE
  5
215
100
AcDbEntity
  8
0
100
AcDbEllipse
 10
139.28035238
 20
80.60904708
 30
0.0
 11
-0.60097074
 21
-3.19395275
 31
0.0
 40
0.48401387
 41
3.14159265
 42
6.28318531
  0
ELLIPSE
  5
216
100
AcDbEntity
  8
0
100
AcDbEllipse
 10
137.13042827
 20
81.01357451
 30
0.0
 11
-0.60097074
 21
-3.19395275
 31
0.0
 40
0.48401387
 41
0.76891433
 42
2.37267832
  0
ELLIPSE
  5
217
100
AcDbEntity
  8
0
100
AcDbEllipse
 10
158.16312442
 20
98.28483684
 30
0.0
 11
-0.83211334
 21
-4.42239611
 31
0.0
 40
0.48401387
 41
6.28318531
 42
3.14159265
  0
ELLIPSE
  5
218
100
AcDbEntity
  8
0
100
AcDbEllipse
 10
158.16312442
 20
98.28483684
 30
0.0
 11
-0.83211334
 21
-4.42239611
 31
0.0
 40
0.48401387
 41
3.14159265
 42
0.00000000
  0
ELLIPSE
  5
219
100
AcDbEntity
  8
0
100
AcDbEllipse
 10
156.01320032
 20
98.68936427
 30
0.0
 11
-0.83211334
 21
-4.42239611
 31
0.0
 40
0.48401387
 41
0.52614230
 42
2.61545036
  0
ELLIPSE
  5
21A
100
AcDbEntity
  8
0
100
AcDbEllipse
 10
144.38380428
 20
107.52000674
 30
0.0
 11
-0.83211334
 21
-4.42239611
 31
0.0
 40
0.48401387
 41
0.0
 42
3.14159265
  0
ELLIPSE
  5
21B
100
AcDbEntity
  8
0
100
AcDbEllipse
 10
144.38380428
 20
107.52000674
 30
0.0
 11
-0.83211334
 21
-4.42239611
 31
0.0
 40
0.48401387
 41
3.14159265
 42
0.0
  0
ELLIPSE
  5
21C
100
AcDbEntity
  8
0
100
AcDbEllipse
 10
142.23388017
 20
107.92453416
 30
0.0
 11
-0.83211334
 21
-4.42239611
 31
0.0
 40
0.48401387
 41
0.52614230
 42
2.61545036
  0
ELLIPSE
  5
21D
100
AcDbEntity
  8
0
100
AcDbEllipse
 10
162.50105854
 20
123.83839632
 30
0.0
 11
-0.60097074
 21
-3.19395275
 31
0.0
 40
0.48401387
 41
0.0
 42
3.14159265
  0
ELLIPSE
  5
21E
100
AcDbEntity
  8
0
100
AcDbEllipse
 10
162.50105854
 20
123.83839632
 30
0.0
 11
-0.60097074
 21
-3.19395275
 31
0.0
 40
0.48401387
 41
3.14159265
 42
6.28318531
  0
ELLIPSE
  5
21F
100
AcDbEntity
  8
0
100
AcDbEllipse
 10
160.35113444
 20
124.24292374
 30
0.0
 11
-0.60097074
 21
-3.19395275
 31
0.0
 40
0.48401387
 41
0.76891433
 42
2.37267832
  0
ELLIPSE
  5
220
100
AcDbEntity
  8
0
100
AcDbEllipse
 10
140.04587016
 20
111.84120082
 30
0.0
 11
-0.41605667
 21
-2.21119806
 31
0.0
 40
0.48401387
 41
0.00000000
 42
3.14159265
  0
ELLIPSE
  5
221
100
AcDbEntity
  8
0
100
AcDbEllipse
 10
140.04587016
 20
111.84120082
 30
0.0
 11
-0.41605667
 21
-2.21119806
 31
0.0
 40
0.48401387
 41
3.14159265
 42
0.0
  0
ELLIPSE
  5
222
100
AcDbEntity
  8
0
100
AcDbEllipse
 10
158.41829702
 20
133.98635142
 30
0.0
 11
-0.41605667
 21
-2.21119806
 31
0.0
 40
0.48401387
 41
0.0
 42
3.14159265
  0
ELLIPSE
  5
223
100
AcDbEntity
  8
0
100
AcDbEllipse
 10
158.41829702
 20
133.98635142
 30
0.0
 11
-0.41605667
 21
-2.21119806
 31
0.0
 40
0.48401387
 41
3.14159265
 42
0.0
  0
ELLIPSE
  5
224
100
AcDbEntity
  8
0
100
AcDbEllipse
 10
144.12863168
 20
126.35177247
 30
0.0
 11
-0.41605667
 21
-2.21119806
 31
0.0
 40
0.48401387
 41
0.00000000
 42
3.14159265
  0
ELLIPSE
  5
225
100
AcDbEntity
  8
0
100
AcDbEllipse
 10
144.12863168
 20
126.35177247
 30
0.0
 11
-0.41605667
 21
-2.21119806
 31
0.0
 40
0.48401387
 41
3.14159265
 42
0.0
  0
ELLIPSE
  5
226
100
AcDbEntity
  8
0
100
AcDbEllipse
 10
162.50105854
 20
154.66155475
 30
0.0
 11
-0.41605667
 21
-2.21119806
 31
0.0
 40
0.48401387
 41
0.0
 42
3.14159265
  0
ELLIPSE
  5
227
100
AcDbEntity
  8
0
100
AcDbEllipse
 10
162.50105854
 20
154.66155475
 30
0.0
 11
-0.41605667
 21
-2.21119806
 31
0.0
 40
0.48401387
 41
3.14159265
 42
0.0
  0
ELLIPSE
  5
228
100
AcDbEntity
  8
0
100
AcDbEllipse
 10
151.27346435
 20
147.71455213
 30
0.0
 11
-1.01702741
 21
-5.40515081
 31
0.0
 40
0.48401387
 41
0.0
 42
3.14159265
  0
ELLIPSE
  5
229
100
AcDbEntity
  8
0
100
AcDbEllipse
 10
151.27346435
 20
147.71455213
 30
0.0
 11
-1.01702741
 21
-5.40515081
 31
0.0
 40
0.48401387
 41
3.14159265
 42
6.28318531
  0
ELLIPSE
  5
22A
100
AcDbEntity
  8
0
100
AcDbEllipse
 10
149.12354025
 20
148.11907956
 30
0.0
 11
-1.01702741
 21
-5.40515081
 31
0.0
 40
0.48401387
 41
0.42343208
 42
2.71816058
  0
ELLIPSE
  5
22B
100
AcDbEntity
  8
0
100
AcDbEllipse
 10
140.04587016
 20
142.66435926
 30
0.0
 11
-0.60097074
 21
-3.19395275
 31
0.0
 40
0.48401387
 41
0.0
 42
3.14159265
  0
ELLIPSE
  5
22C
100
AcDbEntity
  8
0
100
AcDbEllipse
 10
140.04587016
 20
142.66435926
 30
0.0
 11
-0.60097074
 21
-3.19395275
 31
0.0
 40
0.48401387
 41
3.14159265
 42
0.00000000
  0
ELLIPSE
  5
22D
100
AcDbEntity
  8
0
100
AcDbEllipse
 10
137.89594605
 20
143.06888669
 30
0.0
 11
-0.60097074
 21
-3.19395275
 31
0.0
 40
0.48401387
 41
0.76891433
 42
2.37267832
  0
LINE
  5
22E
100
AcDbEntity
  8
0
100
AcDbLine
 10
134.19594342
 20
70.43591288
 30
0.0
 11
134.19594342
 21
144.88569556
 31
0.0
  0
LINE
  5
22F
100
AcDbEntity
  8
0
100
AcDbLine
 10
136.34586753
 20
144.48116814
 30
0.0
 11
134.19594342
 21
144.88569556
 31
0.0
  0
LINE
  5
230
100
AcDbEntity
  8
0
100
AcDbLine
 10
136.34586753
 20
144.48116814
 30
0.0
 11
136.34586753
 21
70.03138545
 31
0.0
  0
POLYLINE
  5
231
100
AcDbEntity
  8
0
100
AcDb2dPolyline
 66
     1
  0
VERTEX
  5
232
100
AcDbEntity
  8
0
100
AcDbVertex
100
AcDb2dVertex
 10
166.20106117
 20
85.98220219
 30
0.0
  0
VERTEX
  5
233
100
AcDbEntity
  8
0
100
AcDbVertex
100
AcDb2dVertex
 10
166.20106117
 20
160.43198487
 30
0.0
  0
VERTEX
  5
234
100
AcDbEntity
  8
0
100
AcDbVertex
100
AcDb2dVertex
 10
163.64933522
 20
163.81069158
 30
0.0
  0
VERTEX
  5
235
100
AcDbEntity
  8
0
100
AcDbVertex
100
AcDb2dVertex
 10
138.89759348
 20
150.58651018
 30
0.0
  0
VERTEX
  5
236
100
AcDbEntity
  8
0
100
AcDbVertex
100
AcDb2dVertex
 10
136.34586753
 20
144.48116814
 30
0.0
  0
SEQEND
  5
237
100
AcDbEntity
  8
0
  0
POLYLINE
  5
238
100
AcDbEntity
  8
0
100
AcDb2dPolyline
 66
     1
  0
VERTEX
  5
239
100
AcDbEntity
  8
0
100
AcDbVertex
100
AcDb2dVertex
 10
138.89759348
 20
150.58651018
 30
0.0
  0
VERTEX
  5
23A
100
AcDbEntity
  8
0
100
AcDbVertex
100
AcDb2dVertex
 10
136.74766938
 20
150.99103761
 30
0.0
  0
VERTEX
  5
23B
100
AcDbEntity
  8
0
100
AcDbVertex
100
AcDb2dVertex
 10
161.49941111
 20
164.21521901
 30
0.0
  0
VERTEX
  5
23C
100
AcDbEntity
  8
0
100
AcDbVertex
100
AcDb2dVertex
 10
163.64933522
 20
163.81069158
 30
0.0
  0
SEQEND
  5
23D
100
AcDbEntity
  8
0
  0
LINE
  5
23E
100
AcDbEntity
  8
0
100
AcDbLine
 10
134.19594342
 20
144.88569556
 30
0.0
 11
136.74766938
 21
150.99103761
 31
0.0
  0
LINE
  5
23F
100
AcDbEntity
  8
0
100
AcDbLine
  6
STRICHPUNKT2
 62
     1
 10
141.44332083
 20
142.40141643
 30
0.0
 11
138.49995274
 21
142.95523743
 31
0.0
  0
LINE
  5
240
100
AcDbEntity
  8
0
100
AcDbLine
  6
STRICHPUNKT2
 62
     1
 10
140.04587016
 20
142.66435926
 30
0.0
 11
142.53380296
 21
143.99359399
 31
0.0
  0
LINE
  5
241
100
AcDbEntity
  8
0
100
AcDbLine
  6
STRICHPUNKT2
 62
     1
 10
140.04587016
 20
142.66435926
 30
0.0
 11
137.55793736
 21
141.33512453
 31
0.0
  0
LINE
  5
242
100
AcDbEntity
  8
0
100
AcDbLine
  6
STRICHPUNKT2
 62
     1
 10
140.04587016
 20
142.66435926
 30
0.0
 11
140.04587016
 21
147.28783302
 31
0.0
  0
LINE
  5
243
100
AcDbEntity
  8
0
100
AcDbLine
  6
STRICHPUNKT2
 62
     1
 10
140.04587016
 20
142.66435926
 30
0.0
 11
140.04587016
 21
138.04088549
 31
0.0
  0
LINE
  5
244
100
AcDbEntity
  8
0
100
AcDbLine
  6
STRICHPUNKT2
 62
     1
 10
138.61321385
 20
143.45210333
 30
0.0
 11
139.55456792
 21
143.95504317
 31
0.0
  0
LINE
  5
245
100
AcDbEntity
  8
0
100
AcDbLine
  6
STRICHPUNKT2
 62
     1
 10
153.63838087
 20
147.26957196
 30
0.0
 11
148.65729641
 21
148.20680750
 31
0.0
  0
LINE
  5
246
100
AcDbEntity
  8
0
100
AcDbLine
  6
STRICHPUNKT2
 62
     1
 10
151.27346435
 20
147.71455213
 30
0.0
 11
155.48381217
 21
149.96402628
 31
0.0
  0
LINE
  5
247
100
AcDbEntity
  8
0
100
AcDbLine
  6
STRICHPUNKT2
 62
     1
 10
151.27346435
 20
147.71455213
 30
0.0
 11
147.06311653
 21
145.46507797
 31
0.0
  0
LINE
  5
248
100
AcDbEntity
  8
0
100
AcDbLine
  6
STRICHPUNKT2
 62
     1
 10
151.27346435
 20
147.71455213
 30
0.0
 11
151.27346435
 21
155.53889235
 31
0.0
  0
LINE
  5
249
100
AcDbEntity
  8
0
100
AcDbLine
  6
STRICHPUNKT2
 62
     1
 10
151.27346435
 20
147.71455213
 30
0.0
 11
151.27346435
 21
139.89021191
 31
0.0
  0
LINE
  5
24A
100
AcDbEntity
  8
0
100
AcDbLine
  6
STRICHPUNKT2
 62
     1
 10
149.12354025
 20
148.11907956
 30
0.0
 11
151.93043879
 21
149.61872899
 31
0.0
  0
LINE
  5
24B
100
AcDbEntity
  8
0
100
AcDbLine
  6
STRICHPUNKT2
 62
     1
 10
149.12354025
 20
148.11907956
 30
0.0
 11
148.59388284
 21
147.83609804
 31
0.0
  0
LINE
  5
24C
100
AcDbEntity
  8
0
100
AcDbLine
  6
STRICHPUNKT2
 62
     1
 10
149.12354025
 20
148.11907956
 30
0.0
 11
149.12354025
 21
149.91946314
 31
0.0
  0
LINE
  5
24D
100
AcDbEntity
  8
0
100
AcDbLine
  6
STRICHPUNKT2
 62
     1
 10
149.12354025
 20
148.11907956
 30
0.0
 11
149.12354025
 21
143.21234935
 31
0.0
  0
LINE
  5
24E
100
AcDbEntity
  8
0
100
AcDbLine
  6
STRICHPUNKT2
 62
     1
 10
163.46852439
 20
154.47951741
 30
0.0
 11
161.43080802
 21
154.86293195
 31
0.0
  0
LINE
  5
24F
100
AcDbEntity
  8
0
100
AcDbLine
  6
STRICHPUNKT2
 62
     1
 10
162.50105854
 20
154.66155475
 30
0.0
 11
164.22347356
 21
155.58179418
 31
0.0
  0
LINE
  5
250
100
AcDbEntity
  8
0
100
AcDbLine
  6
STRICHPUNKT2
 62
     1
 10
162.50105854
 20
154.66155475
 30
0.0
 11
160.77864353
 21
153.74131532
 31
0.0
  0
LINE
  5
251
100
AcDbEntity
  8
0
100
AcDbLine
  6
STRICHPUNKT2
 62
     1
 10
162.50105854
 20
154.66155475
 30
0.0
 11
162.50105854
 21
157.86242120
 31
0.0
  0
LINE
  5
252
100
AcDbEntity
  8
0
100
AcDbLine
  6
STRICHPUNKT2
 62
     1
 10
162.50105854
 20
154.66155475
 30
0.0
 11
162.50105854
 21
151.46068830
 31
0.0
  0
LINE
  5
253
100
AcDbEntity
  8
0
100
AcDbLine
  6
STRICHPUNKT2
 62
     1
 10
145.09609753
 20
126.16973512
 30
0.0
 11
143.05838116
 21
126.55314966
 31
0.0
  0
LINE
  5
254
100
AcDbEntity
  8
0
100
AcDbLine
  6
STRICHPUNKT2
 62
     1
 10
144.12863168
 20
126.35177247
 30
0.0
 11
145.85104670
 21
127.27201189
 31
0.0
  0
LINE
  5
255
100
AcDbEntity
  8
0
100
AcDbLine
  6
STRICHPUNKT2
 62
     1
 10
144.12863168
 20
126.35177247
 30
0.0
 11
142.40621667
 21
125.43153304
 31
0.0
  0
LINE
  5
256
100
AcDbEntity
  8
0
100
AcDbLine
  6
STRICHPUNKT2
 62
     1
 10
144.12863168
 20
126.35177247
 30
0.0
 11
144.12863168
 21
129.55263892
 31
0.0
  0
LINE
  5
257
100
AcDbEntity
  8
0
100
AcDbLine
  6
STRICHPUNKT2
 62
     1
 10
144.12863168
 20
126.35177247
 30
0.0
 11
144.12863168
 21
123.15090601
 31
0.0
  0
LINE
  5
258
100
AcDbEntity
  8
0
100
AcDbLine
  6
STRICHPUNKT2
 62
     1
 10
159.38576287
 20
133.80431408
 30
0.0
 11
157.34804650
 21
134.18772862
 31
0.0
  0
LINE
  5
259
100
AcDbEntity
  8
0
100
AcDbLine
  6
STRICHPUNKT2
 62
     1
 10
158.41829702
 20
133.98635142
 30
0.0
 11
160.14071204
 21
134.90659085
 31
0.0
  0
LINE
  5
25A
100
AcDbEntity
  8
0
100
AcDbLine
  6
STRICHPUNKT2
 62
     1
 10
158.41829702
 20
133.98635142
 30
0.0
 11
156.69588200
 21
133.06611199
 31
0.0
  0
LINE
  5
25B
100
AcDbEntity
  8
0
100
AcDbLine
  6
STRICHPUNKT2
 62
     1
 10
158.41829702
 20
133.98635142
 30
0.0
 11
158.41829702
 21
137.18721787
 31
0.0
  0
LINE
  5
25C
100
AcDbEntity
  8
0
100
AcDbLine
  6
STRICHPUNKT2
 62
     1
 10
158.41829702
 20
133.98635142
 30
0.0
 11
158.41829702
 21
130.78548497
 31
0.0
  0
LINE
  5
25D
100
AcDbEntity
  8
0
100
AcDbLine
  6
STRICHPUNKT2
 62
     1
 10
141.01333601
 20
111.65916348
 30
0.0
 11
138.97561964
 21
112.04257802
 31
0.0
  0
LINE
  5
25E
100
AcDbEntity
  8
0
100
AcDbLine
  6
STRICHPUNKT2
 62
     1
 10
140.04587016
 20
111.84120082
 30
0.0
 11
141.76828518
 21
112.76144025
 31
0.0
  0
LINE
  5
25F
100
AcDbEntity
  8
0
100
AcDbLine
  6
STRICHPUNKT2
 62
     1
 10
140.04587016
 20
111.84120082
 30
0.0
 11
138.32345514
 21
110.92096139
 31
0.0
  0
LINE
  5
260
100
AcDbEntity
  8
0
100
AcDbLine
  6
STRICHPUNKT2
 62
     1
 10
140.04587016
 20
111.84120082
 30
0.0
 11
140.04587016
 21
115.04206727
 31
0.0
  0
LINE
  5
261
100
AcDbEntity
  8
0
100
AcDbLine
  6
STRICHPUNKT2
 62
     1
 10
140.04587016
 20
111.84120082
 30
0.0
 11
140.04587016
 21
108.64033437
 31
0.0
  0
LINE
  5
262
100
AcDbEntity
  8
0
100
AcDbLine
  6
STRICHPUNKT2
 62
     1
 10
163.89850921
 20
123.57545349
 30
0.0
 11
160.95514112
 21
124.12927449
 31
0.0
  0
LINE
  5
263
100
AcDbEntity
  8
0
100
AcDbLine
  6
STRICHPUNKT2
 62
     1
 10
162.50105854
 20
123.83839632
 30
0.0
 11
164.98899135
 21
125.16763104
 31
0.0
  0
LINE
  5
264
100
AcDbEntity
  8
0
100
AcDbLine
  6
STRICHPUNKT2
 62
     1
 10
162.50105854
 20
123.83839632
 30
0.0
 11
160.01312574
 21
122.50916159
 31
0.0
  0
LINE
  5
265
100
AcDbEntity
  8
0
100
AcDbLine
  6
STRICHPUNKT2
 62
     1
 10
162.50105854
 20
123.83839632
 30
0.0
 11
162.50105854
 21
128.46187008
 31
0.0
  0
LINE
  5
266
100
AcDbEntity
  8
0
100
AcDbLine
  6
STRICHPUNKT2
 62
     1
 10
162.50105854
 20
123.83839632
 30
0.0
 11
162.50105854
 21
119.21492255
 31
0.0
  0
LINE
  5
267
100
AcDbEntity
  8
0
100
AcDbLine
  6
STRICHPUNKT2
 62
     1
 10
161.06840223
 20
124.62614039
 30
0.0
 11
162.00975631
 21
125.12908023
 31
0.0
  0
LINE
  5
268
100
AcDbEntity
  8
0
100
AcDbLine
  6
STRICHPUNKT2
 62
     1
 10
146.31873598
 20
107.15593205
 30
0.0
 11
142.24330324
 21
107.92276113
 31
0.0
  0
LINE
  5
269
100
AcDbEntity
  8
0
100
AcDbLine
  6
STRICHPUNKT2
 62
     1
 10
144.38380428
 20
107.52000674
 30
0.0
 11
147.82863432
 21
109.36048559
 31
0.0
  0
LINE
  5
26A
100
AcDbEntity
  8
0
100
AcDbLine
  6
STRICHPUNKT2
 62
     1
 10
144.38380428
 20
107.52000674
 30
0.0
 11
140.93897424
 21
105.67952788
 31
0.0
  0
LINE
  5
26B
100
AcDbEntity
  8
0
100
AcDbLine
  6
STRICHPUNKT2
 62
     1
 10
144.38380428
 20
107.52000674
 30
0.0
 11
144.38380428
 21
113.92173964
 31
0.0
  0
LINE
  5
26C
100
AcDbEntity
  8
0
100
AcDbLine
  6
STRICHPUNKT2
 62
     1
 10
144.38380428
 20
107.52000674
 30
0.0
 11
144.38380428
 21
101.11827383
 31
0.0
  0
LINE
  5
26D
100
AcDbEntity
  8
0
100
AcDbLine
  6
STRICHPUNKT2
 62
     1
 10
142.24473090
 20
107.93033141
 30
0.0
 11
144.53043353
 21
109.15152007
 31
0.0
  0
LINE
  5
26E
100
AcDbEntity
  8
0
100
AcDbLine
  6
STRICHPUNKT2
 62
     1
 10
142.23388017
 20
107.87190268
 30
0.0
 11
142.23388017
 21
104.87081902
 31
0.0
  0
LINE
  5
26F
100
AcDbEntity
  8
0
100
AcDbLine
  6
STRICHPUNKT2
 62
     1
 10
160.09805612
 20
97.92076216
 30
0.0
 11
156.02262338
 21
98.68759124
 31
0.0
  0
LINE
  5
270
100
AcDbEntity
  8
0
100
AcDbLine
  6
STRICHPUNKT2
 62
     1
 10
158.16312442
 20
98.28483684
 30
0.0
 11
161.60795446
 21
100.12531570
 31
0.0
  0
LINE
  5
271
100
AcDbEntity
  8
0
100
AcDbLine
  6
STRICHPUNKT2
 62
     1
 10
158.16312442
 20
98.28483684
 30
0.0
 11
154.71829439
 21
96.44435799
 31
0.0
  0
LINE
  5
272
100
AcDbEntity
  8
0
100
AcDbLine
  6
STRICHPUNKT2
 62
     1
 10
158.16312442
 20
98.28483684
 30
0.0
 11
158.16312442
 21
104.68656975
 31
0.0
  0
LINE
  5
273
100
AcDbEntity
  8
0
100
AcDbLine
  6
STRICHPUNKT2
 62
     1
 10
158.16312442
 20
98.28483684
 30
0.0
 11
158.16312442
 21
91.88310394
 31
0.0
  0
LINE
  5
274
100
AcDbEntity
  8
0
100
AcDbLine
  6
STRICHPUNKT2
 62
     1
 10
156.02405104
 20
98.69516152
 30
0.0
 11
158.30975367
 21
99.91635017
 31
0.0
  0
LINE
  5
275
100
AcDbEntity
  8
0
100
AcDbLine
  6
STRICHPUNKT2
 62
     1
 10
156.01320032
 20
98.63673278
 30
0.0
 11
156.01320032
 21
95.63564912
 31
0.0
  0
LINE
  5
276
100
AcDbEntity
  8
0
100
AcDbLine
  6
STRICHPUNKT2
 62
     1
 10
140.67780304
 20
80.34610426
 30
0.0
 11
137.73443496
 21
80.89992526
 31
0.0
  0
LINE
  5
277
100
AcDbEntity
  8
0
100
AcDbLine
  6
STRICHPUNKT2
 62
     1
 10
139.28035238
 20
80.60904708
 30
0.0
 11
141.76828518
 21
81.93828181
 31
0.0
  0
LINE
  5
278
100
AcDbEntity
  8
0
100
AcDbLine
  6
STRICHPUNKT2
 62
     1
 10
139.28035238
 20
80.60904708
 30
0.0
 11
136.79241957
 21
79.27981236
 31
0.0
  0
LINE
  5
279
100
AcDbEntity
  8
0
100
AcDbLine
  6
STRICHPUNKT2
 62
     1
 10
139.28035238
 20
80.60904708
 30
0.0
 11
139.28035238
 21
85.23252085
 31
0.0
  0
LINE
  5
27A
100
AcDbEntity
  8
0
100
AcDbLine
  6
STRICHPUNKT2
 62
     1
 10
139.28035238
 20
80.60904708
 30
0.0
 11
139.28035238
 21
75.98557332
 31
0.0
  0
LINE
  5
27B
100
AcDbEntity
  8
0
100
AcDbLine
  6
STRICHPUNKT2
 62
     1
 10
137.84769607
 20
81.39679116
 30
0.0
 11
138.78905014
 21
81.89973100
 31
0.0
  0
LINE
  5
27C
100
AcDbEntity
  8
0
100
AcDbLine
  6
STRICHPUNKT2
 62
     1
 10
163.46852439
 20
92.83320054
 30
0.0
 11
161.43080802
 21
93.21661508
 31
0.0
  0
LINE
  5
27D
100
AcDbEntity
  8
0
100
AcDbLine
  6
STRICHPUNKT2
 62
     1
 10
162.50105854
 20
93.01523788
 30
0.0
 11
164.22347356
 21
93.93547731
 31
0.0
  0
LINE
  5
27E
100
AcDbEntity
  8
0
100
AcDbLine
  6
STRICHPUNKT2
 62
     1
 10
162.50105854
 20
93.01523788
 30
0.0
 11
160.77864353
 21
92.09499845
 31
0.0
  0
LINE
  5
27F
100
AcDbEntity
  8
0
100
AcDbLine
  6
STRICHPUNKT2
 62
     1
 10
162.50105854
 20
93.01523788
 30
0.0
 11
162.50105854
 21
96.21610433
 31
0.0
  0
LINE
  5
280
100
AcDbEntity
  8
0
100
AcDbLine
  6
STRICHPUNKT2
 62
     1
 10
162.50105854
 20
93.01523788
 30
0.0
 11
162.50105854
 21
89.81437143
 31
0.0
  0
ELLIPSE
  5
281
100
AcDbEntity
  8
0
100
AcDbEllipse
 10
17.87416818
 20
100.73605100
 30
0.0
 11
200.08268889
 21
-37.60137798
 31
0.0
 40
0.01334630
 41
5.42572723
 42
5.70884741
  0
ELLIPSE
  5
282
100
AcDbEntity
  8
0
100
AcDbEllipse
 10
151.27346435
 20
70.89005737
 30
0.0
 11
-1.38584615
 21
-7.37429867
 31
0.0
 40
0.48382824
 41
3.51207775
 42
4.35291389
  0
ELLIPSE
  5
283
100
AcDbEntity
  8
0
100
AcDbEllipse
 10
151.27346435
 20
70.89005737
 30
0.0
 11
-1.38584615
 21
-7.37429867
 31
0.0
 40
0.48382824
 41
3.12496969
 42
3.51207775
  0
LINE
  5
284
100
AcDbEntity
  8
0
100
AcDbLine
 10
152.71842529
 20
78.25219185
 30
0.0
 11
189.55190698
 21
70.01127985
 31
0.0
  0
ELLIPSE
  5
285
100
AcDbEntity
  8
0
100
AcDbEllipse
 10
185.97221793
 20
69.10690115
 30
0.0
 11
4.40118784
 21
0.00000000
 31
0.0
 40
0.31706181
 41
5.41771260
 42
6.07748573
  0
POLYLINE
  5
286
100
AcDbEntity
  8
0
100
AcDb2dPolyline
 66
     1
  0
VERTEX
  5
287
100
AcDbEntity
  8
0
100
AcDbVertex
100
AcDb2dVertex
 10
188.82542117
 20
68.04440408
 30
0.0
  0
VERTEX
  5
288
100
AcDbEntity
  8
0
100
AcDbVertex
100
AcDb2dVertex
 10
188.60922208
 20
67.98966225
 30
0.0
  0
VERTEX
  5
289
100
AcDbEntity
  8
0
100
AcDbVertex
100
AcDb2dVertex
 10
188.37747947
 20
67.93827298
 30
0.0
  0
VERTEX
  5
28A
100
AcDbEntity
  8
0
100
AcDbVertex
100
AcDb2dVertex
 10
188.32934977
 20
67.92845511
 30
0.0
  0
VERTEX
  5
28B
100
AcDbEntity
  8
0
100
AcDbVertex
100
AcDb2dVertex
 10
188.08039496
 20
67.88195700
 30
0.0
  0
VERTEX
  5
28C
100
AcDbEntity
  8
0
100
AcDbVertex
100
AcDb2dVertex
 10
187.94168617
 20
67.85896385
 30
0.0
  0
VERTEX
  5
28D
100
AcDbEntity
  8
0
100
AcDbVertex
100
AcDb2dVertex
 10
187.67260093
 20
67.81980507
 30
0.0
  0
VERTEX
  5
28E
100
AcDbEntity
  8
0
100
AcDbVertex
100
AcDb2dVertex
 10
187.53454724
 20
67.80233216
 30
0.0
  0
VERTEX
  5
28F
100
AcDbEntity
  8
0
100
AcDbVertex
100
AcDb2dVertex
 10
187.24905994
 20
67.77146675
 30
0.0
  0
VERTEX
  5
290
100
AcDbEntity
  8
0
100
AcDbVertex
100
AcDb2dVertex
 10
187.11434118
 20
67.75925756
 30
0.0
  0
VERTEX
  5
291
100
AcDbEntity
  8
0
100
AcDbVertex
100
AcDb2dVertex
 10
186.81715824
 20
67.73741339
 30
0.0
  0
VERTEX
  5
292
100
AcDbEntity
  8
0
100
AcDbVertex
100
AcDb2dVertex
 10
186.68823840
 20
67.73004333
 30
0.0
  0
VERTEX
  5
293
100
AcDbEntity
  8
0
100
AcDbVertex
100
AcDb2dVertex
 10
186.38372893
 20
67.71756019
 30
0.0
  0
VERTEX
  5
294
100
AcDbEntity
  8
0
100
AcDbVertex
100
AcDb2dVertex
 10
186.07371036
 20
67.71182363
 30
0.0
  0
VERTEX
  5
295
100
AcDbEntity
  8
0
100
AcDbVertex
100
AcDb2dVertex
 10
185.75293936
 20
67.71322826
 30
0.0
  0
VERTEX
  5
296
100
AcDbEntity
  8
0
100
AcDbVertex
100
AcDb2dVertex
 10
185.58138961
 20
67.71697964
 30
0.0
  0
SEQEND
  5
297
100
AcDbEntity
  8
0
  0
POLYLINE
  5
298
100
AcDbEntity
  8
0
100
AcDb2dPolyline
 66
     1
  0
VERTEX
  5
299
100
AcDbEntity
  8
0
100
AcDbVertex
100
AcDb2dVertex
 10
190.36465237
 20
69.19483547
 30
0.0
  0
VERTEX
  5
29A
100
AcDbEntity
  8
0
100
AcDbVertex
100
AcDb2dVertex
 10
190.37055829
 20
69.15708968
 30
0.0
  0
VERTEX
  5
29B
100
AcDbEntity
  8
0
100
AcDbVertex
100
AcDb2dVertex
 10
190.37337835
 20
69.10127875
 30
0.0
  0
VERTEX
  5
29C
100
AcDbEntity
  8
0
100
AcDbVertex
100
AcDb2dVertex
 10
190.36917180
 20
69.04565350
 30
0.0
  0
VERTEX
  5
29D
100
AcDbEntity
  8
0
100
AcDbVertex
100
AcDb2dVertex
 10
190.36403878
 20
69.01590713
 30
0.0
  0
VERTEX
  5
29E
100
AcDbEntity
  8
0
100
AcDbVertex
100
AcDb2dVertex
 10
190.34893689
 20
68.96001656
 30
0.0
  0
VERTEX
  5
29F
100
AcDbEntity
  8
0
100
AcDbVertex
100
AcDb2dVertex
 10
190.32634379
 20
68.90340182
 30
0.0
  0
VERTEX
  5
2A0
100
AcDbEntity
  8
0
100
AcDbVertex
100
AcDb2dVertex
 10
190.31272122
 20
68.87597094
 30
0.0
  0
VERTEX
  5
2A1
100
AcDbEntity
  8
0
100
AcDbVertex
100
AcDb2dVertex
 10
190.28319457
 20
68.82581644
 30
0.0
  0
VERTEX
  5
2A2
100
AcDbEntity
  8
0
100
AcDbVertex
100
AcDb2dVertex
 10
190.28062140
 20
68.82187793
 30
0.0
  0
SEQEND
  5
2A3
100
AcDbEntity
  8
0
  0
POLYLINE
  5
2A4
100
AcDbEntity
  8
0
100
AcDb2dPolyline
 66
     1
  0
VERTEX
  5
2A5
100
AcDbEntity
  8
0
100
AcDbVertex
100
AcDb2dVertex
 10
189.55190698
 20
70.01127985
 30
0.0
  0
VERTEX
  5
2A6
100
AcDbEntity
  8
0
100
AcDbVertex
100
AcDb2dVertex
 10
189.64231680
 20
69.98714690
 30
0.0
  0
VERTEX
  5
2A7
100
AcDbEntity
  8
0
100
AcDbVertex
100
AcDb2dVertex
 10
189.72853532
 20
69.95634711
 30
0.0
  0
VERTEX
  5
2A8
100
AcDbEntity
  8
0
100
AcDbVertex
100
AcDb2dVertex
 10
189.81036812
 20
69.91925383
 30
0.0
  0
VERTEX
  5
2A9
100
AcDbEntity
  8
0
100
AcDbVertex
100
AcDb2dVertex
 10
189.88755270
 20
69.87626129
 30
0.0
  0
VERTEX
  5
2AA
100
AcDbEntity
  8
0
100
AcDbVertex
100
AcDb2dVertex
 10
189.94232708
 20
69.84034965
 30
0.0
  0
VERTEX
  5
2AB
100
AcDbEntity
  8
0
100
AcDbVertex
100
AcDb2dVertex
 10
190.01116914
 20
69.78773634
 30
0.0
  0
VERTEX
  5
2AC
100
AcDbEntity
  8
0
100
AcDbVertex
100
AcDb2dVertex
 10
190.06641927
 20
69.73837586
 30
0.0
  0
VERTEX
  5
2AD
100
AcDbEntity
  8
0
100
AcDbVertex
100
AcDb2dVertex
 10
190.12574156
 20
69.67656192
 30
0.0
  0
VERTEX
  5
2AE
100
AcDbEntity
  8
0
100
AcDbVertex
100
AcDb2dVertex
 10
190.17580751
 20
69.61534437
 30
0.0
  0
VERTEX
  5
2AF
100
AcDbEntity
  8
0
100
AcDbVertex
100
AcDb2dVertex
 10
190.22433023
 20
69.54533315
 30
0.0
  0
VERTEX
  5
2B0
100
AcDbEntity
  8
0
100
AcDbVertex
100
AcDb2dVertex
 10
190.26540142
 20
69.47445941
 30
0.0
  0
VERTEX
  5
2B1
100
AcDbEntity
  8
0
100
AcDbVertex
100
AcDb2dVertex
 10
190.30191757
 20
69.39774375
 30
0.0
  0
VERTEX
  5
2B2
100
AcDbEntity
  8
0
100
AcDbVertex
100
AcDb2dVertex
 10
190.31902340
 20
69.35500732
 30
0.0
  0
VERTEX
  5
2B3
100
AcDbEntity
  8
0
100
AcDbVertex
100
AcDb2dVertex
 10
190.34547128
 20
69.27445039
 30
0.0
  0
VERTEX
  5
2B4
100
AcDbEntity
  8
0
100
AcDbVertex
100
AcDb2dVertex
 10
190.36465237
 20
69.19483547
 30
0.0
  0
SEQEND
  5
2B5
100
AcDbEntity
  8
0
  0
ELLIPSE
  5
2B6
100
AcDbEntity
  8
0
100
AcDbEllipse
 10
151.27346435
 20
-71.48167055
 30
0.0
 11
-0.03548813
 21
-220.62830751
 31
0.0
 40
0.01734784
 41
3.70858119
 42
3.99170060
  0
LINE
  5
2B7
100
AcDbEntity
  8
0
100
AcDbLine
 10
154.43202918
 20
77.86879994
 30
0.0
 11
153.29989581
 21
116.78707687
 31
0.0
  0
POLYLINE
  5
2B8
100
AcDbEntity
  8
0
100
AcDb2dPolyline
 66
     1
  0
VERTEX
  5
2B9
100
AcDbEntity
  8
0
100
AcDbVertex
100
AcDb2dVertex
 10
152.00106446
 20
118.24056503
 30
0.0
  0
VERTEX
  5
2BA
100
AcDbEntity
  8
0
100
AcDbVertex
100
AcDb2dVertex
 10
152.00722520
 20
118.23991791
 30
0.0
  0
VERTEX
  5
2BB
100
AcDbEntity
  8
0
100
AcDbVertex
100
AcDb2dVertex
 10
152.08367265
 20
118.22875668
 30
0.0
  0
VERTEX
  5
2BC
100
AcDbEntity
  8
0
100
AcDbVertex
100
AcDb2dVertex
 10
152.12539046
 20
118.22016553
 30
0.0
  0
VERTEX
  5
2BD
100
AcDbEntity
  8
0
100
AcDbVertex
100
AcDb2dVertex
 10
152.22138782
 20
118.19472468
 30
0.0
  0
VERTEX
  5
2BE
100
AcDbEntity
  8
0
100
AcDbVertex
100
AcDb2dVertex
 10
152.31510039
 20
118.16263504
 30
0.0
  0
VERTEX
  5
2BF
100
AcDbEntity
  8
0
100
AcDbVertex
100
AcDb2dVertex
 10
152.34677057
 20
118.15006310
 30
0.0
  0
VERTEX
  5
2C0
100
AcDbEntity
  8
0
100
AcDbVertex
100
AcDb2dVertex
 10
152.43612285
 20
118.10953739
 30
0.0
  0
VERTEX
  5
2C1
100
AcDbEntity
  8
0
100
AcDbVertex
100
AcDb2dVertex
 10
152.52220305
 20
118.06285579
 30
0.0
  0
VERTEX
  5
2C2
100
AcDbEntity
  8
0
100
AcDbVertex
100
AcDb2dVertex
 10
152.59181457
 20
118.01900593
 30
0.0
  0
VERTEX
  5
2C3
100
AcDbEntity
  8
0
100
AcDbVertex
100
AcDb2dVertex
 10
152.67107017
 20
117.96157592
 30
0.0
  0
VERTEX
  5
2C4
100
AcDbEntity
  8
0
100
AcDbVertex
100
AcDb2dVertex
 10
152.74654273
 20
117.89837871
 30
0.0
  0
VERTEX
  5
2C5
100
AcDbEntity
  8
0
100
AcDbVertex
100
AcDb2dVertex
 10
152.81781071
 20
117.82974565
 30
0.0
  0
VERTEX
  5
2C6
100
AcDbEntity
  8
0
100
AcDbVertex
100
AcDb2dVertex
 10
152.82624389
 20
117.82097225
 30
0.0
  0
VERTEX
  5
2C7
100
AcDbEntity
  8
0
100
AcDbVertex
100
AcDb2dVertex
 10
152.89224054
 20
117.74682304
 30
0.0
  0
VERTEX
  5
2C8
100
AcDbEntity
  8
0
100
AcDbVertex
100
AcDb2dVertex
 10
152.95423886
 20
117.66696493
 30
0.0
  0
VERTEX
  5
2C9
100
AcDbEntity
  8
0
100
AcDbVertex
100
AcDb2dVertex
 10
153.00866830
 20
117.58669310
 30
0.0
  0
VERTEX
  5
2CA
100
AcDbEntity
  8
0
100
AcDbVertex
100
AcDb2dVertex
 10
153.06208601
 20
117.49612391
 30
0.0
  0
VERTEX
  5
2CB
100
AcDbEntity
  8
0
100
AcDbVertex
100
AcDb2dVertex
 10
153.11029369
 20
117.40118563
 30
0.0
  0
VERTEX
  5
2CC
100
AcDbEntity
  8
0
100
AcDbVertex
100
AcDb2dVertex
 10
153.14052558
 20
117.33329491
 30
0.0
  0
VERTEX
  5
2CD
100
AcDbEntity
  8
0
100
AcDbVertex
100
AcDb2dVertex
 10
153.17935038
 20
117.23294831
 30
0.0
  0
VERTEX
  5
2CE
100
AcDbEntity
  8
0
100
AcDbVertex
100
AcDb2dVertex
 10
153.21520936
 20
117.12243672
 30
0.0
  0
VERTEX
  5
2CF
100
AcDbEntity
  8
0
100
AcDbVertex
100
AcDb2dVertex
 10
153.23151832
 20
117.06414753
 30
0.0
  0
VERTEX
  5
2D0
100
AcDbEntity
  8
0
100
AcDbVertex
100
AcDb2dVertex
 10
153.23673254
 20
117.04414086
 30
0.0
  0
VERTEX
  5
2D1
100
AcDbEntity
  8
0
100
AcDbVertex
100
AcDb2dVertex
 10
153.26376633
 20
116.92883454
 30
0.0
  0
VERTEX
  5
2D2
100
AcDbEntity
  8
0
100
AcDbVertex
100
AcDb2dVertex
 10
153.27634938
 20
116.86494744
 30
0.0
  0
VERTEX
  5
2D3
100
AcDbEntity
  8
0
100
AcDbVertex
100
AcDb2dVertex
 10
153.28590338
 20
116.80432450
 30
0.0
  0
SEQEND
  5
2D4
100
AcDbEntity
  8
0
  0
POLYLINE
  5
2D5
100
AcDbEntity
  8
0
100
AcDb2dPolyline
 66
     1
  0
VERTEX
  5
2D6
100
AcDbEntity
  8
0
100
AcDbVertex
100
AcDb2dVertex
 10
153.27190759
 20
116.88890462
 30
0.0
  0
VERTEX
  5
2D7
100
AcDbEntity
  8
0
100
AcDbVertex
100
AcDb2dVertex
 10
153.29602442
 20
116.81758967
 30
0.0
  0
VERTEX
  5
2D8
100
AcDbEntity
  8
0
100
AcDbVertex
100
AcDb2dVertex
 10
153.29947126
 20
116.79597833
 30
0.0
  0
SEQEND
  5
2D9
100
AcDbEntity
  8
0
  0
LINE
  5
2DA
100
AcDbEntity
  8
0
100
AcDbLine
 10
153.29989581
 20
116.78707687
 30
0.0
 11
153.29947126
 21
116.79597833
 31
0.0
  0
ELLIPSE
  5
2DB
100
AcDbEntity
  8
0
100
AcDbEllipse
 10
151.27346435
 20
113.90279178
 30
0.0
 11
-0.81384158
 21
-4.32528800
 31
0.0
 40
0.48401387
 41
3.18247412
 42
3.84224724
  0
POLYLINE
  5
2DC
100
AcDbEntity
  8
0
100
AcDb2dPolyline
 66
     1
  0
VERTEX
  5
2DD
100
AcDbEntity
  8
0
100
AcDbVertex
100
AcDb2dVertex
 10
149.24771695
 20
114.62354351
 30
0.0
  0
VERTEX
  5
2DE
100
AcDbEntity
  8
0
100
AcDbVertex
100
AcDb2dVertex
 10
149.30444967
 20
114.85903400
 30
0.0
  0
VERTEX
  5
2DF
100
AcDbEntity
  8
0
100
AcDbVertex
100
AcDb2dVertex
 10
149.36854259
 20
115.09668776
 30
0.0
  0
VERTEX
  5
2E0
100
AcDbEntity
  8
0
100
AcDbVertex
100
AcDb2dVertex
 10
149.42175525
 20
115.27604127
 30
0.0
  0
VERTEX
  5
2E1
100
AcDbEntity
  8
0
100
AcDbVertex
100
AcDb2dVertex
 10
149.49691631
 20
115.50776654
 30
0.0
  0
VERTEX
  5
2E2
100
AcDbEntity
  8
0
100
AcDbVertex
100
AcDb2dVertex
 10
149.55366523
 20
115.66885750
 30
0.0
  0
VERTEX
  5
2E3
100
AcDbEntity
  8
0
100
AcDbVertex
100
AcDb2dVertex
 10
149.63780470
 20
115.88960814
 30
0.0
  0
VERTEX
  5
2E4
100
AcDbEntity
  8
0
100
AcDbVertex
100
AcDb2dVertex
 10
149.70502787
 20
116.05272636
 30
0.0
  0
VERTEX
  5
2E5
100
AcDbEntity
  8
0
100
AcDbVertex
100
AcDb2dVertex
 10
149.79638252
 20
116.25821803
 30
0.0
  0
VERTEX
  5
2E6
100
AcDbEntity
  8
0
100
AcDbVertex
100
AcDb2dVertex
 10
149.87404657
 20
116.42007822
 30
0.0
  0
VERTEX
  5
2E7
100
AcDbEntity
  8
0
100
AcDbVertex
100
AcDb2dVertex
 10
149.97151350
 20
116.60854287
 30
0.0
  0
VERTEX
  5
2E8
100
AcDbEntity
  8
0
100
AcDbVertex
100
AcDb2dVertex
 10
150.05843521
 20
116.76430277
 30
0.0
  0
VERTEX
  5
2E9
100
AcDbEntity
  8
0
100
AcDbVertex
100
AcDb2dVertex
 10
150.16041012
 20
116.93368560
 30
0.0
  0
VERTEX
  5
2EA
100
AcDbEntity
  8
0
100
AcDbVertex
100
AcDb2dVertex
 10
150.25556007
 20
117.07982753
 30
0.0
  0
VERTEX
  5
2EB
100
AcDbEntity
  8
0
100
AcDbVertex
100
AcDb2dVertex
 10
150.36016470
 20
117.22829000
 30
0.0
  0
VERTEX
  5
2EC
100
AcDbEntity
  8
0
100
AcDbVertex
100
AcDb2dVertex
 10
150.46262746
 20
117.36222441
 30
0.0
  0
VERTEX
  5
2ED
100
AcDbEntity
  8
0
100
AcDbVertex
100
AcDb2dVertex
 10
150.53974230
 20
117.45590669
 30
0.0
  0
VERTEX
  5
2EE
100
AcDbEntity
  8
0
100
AcDbVertex
100
AcDb2dVertex
 10
150.54586424
 20
117.46309119
 30
0.0
  0
SEQEND
  5
2EF
100
AcDbEntity
  8
0
  0
POLYLINE
  5
2F0
100
AcDbEntity
  8
0
100
AcDb2dPolyline
 66
     1
 70
     1
  0
VERTEX
  5
2F1
100
AcDbEntity
  8
0
100
AcDbVertex
100
AcDb2dVertex
 10
-34.87537468
 20
119.04635322
 30
0.0
 42
-1.000000000
  0
VERTEX
  5
2F2
100
AcDbEntity
  8
0
100
AcDbVertex
100
AcDb2dVertex
 10
-34.87537468
 20
108.04635322
 30
0.0
  0
VERTEX
  5
2F3
100
AcDbEntity
  8
0
100
AcDbVertex
100
AcDb2dVertex
 10
-53.87537468
 20
108.04635322
 30
0.0
 42
-1.000000000
  0
VERTEX
  5
2F4
100
AcDbEntity
  8
0
100
AcDbVertex
100
AcDb2dVertex
 10
-53.87537468
 20
119.04635322
 30
0.0
  0
SEQEND
  5
2F5
100
AcDbEntity
  8
0
  0
CIRCLE
  5
2F6
100
AcDbEntity
  8
0
100
AcDbCircle
 10
-97.87537468
 20
91.54635322
 30
0.0
 40
2.25000000
  0
CIRCLE
  5
2F7
100
AcDbEntity
  8
0
100
AcDbCircle
 10
-97.87537468
 20
135.54635322
 30
0.0
 40
3.25000000
  0
CIRCLE
  5
2F8
100
AcDbEntity
  8
0
100
AcDbCircle
 10
-89.87537468
 20
100.04635322
 30
0.0
 40
4.50000000
  0
CIRCLE
  5
2F9
100
AcDbEntity
  8
0
100
AcDbCircle
 10
-68.87537468
 20
127.04635322
 30
0.0
 40
4.50000000
  0
CIRCLE
  5
2FA
100
AcDbEntity
  8
0
100
AcDbCircle
 10
-65.37537468
 20
135.54635322
 30
0.0
 40
2.25000000
  0
CIRCLE
  5
2FB
100
AcDbEntity
  8
0
100
AcDbCircle
 10
-65.37537468
 20
91.54635322
 30
0.0
 40
3.25000000
  0
CIRCLE
  5
2FC
100
AcDbEntity
  8
0
100
AcDbCircle
 10
-51.37537468
 20
127.54635322
 30
0.0
 40
2.25000000
  0
CIRCLE
  5
2FD
100
AcDbEntity
  8
0
100
AcDbCircle
 10
-51.37537468
 20
99.54635322
 30
0.0
 40
2.25000000
  0
CIRCLE
  5
2FE
100
AcDbEntity
  8
0
100
AcDbCircle
 10
-32.87537468
 20
135.54635322
 30
0.0
 40
3.25000000
  0
CIRCLE
  5
2FF
100
AcDbEntity
  8
0
100
AcDbCircle
 10
-32.87537468
 20
91.54635322
 30
0.0
 40
2.25000000
  0
LINE
  5
300
100
AcDbEntity
  8
0
100
AcDbLine
 10
-23.87537468
 20
137.79635322
 30
0.0
 11
-23.87537468
 21
89.29635322
 31
0.0
  0
LINE
  5
301
100
AcDbEntity
  8
0
100
AcDbLine
 10
-28.87537468
 20
84.29635322
 30
0.0
 11
-23.87537468
 21
89.29635322
 31
0.0
  0
LINE
  5
302
100
AcDbEntity
  8
0
100
AcDbLine
 10
-28.87537468
 20
84.29635322
 30
0.0
 11
-107.37537468
 21
84.29635322
 31
0.0
  0
LINE
  5
303
100
AcDbEntity
  8
0
100
AcDbLine
 10
-107.37537468
 20
142.79635322
 30
0.0
 11
-28.87537468
 21
142.79635322
 31
0.0
  0
LINE
  5
304
100
AcDbEntity
  8
0
100
AcDbLine
 10
-23.87537468
 20
137.79635322
 30
0.0
 11
-28.87537468
 21
142.79635322
 31
0.0
  0
LINE
  5
305
100
AcDbEntity
  8
0
100
AcDbLine
  6
STRICHPUNKT2
 62
     1
 10
-32.87537468
 20
91.54635322
 30
0.0
 11
-32.87537468
 21
94.92135322
 31
0.0
  0
LINE
  5
306
100
AcDbEntity
  8
0
100
AcDbLine
  6
STRICHPUNKT2
 62
     1
 10
-32.87537468
 20
91.54635322
 30
0.0
 11
-32.87537468
 21
88.17135322
 31
0.0
  0
LINE
  5
307
100
AcDbEntity
  8
0
100
AcDbLine
  6
STRICHPUNKT2
 62
     1
 10
-32.87537468
 20
91.54635322
 30
0.0
 11
-36.25037468
 21
91.54635322
 31
0.0
  0
LINE
  5
308
100
AcDbEntity
  8
0
100
AcDbLine
  6
STRICHPUNKT2
 62
     1
 10
-32.87537468
 20
91.54635322
 30
0.0
 11
-29.50037468
 21
91.54635322
 31
0.0
  0
LINE
  5
309
100
AcDbEntity
  8
0
100
AcDbLine
  6
STRICHPUNKT2
 62
     1
 10
-32.87537468
 20
135.54635322
 30
0.0
 11
-32.87537468
 21
140.42135322
 31
0.0
  0
LINE
  5
30A
100
AcDbEntity
  8
0
100
AcDbLine
  6
STRICHPUNKT2
 62
     1
 10
-32.87537468
 20
135.54635322
 30
0.0
 11
-32.87537468
 21
130.67135322
 31
0.0
  0
LINE
  5
30B
100
AcDbEntity
  8
0
100
AcDbLine
  6
STRICHPUNKT2
 62
     1
 10
-32.87537468
 20
135.54635322
 30
0.0
 11
-37.75037468
 21
135.54635322
 31
0.0
  0
LINE
  5
30C
100
AcDbEntity
  8
0
100
AcDbLine
  6
STRICHPUNKT2
 62
     1
 10
-32.87537468
 20
135.54635322
 30
0.0
 11
-28.00037468
 21
135.54635322
 31
0.0
  0
LINE
  5
30D
100
AcDbEntity
  8
0
100
AcDbLine
  6
STRICHPUNKT2
 62
     1
 10
-51.37537468
 20
99.54635322
 30
0.0
 11
-51.37537468
 21
102.92135322
 31
0.0
  0
LINE
  5
30E
100
AcDbEntity
  8
0
100
AcDbLine
  6
STRICHPUNKT2
 62
     1
 10
-51.37537468
 20
99.54635322
 30
0.0
 11
-51.37537468
 21
96.17135322
 31
0.0
  0
LINE
  5
30F
100
AcDbEntity
  8
0
100
AcDbLine
  6
STRICHPUNKT2
 62
     1
 10
-51.37537468
 20
99.54635322
 30
0.0
 11
-54.75037468
 21
99.54635322
 31
0.0
  0
LINE
  5
310
100
AcDbEntity
  8
0
100
AcDbLine
  6
STRICHPUNKT2
 62
     1
 10
-51.37537468
 20
99.54635322
 30
0.0
 11
-48.00037468
 21
99.54635322
 31
0.0
  0
LINE
  5
311
100
AcDbEntity
  8
0
100
AcDbLine
  6
STRICHPUNKT2
 62
     1
 10
-51.37537468
 20
127.54635322
 30
0.0
 11
-51.37537468
 21
130.92135322
 31
0.0
  0
LINE
  5
312
100
AcDbEntity
  8
0
100
AcDbLine
  6
STRICHPUNKT2
 62
     1
 10
-51.37537468
 20
127.54635322
 30
0.0
 11
-51.37537468
 21
124.17135322
 31
0.0
  0
LINE
  5
313
100
AcDbEntity
  8
0
100
AcDbLine
  6
STRICHPUNKT2
 62
     1
 10
-51.37537468
 20
127.54635322
 30
0.0
 11
-54.75037468
 21
127.54635322
 31
0.0
  0
LINE
  5
314
100
AcDbEntity
  8
0
100
AcDbLine
  6
STRICHPUNKT2
 62
     1
 10
-51.37537468
 20
127.54635322
 30
0.0
 11
-48.00037468
 21
127.54635322
 31
0.0
  0
LINE
  5
315
100
AcDbEntity
  8
0
100
AcDbLine
  6
STRICHPUNKT2
 62
     1
 10
-65.37537468
 20
91.54635322
 30
0.0
 11
-65.37537468
 21
96.42135322
 31
0.0
  0
LINE
  5
316
100
AcDbEntity
  8
0
100
AcDbLine
  6
STRICHPUNKT2
 62
     1
 10
-65.37537468
 20
91.54635322
 30
0.0
 11
-65.37537468
 21
86.67135322
 31
0.0
  0
LINE
  5
317
100
AcDbEntity
  8
0
100
AcDbLine
  6
STRICHPUNKT2
 62
     1
 10
-65.37537468
 20
91.54635322
 30
0.0
 11
-70.25037468
 21
91.54635322
 31
0.0
  0
LINE
  5
318
100
AcDbEntity
  8
0
100
AcDbLine
  6
STRICHPUNKT2
 62
     1
 10
-65.37537468
 20
91.54635322
 30
0.0
 11
-60.50037468
 21
91.54635322
 31
0.0
  0
LINE
  5
319
100
AcDbEntity
  8
0
100
AcDbLine
  6
STRICHPUNKT2
 62
     1
 10
-65.37537468
 20
135.54635322
 30
0.0
 11
-65.37537468
 21
138.92135322
 31
0.0
  0
LINE
  5
31A
100
AcDbEntity
  8
0
100
AcDbLine
  6
STRICHPUNKT2
 62
     1
 10
-65.37537468
 20
135.54635322
 30
0.0
 11
-65.37537468
 21
132.17135322
 31
0.0
  0
LINE
  5
31B
100
AcDbEntity
  8
0
100
AcDbLine
  6
STRICHPUNKT2
 62
     1
 10
-65.37537468
 20
135.54635322
 30
0.0
 11
-68.75037468
 21
135.54635322
 31
0.0
  0
LINE
  5
31C
100
AcDbEntity
  8
0
100
AcDbLine
  6
STRICHPUNKT2
 62
     1
 10
-65.37537468
 20
135.54635322
 30
0.0
 11
-62.00037468
 21
135.54635322
 31
0.0
  0
LINE
  5
31D
100
AcDbEntity
  8
0
100
AcDbLine
  6
STRICHPUNKT2
 62
     1
 10
-68.87537468
 20
127.04635322
 30
0.0
 11
-68.87537468
 21
133.79635322
 31
0.0
  0
LINE
  5
31E
100
AcDbEntity
  8
0
100
AcDbLine
  6
STRICHPUNKT2
 62
     1
 10
-68.87537468
 20
127.04635322
 30
0.0
 11
-68.87537468
 21
120.29635322
 31
0.0
  0
LINE
  5
31F
100
AcDbEntity
  8
0
100
AcDbLine
  6
STRICHPUNKT2
 62
     1
 10
-68.87537468
 20
127.04635322
 30
0.0
 11
-75.62537468
 21
127.04635322
 31
0.0
  0
LINE
  5
320
100
AcDbEntity
  8
0
100
AcDbLine
  6
STRICHPUNKT2
 62
     1
 10
-68.87537468
 20
127.04635322
 30
0.0
 11
-62.12537468
 21
127.04635322
 31
0.0
  0
LINE
  5
321
100
AcDbEntity
  8
0
100
AcDbLine
  6
STRICHPUNKT2
 62
     1
 10
-89.87537468
 20
100.04635322
 30
0.0
 11
-89.87537468
 21
106.79635322
 31
0.0
  0
LINE
  5
322
100
AcDbEntity
  8
0
100
AcDbLine
  6
STRICHPUNKT2
 62
     1
 10
-89.87537468
 20
100.04635322
 30
0.0
 11
-89.87537468
 21
93.29635322
 31
0.0
  0
LINE
  5
323
100
AcDbEntity
  8
0
100
AcDbLine
  6
STRICHPUNKT2
 62
     1
 10
-89.87537468
 20
100.04635322
 30
0.0
 11
-96.62537468
 21
100.04635322
 31
0.0
  0
LINE
  5
324
100
AcDbEntity
  8
0
100
AcDbLine
  6
STRICHPUNKT2
 62
     1
 10
-89.87537468
 20
100.04635322
 30
0.0
 11
-83.12537468
 21
100.04635322
 31
0.0
  0
LINE
  5
325
100
AcDbEntity
  8
0
100
AcDbLine
  6
STRICHPUNKT2
 62
     1
 10
-97.87537468
 20
135.54635322
 30
0.0
 11
-97.87537468
 21
140.42135322
 31
0.0
  0
LINE
  5
326
100
AcDbEntity
  8
0
100
AcDbLine
  6
STRICHPUNKT2
 62
     1
 10
-97.87537468
 20
135.54635322
 30
0.0
 11
-97.87537468
 21
130.67135322
 31
0.0
  0
LINE
  5
327
100
AcDbEntity
  8
0
100
AcDbLine
  6
STRICHPUNKT2
 62
     1
 10
-97.87537468
 20
135.54635322
 30
0.0
 11
-102.75037468
 21
135.54635322
 31
0.0
  0
LINE
  5
328
100
AcDbEntity
  8
0
100
AcDbLine
  6
STRICHPUNKT2
 62
     1
 10
-97.87537468
 20
135.54635322
 30
0.0
 11
-93.00037468
 21
135.54635322
 31
0.0
  0
LINE
  5
329
100
AcDbEntity
  8
0
100
AcDbLine
  6
STRICHPUNKT2
 62
     1
 10
-97.87537468
 20
91.54635322
 30
0.0
 11
-97.87537468
 21
94.92135322
 31
0.0
  0
LINE
  5
32A
100
AcDbEntity
  8
0
100
AcDbLine
  6
STRICHPUNKT2
 62
     1
 10
-97.87537468
 20
91.54635322
 30
0.0
 11
-97.87537468
 21
88.17135322
 31
0.0
  0
LINE
  5
32B
100
AcDbEntity
  8
0
100
AcDbLine
  6
STRICHPUNKT2
 62
     1
 10
-97.87537468
 20
91.54635322
 30
0.0
 11
-101.25037468
 21
91.54635322
 31
0.0
  0
LINE
  5
32C
100
AcDbEntity
  8
0
100
AcDbLine
  6
STRICHPUNKT2
 62
     1
 10
-97.87537468
 20
91.54635322
 30
0.0
 11
-94.50037468
 21
91.54635322
 31
0.0
  0
LINE
  5
32D
100
AcDbEntity
  8
0
100
AcDbLine
  6
STRICHPUNKT2
 62
     1
 10
-26.62537468
 20
113.54635322
 30
0.0
 11
-62.12537468
 21
113.54635322
 31
0.0
  0
LINE
  5
32E
100
AcDbEntity
  8
0
100
AcDbLine
  6
STRICHPUNKT2
 62
     1
 10
-34.87537468
 20
121.79635322
 30
0.0
 11
-34.87537468
 21
105.29635322
 31
0.0
  0
LINE
  5
32F
100
AcDbEntity
  8
0
100
AcDbLine
  6
STRICHPUNKT2
 62
     1
 10
-53.87537468
 20
121.79635322
 30
0.0
 11
-53.87537468
 21
105.29635322
 31
0.0
  0
LINE
  5
330
100
AcDbEntity
  8
0
100
AcDbLine
 10
-109.87537468
 20
84.29635322
 30
0.0
 11
-107.37537468
 21
84.29635322
 31
0.0
  0
LINE
  5
331
100
AcDbEntity
  8
0
100
AcDbLine
 10
-107.37537468
 20
142.79635322
 30
0.0
 11
-109.87537468
 21
142.79635322
 31
0.0
  0
POLYLINE
  5
332
100
AcDbEntity
  8
0
100
AcDb2dPolyline
 66
     1
 70
     1
  0
VERTEX
  5
333
100
AcDbEntity
  8
0
100
AcDbVertex
100
AcDb2dVertex
 10
-109.87537468
 20
137.79635322
 30
0.0
  0
VERTEX
  5
334
100
AcDbEntity
  8
0
100
AcDbVertex
100
AcDb2dVertex
 10
-109.87537468
 20
89.29635322
 30
0.0
  0
VERTEX
  5
335
100
AcDbEntity
  8
0
100
AcDbVertex
100
AcDb2dVertex
 10
-112.37537468
 20
89.29635322
 30
0.0
  0
VERTEX
  5
336
100
AcDbEntity
  8
0
100
AcDbVertex
100
AcDb2dVertex
 10
-112.37537468
 20
137.79635322
 30
0.0
  0
SEQEND
  5
337
100
AcDbEntity
  8
0
  0
LINE
  5
338
100
AcDbEntity
  8
0
100
AcDbLine
 10
-109.87537468
 20
142.79635322
 30
0.0
 11
-109.87537468
 21
137.79635322
 31
0.0
  0
LINE
  5
339
100
AcDbEntity
  8
0
100
AcDbLine
 10
-112.37537468
 20
142.79635322
 30
0.0
 11
-109.87537468
 21
142.79635322
 31
0.0
  0
LINE
  5
33A
100
AcDbEntity
  8
0
100
AcDbLine
 10
-112.37537468
 20
137.79635322
 30
0.0
 11
-112.37537468
 21
142.79635322
 31
0.0
  0
LINE
  5
33B
100
AcDbEntity
  8
0
100
AcDbLine
 10
-112.37537468
 20
84.29635322
 30
0.0
 11
-112.37537468
 21
89.29635322
 31
0.0
  0
LINE
  5
33C
100
AcDbEntity
  8
0
100
AcDbLine
 10
-109.87537468
 20
84.29635322
 30
0.0
 11
-112.37537468
 21
84.29635322
 31
0.0
  0
LINE
  5
33D
100
AcDbEntity
  8
0
100
AcDbLine
 10
-109.87537468
 20
89.29635322
 30
0.0
 11
-109.87537468
 21
84.29635322
 31
0.0
  0
LINE
  5
33E
100
AcDbEntity
  8
0
100
AcDbLine
  6
STRICHPUNKT2
 62
     1
 10
-112.37537468
 20
91.54635322
 30
0.0
 11
-114.00037468
 21
91.54635322
 31
0.0
  0
LINE
  5
33F
100
AcDbEntity
  8
0
100
AcDbLine
  6
STRICHPUNKT2
 62
     1
 10
-108.25037468
 20
91.54635322
 30
0.0
 11
-109.87537468
 21
91.54635322
 31
0.0
  0
LINE
  5
340
100
AcDbEntity
  8
0
100
AcDbLine
  6
STRICHPUNKT2
 62
     1
 10
-112.37537468
 20
135.54635322
 30
0.0
 11
-113.50037468
 21
135.54635322
 31
0.0
  0
LINE
  5
341
100
AcDbEntity
  8
0
100
AcDbLine
  6
STRICHPUNKT2
 62
     1
 10
-108.75037468
 20
135.54635322
 30
0.0
 11
-109.87537468
 21
135.54635322
 31
0.0
  0
LINE
  5
342
100
AcDbEntity
  8
0
100
AcDbLine
  6
STRICHPUNKT2
 62
     1
 10
-112.37537468
 20
99.54635322
 30
0.0
 11
-113.50037468
 21
99.54635322
 31
0.0
  0
LINE
  5
343
100
AcDbEntity
  8
0
100
AcDbLine
  6
STRICHPUNKT2
 62
     1
 10
-108.75037468
 20
99.54635322
 30
0.0
 11
-109.87537468
 21
99.54635322
 31
0.0
  0
LINE
  5
344
100
AcDbEntity
  8
0
100
AcDbLine
  6
STRICHPUNKT2
 62
     1
 10
-113.50037468
 20
135.54635322
 30
0.0
 11
-114.00037468
 21
135.54635322
 31
0.0
  0
LINE
  5
345
100
AcDbEntity
  8
0
100
AcDbLine
  6
STRICHPUNKT2
 62
     1
 10
-108.25037468
 20
135.54635322
 30
0.0
 11
-108.75037468
 21
135.54635322
 31
0.0
  0
LINE
  5
346
100
AcDbEntity
  8
0
100
AcDbLine
  6
STRICHPUNKT2
 62
     1
 10
-112.37537468
 20
100.04635322
 30
0.0
 11
-114.62537468
 21
100.04635322
 31
0.0
  0
LINE
  5
347
100
AcDbEntity
  8
0
100
AcDbLine
  6
STRICHPUNKT2
 62
     1
 10
-107.62537468
 20
100.04635322
 30
0.0
 11
-109.87537468
 21
100.04635322
 31
0.0
  0
LINE
  5
348
100
AcDbEntity
  8
0
100
AcDbLine
  6
STRICHPUNKT2
 62
     1
 10
-112.37537468
 20
127.04635322
 30
0.0
 11
-114.62537468
 21
127.04635322
 31
0.0
  0
LINE
  5
349
100
AcDbEntity
  8
0
100
AcDbLine
  6
STRICHPUNKT2
 62
     1
 10
-107.62537468
 20
127.04635322
 30
0.0
 11
-109.87537468
 21
127.04635322
 31
0.0
  0
LINE
  5
34A
100
AcDbEntity
  8
0
100
AcDbLine
  6
STRICHPUNKT2
 62
     1
 10
-112.37537468
 20
90.04635322
 30
0.0
 11
-114.00037468
 21
90.04635322
 31
0.0
  0
LINE
  5
34B
100
AcDbEntity
  8
0
100
AcDbLine
  6
STRICHPUNKT2
 62
     1
 10
-108.25037468
 20
90.04635322
 30
0.0
 11
-109.87537468
 21
90.04635322
 31
0.0
  0
LINE
  5
34C
100
AcDbEntity
  8
0
100
AcDbLine
  6
STRICHPUNKT2
 62
     1
 10
-112.37537468
 20
113.54635322
 30
0.0
 11
-115.12537468
 21
113.54635322
 31
0.0
  0
LINE
  5
34D
100
AcDbEntity
  8
0
100
AcDbLine
  6
STRICHPUNKT2
 62
     1
 10
-107.12537468
 20
113.54635322
 30
0.0
 11
-109.87537468
 21
113.54635322
 31
0.0
  0
LINE
  5
34E
100
AcDbEntity
  8
0
100
AcDbLine
  6
STRICHPUNKT2
 62
     1
 10
-112.37537468
 20
127.54635322
 30
0.0
 11
-113.50037468
 21
127.54635322
 31
0.0
  0
LINE
  5
34F
100
AcDbEntity
  8
0
100
AcDbLine
  6
STRICHPUNKT2
 62
     1
 10
-108.75037468
 20
127.54635322
 30
0.0
 11
-109.87537468
 21
127.54635322
 31
0.0
  0
ELLIPSE
  5
350
100
AcDbEntity
  8
0
100
AcDbEllipse
 10
-264.99631097
 20
113.54635322
 30
0.0
 11
232.62093629
 21
-0.00000000
 31
0.0
 40
0.03224129
 41
0.55771671
 42
0.84083615
  0
ELLIPSE
  5
351
100
AcDbEntity
  8
0
100
AcDbEllipse
 10
-264.99631097
 20
113.54635322
 30
0.0
 11
232.62102436
 21
-0.00000355
 31
0.0
 40
0.03224129
 41
5.44234882
 42
5.72546796
  0
POLYLINE
  5
352
100
AcDbEntity
  8
0
100
AcDb2dPolyline
 66
     1
  0
VERTEX
  5
353
100
AcDbEntity
  8
0
100
AcDbVertex
100
AcDb2dVertex
 10
-65.12537468
 20
113.54635322
 30
0.0
  0
VERTEX
  5
354
100
AcDbEntity
  8
0
100
AcDbVertex
100
AcDb2dVertex
 10
-65.12886956
 20
113.37121516
 30
0.0
  0
VERTEX
  5
355
100
AcDbEntity
  8
0
100
AcDbVertex
100
AcDb2dVertex
 10
-65.13936145
 20
113.19594339
 30
0.0
  0
VERTEX
  5
356
100
AcDbEntity
  8
0
100
AcDbVertex
100
AcDb2dVertex
 10
-65.15683461
 20
113.02112168
 30
0.0
  0
VERTEX
  5
357
100
AcDbEntity
  8
0
100
AcDbVertex
100
AcDb2dVertex
 10
-65.17041378
 20
112.91832250
 30
0.0
  0
VERTEX
  5
358
100
AcDbEntity
  8
0
100
AcDbVertex
100
AcDb2dVertex
 10
-65.19886540
 20
112.74539892
 30
0.0
  0
VERTEX
  5
359
100
AcDbEntity
  8
0
100
AcDbVertex
100
AcDb2dVertex
 10
-65.23421525
 20
112.57361128
 30
0.0
  0
VERTEX
  5
35A
100
AcDbEntity
  8
0
100
AcDbVertex
100
AcDb2dVertex
 10
-65.25627775
 20
112.48093200
 30
0.0
  0
VERTEX
  5
35B
100
AcDbEntity
  8
0
100
AcDbVertex
100
AcDb2dVertex
 10
-65.30213942
 20
112.31157555
 30
0.0
  0
VERTEX
  5
35C
100
AcDbEntity
  8
0
100
AcDbVertex
100
AcDb2dVertex
 10
-65.35473885
 20
112.14409524
 30
0.0
  0
VERTEX
  5
35D
100
AcDbEntity
  8
0
100
AcDbVertex
100
AcDb2dVertex
 10
-65.36269071
 20
112.12065131
 30
0.0
  0
VERTEX
  5
35E
100
AcDbEntity
  8
0
100
AcDbVertex
100
AcDb2dVertex
 10
-65.42167781
 20
111.95878403
 30
0.0
  0
VERTEX
  5
35F
100
AcDbEntity
  8
0
100
AcDbVertex
100
AcDb2dVertex
 10
-65.48821024
 20
111.79645756
 30
0.0
  0
VERTEX
  5
360
100
AcDbEntity
  8
0
100
AcDbVertex
100
AcDb2dVertex
 10
-65.56122614
 20
111.63676031
 30
0.0
  0
VERTEX
  5
361
100
AcDbEntity
  8
0
100
AcDbVertex
100
AcDb2dVertex
 10
-65.60266469
 20
111.55299420
 30
0.0
  0
VERTEX
  5
362
100
AcDbEntity
  8
0
100
AcDbVertex
100
AcDb2dVertex
 10
-65.68518130
 20
111.39827434
 30
0.0
  0
VERTEX
  5
363
100
AcDbEntity
  8
0
100
AcDbVertex
100
AcDb2dVertex
 10
-65.77386446
 20
111.24685028
 30
0.0
  0
VERTEX
  5
364
100
AcDbEntity
  8
0
100
AcDbVertex
100
AcDb2dVertex
 10
-65.82418992
 20
111.16667015
 30
0.0
  0
VERTEX
  5
365
100
AcDbEntity
  8
0
100
AcDbVertex
100
AcDb2dVertex
 10
-65.92189060
 20
111.02112825
 30
0.0
  0
VERTEX
  5
366
100
AcDbEntity
  8
0
100
AcDbVertex
100
AcDb2dVertex
 10
-66.02541883
 20
110.87943974
 30
0.0
  0
VERTEX
  5
367
100
AcDbEntity
  8
0
100
AcDbVertex
100
AcDb2dVertex
 10
-66.08316223
 20
110.80528612
 30
0.0
  0
VERTEX
  5
368
100
AcDbEntity
  8
0
100
AcDbVertex
100
AcDb2dVertex
 10
-66.19498413
 20
110.67041028
 30
0.0
  0
VERTEX
  5
369
100
AcDbEntity
  8
0
100
AcDbVertex
100
AcDb2dVertex
 10
-66.31216197
 20
110.54000923
 30
0.0
  0
VERTEX
  5
36A
100
AcDbEntity
  8
0
100
AcDbVertex
100
AcDb2dVertex
 10
-66.37519348
 20
110.47400435
 30
0.0
  0
VERTEX
  5
36B
100
AcDbEntity
  8
0
100
AcDbVertex
100
AcDb2dVertex
 10
-66.49970497
 20
110.35128315
 30
0.0
  0
VERTEX
  5
36C
100
AcDbEntity
  8
0
100
AcDbVertex
100
AcDb2dVertex
 10
-66.62933578
 20
110.23327944
 30
0.0
  0
VERTEX
  5
36D
100
AcDbEntity
  8
0
100
AcDbVertex
100
AcDb2dVertex
 10
-66.69460547
 20
110.17730682
 30
0.0
  0
VERTEX
  5
36E
100
AcDbEntity
  8
0
100
AcDbVertex
100
AcDb2dVertex
 10
-66.83044800
 20
110.06762731
 30
0.0
  0
VERTEX
  5
36F
100
AcDbEntity
  8
0
100
AcDbVertex
100
AcDb2dVertex
 10
-66.97048001
 20
109.96347414
 30
0.0
  0
VERTEX
  5
370
100
AcDbEntity
  8
0
100
AcDbVertex
100
AcDb2dVertex
 10
-67.03443234
 20
109.91871741
 30
0.0
  0
VERTEX
  5
371
100
AcDbEntity
  8
0
100
AcDbVertex
100
AcDb2dVertex
 10
-67.17797819
 20
109.82418649
 30
0.0
  0
VERTEX
  5
372
100
AcDbEntity
  8
0
100
AcDbVertex
100
AcDb2dVertex
 10
-67.19375436
 20
109.81426795
 30
0.0
  0
VERTEX
  5
373
100
AcDbEntity
  8
0
100
AcDbVertex
100
AcDb2dVertex
 10
-67.30017455
 20
109.74982178
 30
0.0
  0
VERTEX
  5
374
100
AcDbEntity
  8
0
100
AcDbVertex
100
AcDb2dVertex
 10
-67.45468478
 20
109.66347420
 30
0.0
  0
VERTEX
  5
375
100
AcDbEntity
  8
0
100
AcDbVertex
100
AcDb2dVertex
 10
-67.53978022
 20
109.61919527
 30
0.0
  0
VERTEX
  5
376
100
AcDbEntity
  8
0
100
AcDbVertex
100
AcDb2dVertex
 10
-67.62541622
 20
109.57696845
 30
0.0
  0
SEQEND
  5
377
100
AcDbEntity
  8
0
  0
POLYLINE
  5
378
100
AcDbEntity
  8
0
100
AcDb2dPolyline
 66
     1
  0
VERTEX
  5
379
100
AcDbEntity
  8
0
100
AcDbVertex
100
AcDb2dVertex
 10
-65.36269071
 20
114.97205513
 30
0.0
  0
VERTEX
  5
37A
100
AcDbEntity
  8
0
100
AcDbVertex
100
AcDb2dVertex
 10
-65.30909758
 20
114.80461627
 30
0.0
  0
VERTEX
  5
37B
100
AcDbEntity
  8
0
100
AcDbVertex
100
AcDb2dVertex
 10
-65.26221675
 20
114.63528792
 30
0.0
  0
VERTEX
  5
37C
100
AcDbEntity
  8
0
100
AcDbVertex
100
AcDb2dVertex
 10
-65.25478758
 20
114.60578382
 30
0.0
  0
VERTEX
  5
37D
100
AcDbEntity
  8
0
100
AcDbVertex
100
AcDb2dVertex
 10
-65.21597246
 20
114.43481450
 30
0.0
  0
VERTEX
  5
37E
100
AcDbEntity
  8
0
100
AcDbVertex
100
AcDb2dVertex
 10
-65.18400800
 20
114.26239953
 30
0.0
  0
VERTEX
  5
37F
100
AcDbEntity
  8
0
100
AcDbVertex
100
AcDb2dVertex
 10
-65.17443689
 20
114.20168284
 30
0.0
  0
VERTEX
  5
380
100
AcDbEntity
  8
0
100
AcDbVertex
100
AcDb2dVertex
 10
-65.15179509
 20
114.02771225
 30
0.0
  0
VERTEX
  5
381
100
AcDbEntity
  8
0
100
AcDbVertex
100
AcDb2dVertex
 10
-65.13606811
 20
113.85266329
 30
0.0
  0
VERTEX
  5
382
100
AcDbEntity
  8
0
100
AcDbVertex
100
AcDb2dVertex
 10
-65.12732622
 20
113.67714641
 30
0.0
  0
VERTEX
  5
383
100
AcDbEntity
  8
0
100
AcDbVertex
100
AcDb2dVertex
 10
-65.12537468
 20
113.54635322
 30
0.0
  0
SEQEND
  5
384
100
AcDbEntity
  8
0
  0
POLYLINE
  5
385
100
AcDbEntity
  8
0
100
AcDb2dPolyline
 66
     1
  0
VERTEX
  5
386
100
AcDbEntity
  8
0
100
AcDbVertex
100
AcDb2dVertex
 10
-67.62541320
 20
117.51573632
 30
0.0
  0
VERTEX
  5
387
100
AcDbEntity
  8
0
100
AcDbVertex
100
AcDb2dVertex
 10
-67.47417699
 20
117.43957557
 30
0.0
  0
VERTEX
  5
388
100
AcDbEntity
  8
0
100
AcDbVertex
100
AcDb2dVertex
 10
-67.31948600
 20
117.35412062
 30
0.0
  0
VERTEX
  5
389
100
AcDbEntity
  8
0
100
AcDbVertex
100
AcDb2dVertex
 10
-67.19454133
 20
117.27893029
 30
0.0
  0
VERTEX
  5
38A
100
AcDbEntity
  8
0
100
AcDbVertex
100
AcDb2dVertex
 10
-67.03546692
 20
117.17469955
 30
0.0
  0
VERTEX
  5
38B
100
AcDbEntity
  8
0
100
AcDbVertex
100
AcDb2dVertex
 10
-66.89294116
 20
117.07263157
 30
0.0
  0
VERTEX
  5
38C
100
AcDbEntity
  8
0
100
AcDbVertex
100
AcDb2dVertex
 10
-66.75397364
 20
116.96443162
 30
0.0
  0
VERTEX
  5
38D
100
AcDbEntity
  8
0
100
AcDbVertex
100
AcDb2dVertex
 10
-66.69559063
 20
116.91622748
 30
0.0
  0
VERTEX
  5
38E
100
AcDbEntity
  8
0
100
AcDbVertex
100
AcDb2dVertex
 10
-66.56314943
 20
116.80035256
 30
0.0
  0
VERTEX
  5
38F
100
AcDbEntity
  8
0
100
AcDbVertex
100
AcDb2dVertex
 10
-66.43518673
 20
116.67904987
 30
0.0
  0
VERTEX
  5
390
100
AcDbEntity
  8
0
100
AcDbVertex
100
AcDb2dVertex
 10
-66.37610691
 20
116.61963873
 30
0.0
  0
VERTEX
  5
391
100
AcDbEntity
  8
0
100
AcDbVertex
100
AcDb2dVertex
 10
-66.25611640
 20
116.49163129
 30
0.0
  0
VERTEX
  5
392
100
AcDbEntity
  8
0
100
AcDbVertex
100
AcDb2dVertex
 10
-66.14116092
 20
116.35874107
 30
0.0
  0
VERTEX
  5
393
100
AcDbEntity
  8
0
100
AcDbVertex
100
AcDb2dVertex
 10
-66.08398507
 20
116.28845367
 30
0.0
  0
VERTEX
  5
394
100
AcDbEntity
  8
0
100
AcDbVertex
100
AcDb2dVertex
 10
-65.97740682
 20
116.14902190
 30
0.0
  0
VERTEX
  5
395
100
AcDbEntity
  8
0
100
AcDbVertex
100
AcDb2dVertex
 10
-65.87631690
 20
116.00523812
 30
0.0
  0
VERTEX
  5
396
100
AcDbEntity
  8
0
100
AcDbVertex
100
AcDb2dVertex
 10
-65.82490719
 20
115.92715187
 30
0.0
  0
VERTEX
  5
397
100
AcDbEntity
  8
0
100
AcDbVertex
100
AcDb2dVertex
 10
-65.73290566
 20
115.77765216
 30
0.0
  0
VERTEX
  5
398
100
AcDbEntity
  8
0
100
AcDbVertex
100
AcDb2dVertex
 10
-65.64697350
 20
115.62464778
 30
0.0
  0
VERTEX
  5
399
100
AcDbEntity
  8
0
100
AcDbVertex
100
AcDb2dVertex
 10
-65.60326524
 20
115.54089397
 30
0.0
  0
VERTEX
  5
39A
100
AcDbEntity
  8
0
100
AcDbVertex
100
AcDb2dVertex
 10
-65.52697847
 20
115.38309332
 30
0.0
  0
VERTEX
  5
39B
100
AcDbEntity
  8
0
100
AcDbVertex
100
AcDb2dVertex
 10
-65.45681753
 20
115.22192040
 30
0.0
  0
VERTEX
  5
39C
100
AcDbEntity
  8
0
100
AcDbVertex
100
AcDb2dVertex
 10
-65.42215438
 20
115.13515410
 30
0.0
  0
VERTEX
  5
39D
100
AcDbEntity
  8
0
100
AcDbVertex
100
AcDb2dVertex
 10
-65.36681733
 20
114.98405081
 30
0.0
  0
VERTEX
  5
39E
100
AcDbEntity
  8
0
100
AcDbVertex
100
AcDb2dVertex
 10
-65.36269071
 20
114.97205513
 30
0.0
  0
SEQEND
  5
39F
100
AcDbEntity
  8
0
  0
LINE
  5
3A0
100
AcDbEntity
  8
0
100
AcDbLine
 10
-109.87537468
 20
107.95734605
 30
0.0
 11
-109.87536517
 21
109.57697011
 31
0.0
  0
LINE
  5
3A1
100
AcDbEntity
  8
0
100
AcDbLine
 10
-109.87536277
 20
117.51573798
 30
0.0
 11
-109.87537468
 21
119.13536039
 31
0.0
  0
LINE
  5
3A2
100
AcDbEntity
  8
0
100
AcDbLine
 10
-109.87537468
 20
114.97205513
 30
0.0
 11
-109.87536277
 21
117.51573798
 31
0.0
  0
LINE
  5
3A3
100
AcDbEntity
  8
0
100
AcDbLine
 10
-109.87537468
 20
112.12065131
 30
0.0
 11
-109.87537468
 21
114.97205513
 31
0.0
  0
LINE
  5
3A4
100
AcDbEntity
  8
0
100
AcDbLine
 10
-109.87536517
 20
109.57697011
 30
0.0
 11
-109.87537468
 21
112.12065131
 31
0.0
  0
LINE
  5
3A5
100
AcDbEntity
  8
0
100
AcDbLine
 10
-28.87537468
 20
-58.05237782
 30
0.0
 11
-107.37537468
 21
-58.05237782
 31
0.0
  0
LINE
  5
3A6
100
AcDbEntity
  8
0
100
AcDbLine
 10
-107.37537468
 20
-60.55237782
 30
0.0
 11
-28.87537468
 21
-60.55237782
 31
0.0
  0
LINE
  5
3A7
100
AcDbEntity
  8
0
100
AcDbLine
 10
-28.87537468
 20
-58.05237782
 30
0.0
 11
-28.87537468
 21
-60.55237782
 31
0.0
  0
POLYLINE
  5
3A8
100
AcDbEntity
  8
0
100
AcDb2dPolyline
 66
     1
  0
VERTEX
  5
3A9
100
AcDbEntity
  8
0
100
AcDbVertex
100
AcDb2dVertex
 10
-28.87537468
 20
-58.05237782
 30
0.0
  0
VERTEX
  5
3AA
100
AcDbEntity
  8
0
100
AcDbVertex
100
AcDb2dVertex
 10
-23.87537468
 20
-58.05237782
 30
0.0
  0
VERTEX
  5
3AB
100
AcDbEntity
  8
0
100
AcDbVertex
100
AcDb2dVertex
 10
-23.87537468
 20
-60.55237782
 30
0.0
  0
VERTEX
  5
3AC
100
AcDbEntity
  8
0
100
AcDbVertex
100
AcDb2dVertex
 10
-28.87537468
 20
-60.55237782
 30
0.0
  0
SEQEND
  5
3AD
100
AcDbEntity
  8
0
  0
LINE
  5
3AE
100
AcDbEntity
  8
0
100
AcDbLine
  6
STRICHPUNKT2
 62
     1
 10
-32.87537468
 20
-60.55237782
 30
0.0
 11
-32.87537468
 21
-61.67737782
 31
0.0
  0
LINE
  5
3AF
100
AcDbEntity
  8
0
100
AcDbLine
  6
STRICHPUNKT2
 62
     1
 10
-32.87537468
 20
-56.92737782
 30
0.0
 11
-32.87537468
 21
-58.05237782
 31
0.0
  0
LINE
  5
3B0
100
AcDbEntity
  8
0
100
AcDbLine
  6
STRICHPUNKT2
 62
     1
 10
-68.87537468
 20
-60.55237782
 30
0.0
 11
-68.87537468
 21
-62.80237782
 31
0.0
  0
LINE
  5
3B1
100
AcDbEntity
  8
0
100
AcDbLine
  6
STRICHPUNKT2
 62
     1
 10
-68.87537468
 20
-55.80237782
 30
0.0
 11
-68.87537468
 21
-56.87495847
 31
0.0
  0
LINE
  5
3B2
100
AcDbEntity
  8
0
100
AcDbLine
  6
STRICHPUNKT2
 62
     1
 10
-89.87537468
 20
-60.55237782
 30
0.0
 11
-89.87537468
 21
-62.80237782
 31
0.0
  0
LINE
  5
3B3
100
AcDbEntity
  8
0
100
AcDbLine
  6
STRICHPUNKT2
 62
     1
 10
-89.87537468
 20
-55.80237782
 30
0.0
 11
-89.87537468
 21
-58.05237782
 31
0.0
  0
LINE
  5
3B4
100
AcDbEntity
  8
0
100
AcDbLine
  6
STRICHPUNKT2
 62
     1
 10
-51.37537468
 20
-60.55237782
 30
0.0
 11
-51.37537468
 21
-61.67737782
 31
0.0
  0
LINE
  5
3B5
100
AcDbEntity
  8
0
100
AcDbLine
  6
STRICHPUNKT2
 62
     1
 10
-51.37537468
 20
-56.92737782
 30
0.0
 11
-51.37537468
 21
-58.05237782
 31
0.0
  0
LINE
  5
3B6
100
AcDbEntity
  8
0
100
AcDbLine
  6
STRICHPUNKT2
 62
     1
 10
-65.37537468
 20
-60.55237782
 30
0.0
 11
-65.37537468
 21
-62.17737782
 31
0.0
  0
LINE
  5
3B7
100
AcDbEntity
  8
0
100
AcDbLine
  6
STRICHPUNKT2
 62
     1
 10
-65.37537468
 20
-56.42737782
 30
0.0
 11
-65.37537468
 21
-58.05237782
 31
0.0
  0
LINE
  5
3B8
100
AcDbEntity
  8
0
100
AcDbLine
  6
STRICHPUNKT2
 62
     1
 10
-53.87537468
 20
-60.55237782
 30
0.0
 11
-53.87537468
 21
-65.80237782
 31
0.0
  0
LINE
  5
3B9
100
AcDbEntity
  8
0
100
AcDbLine
  6
STRICHPUNKT2
 62
     1
 10
-53.87537468
 20
-55.30237782
 30
0.0
 11
-53.87537468
 21
-58.05237782
 31
0.0
  0
LINE
  5
3BA
100
AcDbEntity
  8
0
100
AcDbLine
  6
STRICHPUNKT2
 62
     1
 10
-34.87537468
 20
-60.55237782
 30
0.0
 11
-34.87537468
 21
-65.80237782
 31
0.0
  0
LINE
  5
3BB
100
AcDbEntity
  8
0
100
AcDbLine
  6
STRICHPUNKT2
 62
     1
 10
-34.87537468
 20
-55.30237782
 30
0.0
 11
-34.87537468
 21
-58.05237782
 31
0.0
  0
LINE
  5
3BC
100
AcDbEntity
  8
0
100
AcDbLine
  6
STRICHPUNKT2
 62
     1
 10
-32.87537468
 20
-61.67737782
 30
0.0
 11
-32.87537468
 21
-62.17737782
 31
0.0
  0
LINE
  5
3BD
100
AcDbEntity
  8
0
100
AcDbLine
  6
STRICHPUNKT2
 62
     1
 10
-32.87537468
 20
-56.42737782
 30
0.0
 11
-32.87537468
 21
-56.92737782
 31
0.0
  0
LINE
  5
3BE
100
AcDbEntity
  8
0
100
AcDbLine
  6
STRICHPUNKT2
 62
     1
 10
-97.87537468
 20
-60.55237782
 30
0.0
 11
-97.87537468
 21
-61.67737782
 31
0.0
  0
LINE
  5
3BF
100
AcDbEntity
  8
0
100
AcDbLine
  6
STRICHPUNKT2
 62
     1
 10
-97.87537468
 20
-56.92737782
 30
0.0
 11
-97.87537468
 21
-58.05237782
 31
0.0
  0
LINE
  5
3C0
100
AcDbEntity
  8
0
100
AcDbLine
  6
STRICHPUNKT2
 62
     1
 10
-97.87537468
 20
-61.67737782
 30
0.0
 11
-97.87537468
 21
-62.17737782
 31
0.0
  0
ARC
  5
3C1
100
AcDbEntity
  8
0
100
AcDbCircle
 10
-107.37537468
 20
-55.55237782
 30
0.0
 40
5.00000000
100
AcDbArc
 50
180.000000000
 51
-90.000000000
  0
ARC
  5
3C2
100
AcDbEntity
  8
0
100
AcDbCircle
 10
-107.37537468
 20
-55.55237782
 30
0.0
 40
2.50000000
100
AcDbArc
 50
180.000000000
 51
-90.000000000
  0
LINE
  5
3C3
100
AcDbEntity
  8
0
100
AcDbLine
 10
-112.37537468
 20
-55.55237782
 30
0.0
 11
-112.37537468
 21
22.94762218
 31
0.0
  0
LINE
  5
3C4
100
AcDbEntity
  8
0
100
AcDbLine
 10
-109.87537468
 20
22.94762218
 30
0.0
 11
-112.37537468
 21
22.94762218
 31
0.0
  0
LINE
  5
3C5
100
AcDbEntity
  8
0
100
AcDbLine
 10
-109.87537468
 20
22.94762218
 30
0.0
 11
-109.87537468
 21
-55.55237782
 31
0.0
  0
LINE
  5
3C6
100
AcDbEntity
  8
0
100
AcDbLine
 10
-109.87537468
 20
27.94762218
 30
0.0
 11
-109.87537468
 21
22.94762218
 31
0.0
  0
LINE
  5
3C7
100
AcDbEntity
  8
0
100
AcDbLine
 10
-109.87537468
 20
27.94762218
 30
0.0
 11
-112.37537468
 21
27.94762218
 31
0.0
  0
LINE
  5
3C8
100
AcDbEntity
  8
0
100
AcDbLine
 10
-112.37537468
 20
22.94762218
 30
0.0
 11
-112.37537468
 21
27.94762218
 31
0.0
  0
LINE
  5
3C9
100
AcDbEntity
  8
0
100
AcDbLine
  6
STRICHPUNKT2
 62
     1
 10
-112.37537468
 20
18.94762218
 30
0.0
 11
-114.00037468
 21
18.94762218
 31
0.0
  0
LINE
  5
3CA
100
AcDbEntity
  8
0
100
AcDbLine
  6
STRICHPUNKT2
 62
     1
 10
-108.25037468
 20
18.94762218
 30
0.0
 11
-109.87537468
 21
18.94762218
 31
0.0
  0
LINE
  5
3CB
100
AcDbEntity
  8
0
100
AcDbLine
  6
STRICHPUNKT2
 62
     1
 10
-113.50037468
 20
-13.55237782
 30
0.0
 11
-114.00037468
 21
-13.55237782
 31
0.0
  0
LINE
  5
3CC
100
AcDbEntity
  8
0
100
AcDbLine
  6
STRICHPUNKT2
 62
     1
 10
-108.25037468
 20
-13.55237782
 30
0.0
 11
-108.75037468
 21
-13.55237782
 31
0.0
  0
LINE
  5
3CD
100
AcDbEntity
  8
0
100
AcDbLine
  6
STRICHPUNKT2
 62
     1
 10
-112.37537468
 20
-38.05237782
 30
0.0
 11
-114.62537468
 21
-38.05237782
 31
0.0
  0
LINE
  5
3CE
100
AcDbEntity
  8
0
100
AcDbLine
  6
STRICHPUNKT2
 62
     1
 10
-107.62537468
 20
-38.05237782
 30
0.0
 11
-108.02053597
 21
-38.05237782
 31
0.0
  0
LINE
  5
3CF
100
AcDbEntity
  8
0
100
AcDbLine
  6
STRICHPUNKT2
 62
     1
 10
-112.37537468
 20
-0.55237782
 30
0.0
 11
-113.50037468
 21
-0.55237782
 31
0.0
  0
LINE
  5
3D0
100
AcDbEntity
  8
0
100
AcDbLine
  6
STRICHPUNKT2
 62
     1
 10
-108.75037468
 20
-0.55237782
 30
0.0
 11
-109.87537468
 21
-0.55237782
 31
0.0
  0
LINE
  5
3D1
100
AcDbEntity
  8
0
100
AcDbLine
  6
STRICHPUNKT2
 62
     1
 10
-112.37537468
 20
-13.55237782
 30
0.0
 11
-113.50037468
 21
-13.55237782
 31
0.0
  0
LINE
  5
3D2
100
AcDbEntity
  8
0
100
AcDbLine
  6
STRICHPUNKT2
 62
     1
 10
-108.75037468
 20
-13.55237782
 30
0.0
 11
-109.87537468
 21
-13.55237782
 31
0.0
  0
LINE
  5
3D3
100
AcDbEntity
  8
0
100
AcDbLine
  6
STRICHPUNKT2
 62
     1
 10
-112.37537468
 20
-46.05237782
 30
0.0
 11
-114.00037468
 21
-46.05237782
 31
0.0
  0
LINE
  5
3D4
100
AcDbEntity
  8
0
100
AcDbLine
  6
STRICHPUNKT2
 62
     1
 10
-108.25037468
 20
-46.05237782
 30
0.0
 11
-109.87537468
 21
-46.05237782
 31
0.0
  0
LINE
  5
3D5
100
AcDbEntity
  8
0
100
AcDbLine
  6
STRICHPUNKT2
 62
     1
 10
-112.37537468
 20
17.94762218
 30
0.0
 11
-115.12537468
 21
17.94762218
 31
0.0
  0
LINE
  5
3D6
100
AcDbEntity
  8
0
100
AcDbLine
  6
STRICHPUNKT2
 62
     1
 10
-107.12537468
 20
17.94762218
 30
0.0
 11
-109.87537468
 21
17.94762218
 31
0.0
  0
LINE
  5
3D7
100
AcDbEntity
  8
0
100
AcDbLine
  6
STRICHPUNKT2
 62
     1
 10
-112.37537468
 20
-20.55237782
 30
0.0
 11
-114.62537468
 21
-20.55237782
 31
0.0
  0
LINE
  5
3D8
100
AcDbEntity
  8
0
100
AcDbLine
  6
STRICHPUNKT2
 62
     1
 10
-107.62537468
 20
-20.55237782
 30
0.0
 11
-109.87537468
 21
-20.55237782
 31
0.0
  0
LINE
  5
3D9
100
AcDbEntity
  8
0
100
AcDbLine
 10
-107.45349968
 20
-55.63050282
 30
0.0
 11
-66.09313339
 21
-56.96470818
 31
0.0
  0
LINE
  5
3DA
100
AcDbEntity
  8
0
100
AcDbLine
 10
-67.62541622
 20
-58.05236591
 30
0.0
 11
-107.37537468
 21
-58.05237782
 31
0.0
  0
POLYLINE
  5
3DB
100
AcDbEntity
  8
0
100
AcDb2dPolyline
 66
     1
  0
VERTEX
  5
3DC
100
AcDbEntity
  8
0
100
AcDbVertex
100
AcDb2dVertex
 10
-65.36269071
 20
-58.05237782
 30
0.0
  0
VERTEX
  5
3DD
100
AcDbEntity
  8
0
100
AcDbVertex
100
AcDb2dVertex
 10
-67.30017455
 20
-58.05237782
 30
0.0
  0
VERTEX
  5
3DE
100
AcDbEntity
  8
0
100
AcDbVertex
100
AcDb2dVertex
 10
-67.62541622
 20
-58.05236591
 30
0.0
  0
SEQEND
  5
3DF
100
AcDbEntity
  8
0
  0
POLYLINE
  5
3E0
100
AcDbEntity
  8
0
100
AcDb2dPolyline
 66
     1
  0
VERTEX
  5
3E1
100
AcDbEntity
  8
0
100
AcDbVertex
100
AcDb2dVertex
 10
-65.12537468
 20
-57.96418830
 30
0.0
  0
VERTEX
  5
3E2
100
AcDbEntity
  8
0
100
AcDbVertex
100
AcDb2dVertex
 10
-65.12898975
 20
-57.87923493
 30
0.0
  0
VERTEX
  5
3E3
100
AcDbEntity
  8
0
100
AcDbVertex
100
AcDb2dVertex
 10
-65.13977911
 20
-57.79506889
 30
0.0
  0
VERTEX
  5
3E4
100
AcDbEntity
  8
0
100
AcDbVertex
100
AcDb2dVertex
 10
-65.15762241
 20
-57.71228447
 30
0.0
  0
VERTEX
  5
3E5
100
AcDbEntity
  8
0
100
AcDbVertex
100
AcDb2dVertex
 10
-65.18235149
 20
-57.63146128
 30
0.0
  0
VERTEX
  5
3E6
100
AcDbEntity
  8
0
100
AcDbVertex
100
AcDb2dVertex
 10
-65.21375190
 20
-57.55316043
 30
0.0
  0
VERTEX
  5
3E7
100
AcDbEntity
  8
0
100
AcDbVertex
100
AcDb2dVertex
 10
-65.25156462
 20
-57.47792090
 30
0.0
  0
VERTEX
  5
3E8
100
AcDbEntity
  8
0
100
AcDbVertex
100
AcDb2dVertex
 10
-65.29548822
 20
-57.40625599
 30
0.0
  0
VERTEX
  5
3E9
100
AcDbEntity
  8
0
100
AcDbVertex
100
AcDb2dVertex
 10
-65.34518120
 20
-57.33865002
 30
0.0
  0
VERTEX
  5
3EA
100
AcDbEntity
  8
0
100
AcDbVertex
100
AcDb2dVertex
 10
-65.40026469
 20
-57.27555524
 30
0.0
  0
VERTEX
  5
3EB
100
AcDbEntity
  8
0
100
AcDbVertex
100
AcDb2dVertex
 10
-65.40695931
 20
-57.26857393
 30
0.0
  0
VERTEX
  5
3EC
100
AcDbEntity
  8
0
100
AcDbVertex
100
AcDb2dVertex
 10
-65.46756697
 20
-57.21100239
 30
0.0
  0
VERTEX
  5
3ED
100
AcDbEntity
  8
0
100
AcDbVertex
100
AcDb2dVertex
 10
-65.53265373
 20
-57.15878041
 30
0.0
  0
VERTEX
  5
3EE
100
AcDbEntity
  8
0
100
AcDbVertex
100
AcDb2dVertex
 10
-65.60174376
 20
-57.11224308
 30
0.0
  0
VERTEX
  5
3EF
100
AcDbEntity
  8
0
100
AcDbVertex
100
AcDb2dVertex
 10
-65.67433712
 20
-57.07168333
 30
0.0
  0
VERTEX
  5
3F0
100
AcDbEntity
  8
0
100
AcDbVertex
100
AcDb2dVertex
 10
-65.74991341
 20
-57.03735022
 30
0.0
  0
VERTEX
  5
3F1
100
AcDbEntity
  8
0
100
AcDbVertex
100
AcDb2dVertex
 10
-65.82793558
 20
-57.00944751
 30
0.0
  0
VERTEX
  5
3F2
100
AcDbEntity
  8
0
100
AcDbVertex
100
AcDb2dVertex
 10
-65.90785379
 20
-56.98813263
 30
0.0
  0
VERTEX
  5
3F3
100
AcDbEntity
  8
0
100
AcDbVertex
100
AcDb2dVertex
 10
-65.98910941
 20
-56.97351591
 30
0.0
  0
VERTEX
  5
3F4
100
AcDbEntity
  8
0
100
AcDbVertex
100
AcDb2dVertex
 10
-66.07113898
 20
-56.96566014
 30
0.0
  0
VERTEX
  5
3F5
100
AcDbEntity
  8
0
100
AcDbVertex
100
AcDb2dVertex
 10
-66.09313339
 20
-56.96470818
 30
0.0
  0
SEQEND
  5
3F6
100
AcDbEntity
  8
0
  0
LINE
  5
3F7
100
AcDbEntity
  8
0
100
AcDbLine
 10
-65.12537468
 20
-58.05237782
 30
0.0
 11
-65.12537468
 21
-57.96418830
 31
0.0
  0
LINE
  5
3F8
100
AcDbEntity
  8
0
100
AcDbLine
 10
-65.12537468
 20
-58.05237782
 30
0.0
 11
-65.36269071
 21
-58.05237782
 31
0.0
  0
LINE
  5
3F9
100
AcDbEntity
  8
0
100
AcDbLine
 10
-109.87537468
 20
-55.55237782
 30
0.0
 11
-109.87536517
 21
-15.80241634
 31
0.0
  0
LINE
  5
3FA
100
AcDbEntity
  8
0
100
AcDbLine
 10
-107.45349968
 20
-55.63050282
 30
0.0
 11
-108.78770505
 21
-14.27013653
 31
0.0
  0
POLYLINE
  5
3FB
100
AcDbEntity
  8
0
100
AcDb2dPolyline
 66
     1
  0
VERTEX
  5
3FC
100
AcDbEntity
  8
0
100
AcDbVertex
100
AcDb2dVertex
 10
-109.78718516
 20
-13.30237782
 30
0.0
  0
VERTEX
  5
3FD
100
AcDbEntity
  8
0
100
AcDbVertex
100
AcDb2dVertex
 10
-109.70223179
 20
-13.30599289
 30
0.0
  0
VERTEX
  5
3FE
100
AcDbEntity
  8
0
100
AcDbVertex
100
AcDb2dVertex
 10
-109.61806575
 20
-13.31678225
 30
0.0
  0
VERTEX
  5
3FF
100
AcDbEntity
  8
0
100
AcDbVertex
100
AcDb2dVertex
 10
-109.53528134
 20
-13.33462555
 30
0.0
  0
VERTEX
  5
400
100
AcDbEntity
  8
0
100
AcDbVertex
100
AcDb2dVertex
 10
-109.45445814
 20
-13.35935463
 30
0.0
  0
VERTEX
  5
401
100
AcDbEntity
  8
0
100
AcDbVertex
100
AcDb2dVertex
 10
-109.37615730
 20
-13.39075504
 30
0.0
  0
VERTEX
  5
402
100
AcDbEntity
  8
0
100
AcDbVertex
100
AcDb2dVertex
 10
-109.30091776
 20
-13.42856776
 30
0.0
  0
VERTEX
  5
403
100
AcDbEntity
  8
0
100
AcDbVertex
100
AcDb2dVertex
 10
-109.22925285
 20
-13.47249136
 30
0.0
  0
VERTEX
  5
404
100
AcDbEntity
  8
0
100
AcDbVertex
100
AcDb2dVertex
 10
-109.16164688
 20
-13.52218434
 30
0.0
  0
VERTEX
  5
405
100
AcDbEntity
  8
0
100
AcDbVertex
100
AcDb2dVertex
 10
-109.09855210
 20
-13.57726783
 30
0.0
  0
VERTEX
  5
406
100
AcDbEntity
  8
0
100
AcDbVertex
100
AcDb2dVertex
 10
-109.09157079
 20
-13.58396245
 30
0.0
  0
VERTEX
  5
407
100
AcDbEntity
  8
0
100
AcDbVertex
100
AcDb2dVertex
 10
-109.03399925
 20
-13.64457011
 30
0.0
  0
VERTEX
  5
408
100
AcDbEntity
  8
0
100
AcDbVertex
100
AcDb2dVertex
 10
-108.98177727
 20
-13.70965687
 30
0.0
  0
VERTEX
  5
409
100
AcDbEntity
  8
0
100
AcDbVertex
100
AcDb2dVertex
 10
-108.93523994
 20
-13.77874690
 30
0.0
  0
VERTEX
  5
40A
100
AcDbEntity
  8
0
100
AcDbVertex
100
AcDb2dVertex
 10
-108.89468020
 20
-13.85134025
 30
0.0
  0
VERTEX
  5
40B
100
AcDbEntity
  8
0
100
AcDbVertex
100
AcDb2dVertex
 10
-108.86034708
 20
-13.92691655
 30
0.0
  0
VERTEX
  5
40C
100
AcDbEntity
  8
0
100
AcDbVertex
100
AcDb2dVertex
 10
-108.83244437
 20
-14.00493871
 30
0.0
  0
VERTEX
  5
40D
100
AcDbEntity
  8
0
100
AcDbVertex
100
AcDb2dVertex
 10
-108.81112950
 20
-14.08485693
 30
0.0
  0
VERTEX
  5
40E
100
AcDbEntity
  8
0
100
AcDbVertex
100
AcDb2dVertex
 10
-108.79651278
 20
-14.16611255
 30
0.0
  0
VERTEX
  5
40F
100
AcDbEntity
  8
0
100
AcDbVertex
100
AcDb2dVertex
 10
-108.78865700
 20
-14.24814212
 30
0.0
  0
VERTEX
  5
410
100
AcDbEntity
  8
0
100
AcDbVertex
100
AcDb2dVertex
 10
-108.78770505
 20
-14.27013653
 30
0.0
  0
SEQEND
  5
411
100
AcDbEntity
  8
0
  0
POLYLINE
  5
412
100
AcDbEntity
  8
0
100
AcDb2dPolyline
 66
     1
  0
VERTEX
  5
413
100
AcDbEntity
  8
0
100
AcDbVertex
100
AcDb2dVertex
 10
-109.87537468
 20
-13.53969385
 30
0.0
  0
VERTEX
  5
414
100
AcDbEntity
  8
0
100
AcDbVertex
100
AcDb2dVertex
 10
-109.87537468
 20
-13.30237782
 30
0.0
  0
VERTEX
  5
415
100
AcDbEntity
  8
0
100
AcDbVertex
100
AcDb2dVertex
 10
-109.78718516
 20
-13.30237782
 30
0.0
  0
SEQEND
  5
416
100
AcDbEntity
  8
0
  0
LINE
  5
417
100
AcDbEntity
  8
0
100
AcDbLine
 10
-109.87536517
 20
-15.80241634
 30
0.0
 11
-109.87537468
 21
-13.53969385
 31
0.0
  0
POLYLINE
  5
418
100
AcDbEntity
  8
0
100
AcDb2dPolyline
 66
     1
  0
VERTEX
  5
419
100
AcDbEntity
  8
0
100
AcDbVertex
100
AcDb2dVertex
 10
20.99130427
 20
-60.55237782
 30
0.0
  0
VERTEX
  5
41A
100
AcDbEntity
  8
0
100
AcDbVertex
100
AcDb2dVertex
 10
69.49130427
 20
-60.55237782
 30
0.0
  0
VERTEX
  5
41B
100
AcDbEntity
  8
0
100
AcDbVertex
100
AcDb2dVertex
 10
69.49130427
 20
-58.05237782
 30
0.0
  0
VERTEX
  5
41C
100
AcDbEntity
  8
0
100
AcDbVertex
100
AcDb2dVertex
 10
20.99130427
 20
-58.05237782
 30
0.0
  0
VERTEX
  5
41D
100
AcDbEntity
  8
0
100
AcDbVertex
100
AcDb2dVertex
 10
20.99130427
 20
-60.55237782
 30
0.0
  0
VERTEX
  5
41E
100
AcDbEntity
  8
0
100
AcDbVertex
100
AcDb2dVertex
 10
15.99130427
 20
-60.55237782
 30
0.0
  0
SEQEND
  5
41F
100
AcDbEntity
  8
0
  0
LINE
  5
420
100
AcDbEntity
  8
0
100
AcDbLine
 10
15.99130427
 20
-58.05237782
 30
0.0
 11
15.99130427
 21
-60.55237782
 31
0.0
  0
LINE
  5
421
100
AcDbEntity
  8
0
100
AcDbLine
 10
15.99130427
 20
-58.05237782
 30
0.0
 11
20.99130427
 21
-58.05237782
 31
0.0
  0
LINE
  5
422
100
AcDbEntity
  8
0
100
AcDbLine
 10
69.49130427
 20
-58.05237782
 30
0.0
 11
74.49130427
 21
-58.05237782
 31
0.0
  0
LINE
  5
423
100
AcDbEntity
  8
0
100
AcDbLine
 10
74.49130427
 20
-60.55237782
 30
0.0
 11
74.49130427
 21
-58.05237782
 31
0.0
  0
LINE
  5
424
100
AcDbEntity
  8
0
100
AcDbLine
 10
74.49130427
 20
-60.55237782
 30
0.0
 11
69.49130427
 21
-60.55237782
 31
0.0
  0
LINE
  5
425
100
AcDbEntity
  8
0
100
AcDbLine
  6
STRICHPUNKT2
 62
     1
 10
23.24130427
 20
-60.55237782
 30
0.0
 11
23.24130427
 21
-61.67737782
 31
0.0
  0
LINE
  5
426
100
AcDbEntity
  8
0
100
AcDbLine
  6
STRICHPUNKT2
 62
     1
 10
23.24130427
 20
-56.92737782
 30
0.0
 11
23.24130427
 21
-58.05237782
 31
0.0
  0
LINE
  5
427
100
AcDbEntity
  8
0
100
AcDbLine
  6
STRICHPUNKT2
 62
     1
 10
58.74130427
 20
-60.55237782
 30
0.0
 11
58.74130427
 21
-62.80237782
 31
0.0
  0
LINE
  5
428
100
AcDbEntity
  8
0
100
AcDbLine
  6
STRICHPUNKT2
 62
     1
 10
58.74130427
 20
-55.80237782
 30
0.0
 11
58.74130427
 21
-58.05237782
 31
0.0
  0
LINE
  5
429
100
AcDbEntity
  8
0
100
AcDbLine
  6
STRICHPUNKT2
 62
     1
 10
31.24130427
 20
-60.55237782
 30
0.0
 11
31.24130427
 21
-61.67737782
 31
0.0
  0
LINE
  5
42A
100
AcDbEntity
  8
0
100
AcDbLine
  6
STRICHPUNKT2
 62
     1
 10
31.24130427
 20
-56.92737782
 30
0.0
 11
31.24130427
 21
-58.05237782
 31
0.0
  0
LINE
  5
42B
100
AcDbEntity
  8
0
100
AcDbLine
  6
STRICHPUNKT2
 62
     1
 10
31.74130427
 20
-60.55237782
 30
0.0
 11
31.74130427
 21
-62.80237782
 31
0.0
  0
LINE
  5
42C
100
AcDbEntity
  8
0
100
AcDbLine
  6
STRICHPUNKT2
 62
     1
 10
31.74130427
 20
-55.80237782
 30
0.0
 11
31.74130427
 21
-58.05237782
 31
0.0
  0
LINE
  5
42D
100
AcDbEntity
  8
0
100
AcDbLine
  6
STRICHPUNKT2
 62
     1
 10
23.24130427
 20
-61.67737782
 30
0.0
 11
23.24130427
 21
-62.17737782
 31
0.0
  0
LINE
  5
42E
100
AcDbEntity
  8
0
100
AcDbLine
  6
STRICHPUNKT2
 62
     1
 10
23.24130427
 20
-56.42737782
 30
0.0
 11
23.24130427
 21
-56.92737782
 31
0.0
  0
LINE
  5
42F
100
AcDbEntity
  8
0
100
AcDbLine
  6
STRICHPUNKT2
 62
     1
 10
45.24130427
 20
-60.55237782
 30
0.0
 11
45.24130427
 21
-65.80237782
 31
0.0
  0
LINE
  5
430
100
AcDbEntity
  8
0
100
AcDbLine
  6
STRICHPUNKT2
 62
     1
 10
45.24130427
 20
-55.30237782
 30
0.0
 11
45.24130427
 21
-58.05237782
 31
0.0
  0
LINE
  5
431
100
AcDbEntity
  8
0
100
AcDbLine
  6
STRICHPUNKT2
 62
     1
 10
59.24130427
 20
-60.55237782
 30
0.0
 11
59.24130427
 21
-61.67737782
 31
0.0
  0
LINE
  5
432
100
AcDbEntity
  8
0
100
AcDbLine
  6
STRICHPUNKT2
 62
     1
 10
59.24130427
 20
-56.92737782
 30
0.0
 11
59.24130427
 21
-58.05237782
 31
0.0
  0
LINE
  5
433
100
AcDbEntity
  8
0
100
AcDbLine
  6
STRICHPUNKT2
 62
     1
 10
67.24130427
 20
-60.55237782
 30
0.0
 11
67.24130427
 21
-62.17737782
 31
0.0
  0
LINE
  5
434
100
AcDbEntity
  8
0
100
AcDbLine
  6
STRICHPUNKT2
 62
     1
 10
67.24130427
 20
-56.42737782
 30
0.0
 11
67.24130427
 21
-58.05237782
 31
0.0
  0
LINE
  5
435
100
AcDbEntity
  8
0
100
AcDbLine
 10
15.99130427
 20
-55.55237782
 30
0.0
 11
15.99130427
 21
-58.05237782
 31
0.0
  0
LINE
  5
436
100
AcDbEntity
  8
0
100
AcDbLine
 10
74.49130427
 20
-58.05237782
 30
0.0
 11
74.49130427
 21
-55.55237782
 31
0.0
  0
CIRCLE
  5
437
100
AcDbEntity
  8
0
100
AcDbCircle
 10
67.24130427
 20
-46.05237782
 30
0.0
 40
2.25000000
  0
CIRCLE
  5
438
100
AcDbEntity
  8
0
100
AcDbCircle
 10
21.74130427
 20
-46.05237782
 30
0.0
 40
3.25000000
  0
CIRCLE
  5
439
100
AcDbEntity
  8
0
100
AcDbCircle
 10
58.74130427
 20
-38.05237782
 30
0.0
 40
4.50000000
  0
CIRCLE
  5
43A
100
AcDbEntity
  8
0
100
AcDbCircle
 10
31.74130427
 20
-20.55237782
 30
0.0
 40
4.50000000
  0
CIRCLE
  5
43B
100
AcDbEntity
  8
0
100
AcDbCircle
 10
67.24130427
 20
-13.55237782
 30
0.0
 40
3.25000000
  0
CIRCLE
  5
43C
100
AcDbEntity
  8
0
100
AcDbCircle
 10
23.24130427
 20
-13.55237782
 30
0.0
 40
2.25000000
  0
CIRCLE
  5
43D
100
AcDbEntity
  8
0
100
AcDbCircle
 10
59.24130427
 20
-0.55237782
 30
0.0
 40
2.25000000
  0
CIRCLE
  5
43E
100
AcDbEntity
  8
0
100
AcDbCircle
 10
31.24130427
 20
-0.55237782
 30
0.0
 40
2.25000000
  0
CIRCLE
  5
43F
100
AcDbEntity
  8
0
100
AcDbCircle
 10
67.24130427
 20
18.94762218
 30
0.0
 40
2.25000000
  0
CIRCLE
  5
440
100
AcDbEntity
  8
0
100
AcDbCircle
 10
45.24130427
 20
17.94762218
 30
0.0
 40
5.50000000
  0
CIRCLE
  5
441
100
AcDbEntity
  8
0
100
AcDbCircle
 10
23.24130427
 20
18.94762218
 30
0.0
 40
3.25000000
  0
LINE
  5
442
100
AcDbEntity
  8
0
100
AcDbLine
 10
15.99130427
 20
22.94762218
 30
0.0
 11
15.99130427
 21
-55.55237782
 31
0.0
  0
POLYLINE
  5
443
100
AcDbEntity
  8
0
100
AcDb2dPolyline
 66
     1
  0
VERTEX
  5
444
100
AcDbEntity
  8
0
100
AcDbVertex
100
AcDb2dVertex
 10
74.49130427
 20
-55.55237782
 30
0.0
  0
VERTEX
  5
445
100
AcDbEntity
  8
0
100
AcDbVertex
100
AcDb2dVertex
 10
74.49130427
 20
22.94762218
 30
0.0
  0
VERTEX
  5
446
100
AcDbEntity
  8
0
100
AcDbVertex
100
AcDb2dVertex
 10
69.49130427
 20
27.94762218
 30
0.0
  0
VERTEX
  5
447
100
AcDbEntity
  8
0
100
AcDbVertex
100
AcDb2dVertex
 10
20.99130427
 20
27.94762218
 30
0.0
  0
VERTEX
  5
448
100
AcDbEntity
  8
0
100
AcDbVertex
100
AcDb2dVertex
 10
15.99130427
 20
22.94762218
 30
0.0
  0
SEQEND
  5
449
100
AcDbEntity
  8
0
  0
LINE
  5
44A
100
AcDbEntity
  8
0
100
AcDbLine
  6
STRICHPUNKT2
 62
     1
 10
23.24130427
 20
18.94762218
 30
0.0
 11
28.11630427
 21
18.94762218
 31
0.0
  0
LINE
  5
44B
100
AcDbEntity
  8
0
100
AcDbLine
  6
STRICHPUNKT2
 62
     1
 10
23.24130427
 20
18.94762218
 30
0.0
 11
18.36630427
 21
18.94762218
 31
0.0
  0
LINE
  5
44C
100
AcDbEntity
  8
0
100
AcDbLine
  6
STRICHPUNKT2
 62
     1
 10
23.24130427
 20
18.94762218
 30
0.0
 11
23.24130427
 21
23.82262218
 31
0.0
  0
LINE
  5
44D
100
AcDbEntity
  8
0
100
AcDbLine
  6
STRICHPUNKT2
 62
     1
 10
23.24130427
 20
18.94762218
 30
0.0
 11
23.24130427
 21
14.07262218
 31
0.0
  0
LINE
  5
44E
100
AcDbEntity
  8
0
100
AcDbLine
  6
STRICHPUNKT2
 62
     1
 10
45.24130427
 20
17.94762218
 30
0.0
 11
53.49130427
 21
17.94762218
 31
0.0
  0
LINE
  5
44F
100
AcDbEntity
  8
0
100
AcDbLine
  6
STRICHPUNKT2
 62
     1
 10
45.24130427
 20
17.94762218
 30
0.0
 11
36.99130427
 21
17.94762218
 31
0.0
  0
LINE
  5
450
100
AcDbEntity
  8
0
100
AcDbLine
  6
STRICHPUNKT2
 62
     1
 10
45.24130427
 20
17.94762218
 30
0.0
 11
45.24130427
 21
26.19762218
 31
0.0
  0
LINE
  5
451
100
AcDbEntity
  8
0
100
AcDbLine
  6
STRICHPUNKT2
 62
     1
 10
45.24130427
 20
17.94762218
 30
0.0
 11
45.24130427
 21
9.69762218
 31
0.0
  0
LINE
  5
452
100
AcDbEntity
  8
0
100
AcDbLine
  6
STRICHPUNKT2
 62
     1
 10
67.24130427
 20
18.94762218
 30
0.0
 11
70.61630427
 21
18.94762218
 31
0.0
  0
LINE
  5
453
100
AcDbEntity
  8
0
100
AcDbLine
  6
STRICHPUNKT2
 62
     1
 10
67.24130427
 20
18.94762218
 30
0.0
 11
63.86630427
 21
18.94762218
 31
0.0
  0
LINE
  5
454
100
AcDbEntity
  8
0
100
AcDbLine
  6
STRICHPUNKT2
 62
     1
 10
67.24130427
 20
18.94762218
 30
0.0
 11
67.24130427
 21
22.32262218
 31
0.0
  0
LINE
  5
455
100
AcDbEntity
  8
0
100
AcDbLine
  6
STRICHPUNKT2
 62
     1
 10
67.24130427
 20
18.94762218
 30
0.0
 11
67.24130427
 21
15.57262218
 31
0.0
  0
LINE
  5
456
100
AcDbEntity
  8
0
100
AcDbLine
  6
STRICHPUNKT2
 62
     1
 10
31.24130427
 20
-0.55237782
 30
0.0
 11
34.61630427
 21
-0.55237782
 31
0.0
  0
LINE
  5
457
100
AcDbEntity
  8
0
100
AcDbLine
  6
STRICHPUNKT2
 62
     1
 10
31.24130427
 20
-0.55237782
 30
0.0
 11
27.86630427
 21
-0.55237782
 31
0.0
  0
LINE
  5
458
100
AcDbEntity
  8
0
100
AcDbLine
  6
STRICHPUNKT2
 62
     1
 10
31.24130427
 20
-0.55237782
 30
0.0
 11
31.24130427
 21
2.82262218
 31
0.0
  0
LINE
  5
459
100
AcDbEntity
  8
0
100
AcDbLine
  6
STRICHPUNKT2
 62
     1
 10
31.24130427
 20
-0.55237782
 30
0.0
 11
31.24130427
 21
-3.92737782
 31
0.0
  0
LINE
  5
45A
100
AcDbEntity
  8
0
100
AcDbLine
  6
STRICHPUNKT2
 62
     1
 10
59.24130427
 20
-0.55237782
 30
0.0
 11
62.61630427
 21
-0.55237782
 31
0.0
  0
LINE
  5
45B
100
AcDbEntity
  8
0
100
AcDbLine
  6
STRICHPUNKT2
 62
     1
 10
59.24130427
 20
-0.55237782
 30
0.0
 11
55.86630427
 21
-0.55237782
 31
0.0
  0
LINE
  5
45C
100
AcDbEntity
  8
0
100
AcDbLine
  6
STRICHPUNKT2
 62
     1
 10
59.24130427
 20
-0.55237782
 30
0.0
 11
59.24130427
 21
2.82262218
 31
0.0
  0
LINE
  5
45D
100
AcDbEntity
  8
0
100
AcDbLine
  6
STRICHPUNKT2
 62
     1
 10
59.24130427
 20
-0.55237782
 30
0.0
 11
59.24130427
 21
-3.92737782
 31
0.0
  0
LINE
  5
45E
100
AcDbEntity
  8
0
100
AcDbLine
  6
STRICHPUNKT2
 62
     1
 10
23.24130427
 20
-13.55237782
 30
0.0
 11
26.61630427
 21
-13.55237782
 31
0.0
  0
LINE
  5
45F
100
AcDbEntity
  8
0
100
AcDbLine
  6
STRICHPUNKT2
 62
     1
 10
23.24130427
 20
-13.55237782
 30
0.0
 11
19.86630427
 21
-13.55237782
 31
0.0
  0
LINE
  5
460
100
AcDbEntity
  8
0
100
AcDbLine
  6
STRICHPUNKT2
 62
     1
 10
23.24130427
 20
-13.55237782
 30
0.0
 11
23.24130427
 21
-10.17737782
 31
0.0
  0
LINE
  5
461
100
AcDbEntity
  8
0
100
AcDbLine
  6
STRICHPUNKT2
 62
     1
 10
23.24130427
 20
-13.55237782
 30
0.0
 11
23.24130427
 21
-16.92737782
 31
0.0
  0
LINE
  5
462
100
AcDbEntity
  8
0
100
AcDbLine
  6
STRICHPUNKT2
 62
     1
 10
67.24130427
 20
-13.55237782
 30
0.0
 11
72.11630427
 21
-13.55237782
 31
0.0
  0
LINE
  5
463
100
AcDbEntity
  8
0
100
AcDbLine
  6
STRICHPUNKT2
 62
     1
 10
67.24130427
 20
-13.55237782
 30
0.0
 11
62.36630427
 21
-13.55237782
 31
0.0
  0
LINE
  5
464
100
AcDbEntity
  8
0
100
AcDbLine
  6
STRICHPUNKT2
 62
     1
 10
67.24130427
 20
-13.55237782
 30
0.0
 11
67.24130427
 21
-8.67737782
 31
0.0
  0
LINE
  5
465
100
AcDbEntity
  8
0
100
AcDbLine
  6
STRICHPUNKT2
 62
     1
 10
67.24130427
 20
-13.55237782
 30
0.0
 11
67.24130427
 21
-18.42737782
 31
0.0
  0
LINE
  5
466
100
AcDbEntity
  8
0
100
AcDbLine
  6
STRICHPUNKT2
 62
     1
 10
31.74130427
 20
-20.55237782
 30
0.0
 11
38.49130427
 21
-20.55237782
 31
0.0
  0
LINE
  5
467
100
AcDbEntity
  8
0
100
AcDbLine
  6
STRICHPUNKT2
 62
     1
 10
31.74130427
 20
-20.55237782
 30
0.0
 11
24.99130427
 21
-20.55237782
 31
0.0
  0
LINE
  5
468
100
AcDbEntity
  8
0
100
AcDbLine
  6
STRICHPUNKT2
 62
     1
 10
31.74130427
 20
-20.55237782
 30
0.0
 11
31.74130427
 21
-13.80237782
 31
0.0
  0
LINE
  5
469
100
AcDbEntity
  8
0
100
AcDbLine
  6
STRICHPUNKT2
 62
     1
 10
31.74130427
 20
-20.55237782
 30
0.0
 11
31.74130427
 21
-27.30237782
 31
0.0
  0
LINE
  5
46A
100
AcDbEntity
  8
0
100
AcDbLine
  6
STRICHPUNKT2
 62
     1
 10
58.74130427
 20
-38.05237782
 30
0.0
 11
65.49130427
 21
-38.05237782
 31
0.0
  0
LINE
  5
46B
100
AcDbEntity
  8
0
100
AcDbLine
  6
STRICHPUNKT2
 62
     1
 10
58.74130427
 20
-38.05237782
 30
0.0
 11
51.99130427
 21
-38.05237782
 31
0.0
  0
LINE
  5
46C
100
AcDbEntity
  8
0
100
AcDbLine
  6
STRICHPUNKT2
 62
     1
 10
58.74130427
 20
-38.05237782
 30
0.0
 11
58.74130427
 21
-31.30237782
 31
0.0
  0
LINE
  5
46D
100
AcDbEntity
  8
0
100
AcDbLine
  6
STRICHPUNKT2
 62
     1
 10
58.74130427
 20
-38.05237782
 30
0.0
 11
58.74130427
 21
-44.80237782
 31
0.0
  0
LINE
  5
46E
100
AcDbEntity
  8
0
100
AcDbLine
  6
STRICHPUNKT2
 62
     1
 10
21.74130427
 20
-46.05237782
 30
0.0
 11
26.61630427
 21
-46.05237782
 31
0.0
  0
LINE
  5
46F
100
AcDbEntity
  8
0
100
AcDbLine
  6
STRICHPUNKT2
 62
     1
 10
21.74130427
 20
-46.05237782
 30
0.0
 11
16.86630427
 21
-46.05237782
 31
0.0
  0
LINE
  5
470
100
AcDbEntity
  8
0
100
AcDbLine
  6
STRICHPUNKT2
 62
     1
 10
21.74130427
 20
-46.05237782
 30
0.0
 11
21.74130427
 21
-41.17737782
 31
0.0
  0
LINE
  5
471
100
AcDbEntity
  8
0
100
AcDbLine
  6
STRICHPUNKT2
 62
     1
 10
21.74130427
 20
-46.05237782
 30
0.0
 11
21.74130427
 21
-50.92737782
 31
0.0
  0
LINE
  5
472
100
AcDbEntity
  8
0
100
AcDbLine
  6
STRICHPUNKT2
 62
     1
 10
67.24130427
 20
-46.05237782
 30
0.0
 11
70.61630427
 21
-46.05237782
 31
0.0
  0
LINE
  5
473
100
AcDbEntity
  8
0
100
AcDbLine
  6
STRICHPUNKT2
 62
     1
 10
67.24130427
 20
-46.05237782
 30
0.0
 11
63.86630427
 21
-46.05237782
 31
0.0
  0
LINE
  5
474
100
AcDbEntity
  8
0
100
AcDbLine
  6
STRICHPUNKT2
 62
     1
 10
67.24130427
 20
-46.05237782
 30
0.0
 11
67.24130427
 21
-42.67737782
 31
0.0
  0
LINE
  5
475
100
AcDbEntity
  8
0
100
AcDbLine
  6
STRICHPUNKT2
 62
     1
 10
67.24130427
 20
-46.05237782
 30
0.0
 11
67.24130427
 21
-49.42737782
 31
0.0
  0
LINE
  5
476
100
AcDbEntity
  8
0
100
AcDbLine
 10
50.83031144
 20
-58.05237782
 30
0.0
 11
49.21068738
 21
-58.05236831
 31
0.0
  0
LINE
  5
477
100
AcDbEntity
  8
0
100
AcDbLine
 10
41.27191951
 20
-58.05236591
 30
0.0
 11
39.65229710
 21
-58.05237782
 31
0.0
  0
LINE
  5
478
100
AcDbEntity
  8
0
100
AcDbLine
 10
43.81560236
 20
-58.05237782
 30
0.0
 11
41.27191951
 21
-58.05236591
 31
0.0
  0
LINE
  5
479
100
AcDbEntity
  8
0
100
AcDbLine
 10
46.66700618
 20
-58.05237782
 30
0.0
 11
43.81560236
 21
-58.05237782
 31
0.0
  0
LINE
  5
47A
100
AcDbEntity
  8
0
100
AcDbLine
 10
49.21068738
 20
-58.05236831
 30
0.0
 11
46.66700618
 21
-58.05237782
 31
0.0
  0
ELLIPSE
  5
47B
100
AcDbEntity
  8
0
100
AcDbEllipse
 10
45.24130427
 20
-213.17331411
 30
0.0
 11
0.00000000
 21
-232.62093629
 31
0.0
 40
0.03224129
 41
3.69930937
 42
3.98242880
  0
ELLIPSE
  5
47C
100
AcDbEntity
  8
0
100
AcDbEllipse
 10
45.24130427
 20
-213.17331411
 30
0.0
 11
-0.00000355
 21
-232.62102436
 31
0.0
 40
0.03224129
 41
2.30075617
 42
2.58387531
  0
POLYLINE
  5
47D
100
AcDbEntity
  8
0
100
AcDb2dPolyline
 66
     1
  0
VERTEX
  5
47E
100
AcDbEntity
  8
0
100
AcDbVertex
100
AcDb2dVertex
 10
45.24130427
 20
-13.30237782
 30
0.0
  0
VERTEX
  5
47F
100
AcDbEntity
  8
0
100
AcDbVertex
100
AcDb2dVertex
 10
45.41644233
 20
-13.30587270
 30
0.0
  0
VERTEX
  5
480
100
AcDbEntity
  8
0
100
AcDbVertex
100
AcDb2dVertex
 10
45.59171410
 20
-13.31636459
 30
0.0
  0
VERTEX
  5
481
100
AcDbEntity
  8
0
100
AcDbVertex
100
AcDb2dVertex
 10
45.76653581
 20
-13.33383775
 30
0.0
  0
VERTEX
  5
482
100
AcDbEntity
  8
0
100
AcDbVertex
100
AcDb2dVertex
 10
45.86933499
 20
-13.34741692
 30
0.0
  0
VERTEX
  5
483
100
AcDbEntity
  8
0
100
AcDbVertex
100
AcDb2dVertex
 10
46.04225857
 20
-13.37586854
 30
0.0
  0
VERTEX
  5
484
100
AcDbEntity
  8
0
100
AcDbVertex
100
AcDb2dVertex
 10
46.21404621
 20
-13.41121839
 30
0.0
  0
VERTEX
  5
485
100
AcDbEntity
  8
0
100
AcDbVertex
100
AcDb2dVertex
 10
46.30672549
 20
-13.43328089
 30
0.0
  0
VERTEX
  5
486
100
AcDbEntity
  8
0
100
AcDbVertex
100
AcDb2dVertex
 10
46.47608194
 20
-13.47914256
 30
0.0
  0
VERTEX
  5
487
100
AcDbEntity
  8
0
100
AcDbVertex
100
AcDb2dVertex
 10
46.64356225
 20
-13.53174198
 30
0.0
  0
VERTEX
  5
488
100
AcDbEntity
  8
0
100
AcDbVertex
100
AcDb2dVertex
 10
46.66700618
 20
-13.53969385
 30
0.0
  0
VERTEX
  5
489
100
AcDbEntity
  8
0
100
AcDbVertex
100
AcDb2dVertex
 10
46.82887346
 20
-13.59868095
 30
0.0
  0
VERTEX
  5
48A
100
AcDbEntity
  8
0
100
AcDbVertex
100
AcDb2dVertex
 10
46.99119993
 20
-13.66521337
 30
0.0
  0
VERTEX
  5
48B
100
AcDbEntity
  8
0
100
AcDbVertex
100
AcDb2dVertex
 10
47.15089718
 20
-13.73822928
 30
0.0
  0
VERTEX
  5
48C
100
AcDbEntity
  8
0
100
AcDbVertex
100
AcDb2dVertex
 10
47.23466329
 20
-13.77966782
 30
0.0
  0
VERTEX
  5
48D
100
AcDbEntity
  8
0
100
AcDbVertex
100
AcDb2dVertex
 10
47.38938315
 20
-13.86218444
 30
0.0
  0
VERTEX
  5
48E
100
AcDbEntity
  8
0
100
AcDbVertex
100
AcDb2dVertex
 10
47.54080721
 20
-13.95086760
 30
0.0
  0
VERTEX
  5
48F
100
AcDbEntity
  8
0
100
AcDbVertex
100
AcDb2dVertex
 10
47.62098734
 20
-14.00119306
 30
0.0
  0
VERTEX
  5
490
100
AcDbEntity
  8
0
100
AcDbVertex
100
AcDb2dVertex
 10
47.76652924
 20
-14.09889374
 30
0.0
  0
VERTEX
  5
491
100
AcDbEntity
  8
0
100
AcDbVertex
100
AcDb2dVertex
 10
47.90821775
 20
-14.20242197
 30
0.0
  0
VERTEX
  5
492
100
AcDbEntity
  8
0
100
AcDbVertex
100
AcDb2dVertex
 10
47.98237137
 20
-14.26016537
 30
0.0
  0
VERTEX
  5
493
100
AcDbEntity
  8
0
100
AcDbVertex
100
AcDb2dVertex
 10
48.11724721
 20
-14.37198727
 30
0.0
  0
VERTEX
  5
494
100
AcDbEntity
  8
0
100
AcDbVertex
100
AcDb2dVertex
 10
48.24764826
 20
-14.48916511
 30
0.0
  0
VERTEX
  5
495
100
AcDbEntity
  8
0
100
AcDbVertex
100
AcDb2dVertex
 10
48.31365314
 20
-14.55219662
 30
0.0
  0
VERTEX
  5
496
100
AcDbEntity
  8
0
100
AcDbVertex
100
AcDb2dVertex
 10
48.43637434
 20
-14.67670811
 30
0.0
  0
VERTEX
  5
497
100
AcDbEntity
  8
0
100
AcDbVertex
100
AcDb2dVertex
 10
48.55437805
 20
-14.80633892
 30
0.0
  0
VERTEX
  5
498
100
AcDbEntity
  8
0
100
AcDbVertex
100
AcDb2dVertex
 10
48.61035068
 20
-14.87160861
 30
0.0
  0
VERTEX
  5
499
100
AcDbEntity
  8
0
100
AcDbVertex
100
AcDb2dVertex
 10
48.72003018
 20
-15.00745114
 30
0.0
  0
VERTEX
  5
49A
100
AcDbEntity
  8
0
100
AcDbVertex
100
AcDb2dVertex
 10
48.82418335
 20
-15.14748315
 30
0.0
  0
VERTEX
  5
49B
100
AcDbEntity
  8
0
100
AcDbVertex
100
AcDb2dVertex
 10
48.86894008
 20
-15.21143547
 30
0.0
  0
VERTEX
  5
49C
100
AcDbEntity
  8
0
100
AcDbVertex
100
AcDb2dVertex
 10
48.96347100
 20
-15.35498132
 30
0.0
  0
VERTEX
  5
49D
100
AcDbEntity
  8
0
100
AcDbVertex
100
AcDb2dVertex
 10
48.97338955
 20
-15.37075750
 30
0.0
  0
VERTEX
  5
49E
100
AcDbEntity
  8
0
100
AcDbVertex
100
AcDb2dVertex
 10
49.03783572
 20
-15.47717769
 30
0.0
  0
VERTEX
  5
49F
100
AcDbEntity
  8
0
100
AcDbVertex
100
AcDb2dVertex
 10
49.12418330
 20
-15.63168791
 30
0.0
  0
VERTEX
  5
4A0
100
AcDbEntity
  8
0
100
AcDbVertex
100
AcDb2dVertex
 10
49.16846223
 20
-15.71678336
 30
0.0
  0
VERTEX
  5
4A1
100
AcDbEntity
  8
0
100
AcDbVertex
100
AcDb2dVertex
 10
49.21068904
 20
-15.80241936
 30
0.0
  0
SEQEND
  5
4A2
100
AcDbEntity
  8
0
  0
POLYLINE
  5
4A3
100
AcDbEntity
  8
0
100
AcDb2dPolyline
 66
     1
  0
VERTEX
  5
4A4
100
AcDbEntity
  8
0
100
AcDbVertex
100
AcDb2dVertex
 10
43.81560236
 20
-13.53969385
 30
0.0
  0
VERTEX
  5
4A5
100
AcDbEntity
  8
0
100
AcDbVertex
100
AcDb2dVertex
 10
43.98304122
 20
-13.48610072
 30
0.0
  0
VERTEX
  5
4A6
100
AcDbEntity
  8
0
100
AcDbVertex
100
AcDb2dVertex
 10
44.15236957
 20
-13.43921989
 30
0.0
  0
VERTEX
  5
4A7
100
AcDbEntity
  8
0
100
AcDbVertex
100
AcDb2dVertex
 10
44.18187367
 20
-13.43179071
 30
0.0
  0
VERTEX
  5
4A8
100
AcDbEntity
  8
0
100
AcDbVertex
100
AcDb2dVertex
 10
44.35284299
 20
-13.39297560
 30
0.0
  0
VERTEX
  5
4A9
100
AcDbEntity
  8
0
100
AcDbVertex
100
AcDb2dVertex
 10
44.52525796
 20
-13.36101114
 30
0.0
  0
VERTEX
  5
4AA
100
AcDbEntity
  8
0
100
AcDbVertex
100
AcDb2dVertex
 10
44.58597465
 20
-13.35144003
 30
0.0
  0
VERTEX
  5
4AB
100
AcDbEntity
  8
0
100
AcDbVertex
100
AcDb2dVertex
 10
44.75994524
 20
-13.32879823
 30
0.0
  0
VERTEX
  5
4AC
100
AcDbEntity
  8
0
100
AcDbVertex
100
AcDb2dVertex
 10
44.93499420
 20
-13.31307125
 30
0.0
  0
VERTEX
  5
4AD
100
AcDbEntity
  8
0
100
AcDbVertex
100
AcDb2dVertex
 10
45.11051108
 20
-13.30432936
 30
0.0
  0
VERTEX
  5
4AE
100
AcDbEntity
  8
0
100
AcDbVertex
100
AcDb2dVertex
 10
45.24130427
 20
-13.30237782
 30
0.0
  0
SEQEND
  5
4AF
100
AcDbEntity
  8
0
  0
POLYLINE
  5
4B0
100
AcDbEntity
  8
0
100
AcDb2dPolyline
 66
     1
  0
VERTEX
  5
4B1
100
AcDbEntity
  8
0
100
AcDbVertex
100
AcDb2dVertex
 10
41.27192117
 20
-15.80241634
 30
0.0
  0
VERTEX
  5
4B2
100
AcDbEntity
  8
0
100
AcDbVertex
100
AcDb2dVertex
 10
41.34808192
 20
-15.65118013
 30
0.0
  0
VERTEX
  5
4B3
100
AcDbEntity
  8
0
100
AcDbVertex
100
AcDb2dVertex
 10
41.43353687
 20
-15.49648914
 30
0.0
  0
VERTEX
  5
4B4
100
AcDbEntity
  8
0
100
AcDbVertex
100
AcDb2dVertex
 10
41.50872720
 20
-15.37154447
 30
0.0
  0
VERTEX
  5
4B5
100
AcDbEntity
  8
0
100
AcDbVertex
100
AcDb2dVertex
 10
41.61295794
 20
-15.21247006
 30
0.0
  0
VERTEX
  5
4B6
100
AcDbEntity
  8
0
100
AcDbVertex
100
AcDb2dVertex
 10
41.71502592
 20
-15.06994430
 30
0.0
  0
VERTEX
  5
4B7
100
AcDbEntity
  8
0
100
AcDbVertex
100
AcDb2dVertex
 10
41.82322587
 20
-14.93097677
 30
0.0
  0
VERTEX
  5
4B8
100
AcDbEntity
  8
0
100
AcDbVertex
100
AcDb2dVertex
 10
41.87143001
 20
-14.87259377
 30
0.0
  0
VERTEX
  5
4B9
100
AcDbEntity
  8
0
100
AcDbVertex
100
AcDb2dVertex
 10
41.98730493
 20
-14.74015257
 30
0.0
  0
VERTEX
  5
4BA
100
AcDbEntity
  8
0
100
AcDbVertex
100
AcDb2dVertex
 10
42.10860762
 20
-14.61218987
 30
0.0
  0
VERTEX
  5
4BB
100
AcDbEntity
  8
0
100
AcDbVertex
100
AcDb2dVertex
 10
42.16801876
 20
-14.55311005
 30
0.0
  0
VERTEX
  5
4BC
100
AcDbEntity
  8
0
100
AcDbVertex
100
AcDb2dVertex
 10
42.29602620
 20
-14.43311953
 30
0.0
  0
VERTEX
  5
4BD
100
AcDbEntity
  8
0
100
AcDbVertex
100
AcDb2dVertex
 10
42.42891642
 20
-14.31816406
 30
0.0
  0
VERTEX
  5
4BE
100
AcDbEntity
  8
0
100
AcDbVertex
100
AcDb2dVertex
 10
42.49920382
 20
-14.26098821
 30
0.0
  0
VERTEX
  5
4BF
100
AcDbEntity
  8
0
100
AcDbVertex
100
AcDb2dVertex
 10
42.63863559
 20
-14.15440995
 30
0.0
  0
VERTEX
  5
4C0
100
AcDbEntity
  8
0
100
AcDbVertex
100
AcDb2dVertex
 10
42.78241937
 20
-14.05332003
 30
0.0
  0
VERTEX
  5
4C1
100
AcDbEntity
  8
0
100
AcDbVertex
100
AcDb2dVertex
 10
42.86050562
 20
-14.00191033
 30
0.0
  0
VERTEX
  5
4C2
100
AcDbEntity
  8
0
100
AcDbVertex
100
AcDb2dVertex
 10
43.01000533
 20
-13.90990880
 30
0.0
  0
VERTEX
  5
4C3
100
AcDbEntity
  8
0
100
AcDbVertex
100
AcDb2dVertex
 10
43.16300972
 20
-13.82397664
 30
0.0
  0
VERTEX
  5
4C4
100
AcDbEntity
  8
0
100
AcDbVertex
100
AcDb2dVertex
 10
43.24676352
 20
-13.78026837
 30
0.0
  0
VERTEX
  5
4C5
100
AcDbEntity
  8
0
100
AcDbVertex
100
AcDb2dVertex
 10
43.40456417
 20
-13.70398160
 30
0.0
  0
VERTEX
  5
4C6
100
AcDbEntity
  8
0
100
AcDbVertex
100
AcDb2dVertex
 10
43.56573709
 20
-13.63382067
 30
0.0
  0
VERTEX
  5
4C7
100
AcDbEntity
  8
0
100
AcDbVertex
100
AcDb2dVertex
 10
43.65250339
 20
-13.59915752
 30
0.0
  0
VERTEX
  5
4C8
100
AcDbEntity
  8
0
100
AcDbVertex
100
AcDb2dVertex
 10
43.80360668
 20
-13.54382047
 30
0.0
  0
VERTEX
  5
4C9
100
AcDbEntity
  8
0
100
AcDbVertex
100
AcDb2dVertex
 10
43.81560236
 20
-13.53969385
 30
0.0
  0
SEQEND
  5
4CA
100
AcDbEntity
  8
0
  0
TEXT
  5
4CB
100
AcDbEntity
  8
TXT_DIM49
100
AcDbText
 10
-120.56609399
 20
110.18706238
 30
0.0
 40
2.50000000
  1
58,5
  7
Arial
 41
1.000
 50
90.000207410
 51
0.0
100
AcDbText
  0
LINE
  5
4CC
100
AcDbEntity
  8
0
100
AcDbLine
 62
     4
 10
-120.06609399
 20
85.29635322
 30
0.0
 11
-118.06609399
 21
83.29635322
 31
0.0
  0
LINE
  5
4CD
100
AcDbEntity
  8
0
100
AcDbLine
 62
     4
 10
-118.31609399
 20
142.04635322
 30
0.0
 11
-119.81609399
 21
143.54635322
 31
0.0
  0
LINE
  5
4CE
100
AcDbEntity
  8
0
100
AcDbLine
 62
     4
 10
-119.06609399
 20
84.29635322
 30
0.0
 11
-119.06609399
 21
142.79635322
 31
0.0
  0
LINE
  5
4CF
100
AcDbEntity
  8
0
100
AcDbLine
 62
     4
 10
-117.06609399
 20
84.29635322
 30
0.0
 11
-121.06609399
 21
84.29635322
 31
0.0
  0
LINE
  5
4D0
100
AcDbEntity
  8
0
100
AcDbLine
 62
     4
 10
-117.06609399
 20
142.79635322
 30
0.0
 11
-121.06609399
 21
142.79635322
 31
0.0
  0
TEXT
  5
4D1
100
AcDbEntity
  8
TXT_DIM49
100
AcDbText
 10
-46.29521013
 20
151.31861314
 30
0.0
 40
2.50000000
  1
30
  7
Arial
 41
1.000
 50
0.0
 51
0.0
100
AcDbText
  0
LINE
  5
4D2
100
AcDbEntity
  8
0
100
AcDbLine
 62
     4
 10
-30.37537468
 20
148.81861314
 30
0.0
 11
-28.37537468
 21
150.81861314
 31
0.0
  0
LINE
  5
4D3
100
AcDbEntity
  8
0
100
AcDbLine
 62
     4
 10
-58.62537468
 20
150.56861314
 30
0.0
 11
-60.12537468
 21
149.06861314
 31
0.0
  0
LINE
  5
4D4
100
AcDbEntity
  8
0
100
AcDbLine
 62
     4
 10
-29.37537468
 20
149.81861314
 30
0.0
 11
-59.37537468
 21
149.81861314
 31
0.0
  0
LINE
  5
4D5
100
AcDbEntity
  8
0
100
AcDbLine
 62
     4
 10
-29.37537468
 20
115.54635322
 30
0.0
 11
-29.37537468
 21
151.81861314
 31
0.0
  0
LINE
  5
4D6
100
AcDbEntity
  8
0
100
AcDbLine
 62
     4
 10
-59.37537468
 20
115.54635322
 30
0.0
 11
-59.37537468
 21
151.81861314
 31
0.0
  0
TEXT
  5
4D7
100
AcDbEntity
  8
TXT_DIM49
100
AcDbText
 10
-105.33974255
 20
151.31861314
 30
0.0
 40
2.50000000
  1
Ø6.5
  7
Arial
 41
1.000
 50
0.0
 51
0.0
100
AcDbText
  0
TEXT
  5
4D8
100
AcDbEntity
  8
TXT_DIM49
100
AcDbText
 10
-96.35592354
 20
151.31861314
 30
0.0
 40
2.50000000
  1
(3x)
  7
Arial
 41
1.000
 50
0.0
 51
0.0
100
AcDbText
  0
LINE
  5
4D9
100
AcDbEntity
  8
0
100
AcDbLine
 62
     4
 10
-100.12537468
 20
150.81861314
 30
0.0
 11
-102.12537468
 21
148.81861314
 31
0.0
  0
LINE
  5
4DA
100
AcDbEntity
  8
0
100
AcDbLine
 62
     4
 10
-95.37537468
 20
149.06861314
 30
0.0
 11
-93.87537468
 21
150.56861314
 31
0.0
  0
LINE
  5
4DB
100
AcDbEntity
  8
0
100
AcDbLine
 62
     4
 10
-101.12537468
 20
149.81861314
 30
0.0
 11
-94.62537468
 21
149.81861314
 31
0.0
  0
LINE
  5
4DC
100
AcDbEntity
  8
0
100
AcDbLine
 62
     4
 10
-101.12537468
 20
137.54635322
 30
0.0
 11
-101.12537468
 21
151.81861314
 31
0.0
  0
LINE
  5
4DD
100
AcDbEntity
  8
0
100
AcDbLine
 62
     4
 10
-94.62537468
 20
137.54635322
 30
0.0
 11
-94.62537468
 21
151.81861314
 31
0.0
  0
TEXT
  5
4DE
100
AcDbEntity
  8
TXT_DIM49
100
AcDbText
 10
-107.54735852
 20
78.40422877
 30
0.0
 40
2.50000000
  1
Ø9
  7
Arial
 41
1.000
 50
0.0
 51
0.0
100
AcDbText
  0
TEXT
  5
4DF
100
AcDbEntity
  8
TXT_DIM49
100
AcDbText
 10
-101.44245005
 20
78.40422877
 30
0.0
 40
2.50000000
  1
(2x)
  7
Arial
 41
1.000
 50
0.0
 51
0.0
100
AcDbText
  0
LINE
  5
4E0
100
AcDbEntity
  8
0
100
AcDbLine
 62
     4
 10
-95.37537468
 20
75.90422877
 30
0.0
 11
-93.37537468
 21
77.90422877
 31
0.0
  0
LINE
  5
4E1
100
AcDbEntity
  8
0
100
AcDbLine
 62
     4
 10
-84.62537468
 20
77.65422877
 30
0.0
 11
-86.12537468
 21
76.15422877
 31
0.0
  0
LINE
  5
4E2
100
AcDbEntity
  8
0
100
AcDbLine
 62
     4
 10
-108.54735840
 20
76.90422877
 30
0.0
 11
-79.37537468
 21
76.90422877
 31
0.0
  0
LINE
  5
4E3
100
AcDbEntity
  8
0
100
AcDbLine
 62
     4
 10
-94.37537468
 20
98.04635322
 30
0.0
 11
-94.37537468
 21
74.90422877
 31
0.0
  0
LINE
  5
4E4
100
AcDbEntity
  8
0
100
AcDbLine
 62
     4
 10
-85.37537468
 20
98.04635322
 30
0.0
 11
-85.37537468
 21
74.90422877
 31
0.0
  0
TEXT
  5
4E5
100
AcDbEntity
  8
TXT_DIM49
100
AcDbText
 10
-47.49568499
 20
78.40422877
 30
0.0
 40
2.50000000
  1
Ø4
  7
Arial
 41
1.000
 50
0.0
 51
0.0
100
AcDbText
  0
TEXT
  5
4E6
100
AcDbEntity
  8
TXT_DIM49
100
AcDbText
 10
-41.39077652
 20
78.40422877
 30
0.0
 40
2.50000000
  1
(5x)
  7
Arial
 41
1.000
 50
0.0
 51
0.0
100
AcDbText
  0
LINE
  5
4E7
100
AcDbEntity
  8
0
100
AcDbLine
 62
     4
 10
-54.62537468
 20
75.90422877
 30
0.0
 11
-52.62537468
 21
77.90422877
 31
0.0
  0
LINE
  5
4E8
100
AcDbEntity
  8
0
100
AcDbLine
 62
     4
 10
-48.37537468
 20
77.65422877
 30
0.0
 11
-49.87537468
 21
76.15422877
 31
0.0
  0
LINE
  5
4E9
100
AcDbEntity
  8
0
100
AcDbLine
 62
     4
 10
-59.62537468
 20
76.90422877
 30
0.0
 11
-34.44586075
 21
76.90422877
 31
0.0
  0
LINE
  5
4EA
100
AcDbEntity
  8
0
100
AcDbLine
 62
     4
 10
-53.62537468
 20
97.54635322
 30
0.0
 11
-53.62537468
 21
74.90422877
 31
0.0
  0
LINE
  5
4EB
100
AcDbEntity
  8
0
100
AcDbLine
 62
     4
 10
-49.12537468
 20
97.54635322
 30
0.0
 11
-49.12537468
 21
74.90422877
 31
0.0
  0
TEXT
  5
4EC
100
AcDbEntity
  8
TXT_DIM49
100
AcDbText
 10
-20.56609399
 20
111.62651777
 30
0.0
 40
2.50000000
  1
11
  7
Arial
 41
1.000
 50
90.000207410
 51
0.0
100
AcDbText
  0
LINE
  5
4ED
100
AcDbEntity
  8
0
100
AcDbLine
 62
     4
 10
-20.06609399
 20
109.04635322
 30
0.0
 11
-18.06609399
 21
107.04635322
 31
0.0
  0
LINE
  5
4EE
100
AcDbEntity
  8
0
100
AcDbLine
 62
     4
 10
-18.31609399
 20
118.29635322
 30
0.0
 11
-19.81609399
 21
119.79635322
 31
0.0
  0
LINE
  5
4EF
100
AcDbEntity
  8
0
100
AcDbLine
 62
     4
 10
-19.06609399
 20
108.04635322
 30
0.0
 11
-19.06609399
 21
119.04635322
 31
0.0
  0
LINE
  5
4F0
100
AcDbEntity
  8
0
100
AcDbLine
 62
     4
 10
-32.87537468
 20
108.04635322
 30
0.0
 11
-17.06609399
 21
108.04635322
 31
0.0
  0
LINE
  5
4F1
100
AcDbEntity
  8
0
100
AcDbLine
 62
     4
 10
-32.87537468
 20
119.04635322
 30
0.0
 11
-17.06609399
 21
119.04635322
 31
0.0
  0
TEXT
  5
4F2
100
AcDbEntity
  8
TXT_DIM49
100
AcDbText
 10
-108.11101032
 20
39.27700821
 30
0.0
 40
2.50000000
  1
2,5
  7
Arial
 41
1.000
 50
0.0
 51
0.0
100
AcDbText
  0
LINE
  5
4F3
100
AcDbEntity
  8
0
100
AcDbLine
 62
     4
 10
-113.37537468
 20
36.77700821
 30
0.0
 11
-111.37537468
 21
38.77700821
 31
0.0
  0
LINE
  5
4F4
100
AcDbEntity
  8
0
100
AcDbLine
 62
     4
 10
-109.12537468
 20
38.52700821
 30
0.0
 11
-110.62537468
 21
37.02700821
 31
0.0
  0
LINE
  5
4F5
100
AcDbEntity
  8
0
100
AcDbLine
 62
     4
 10
-118.37537468
 20
37.77700821
 30
0.0
 11
-102.31226433
 21
37.77700821
 31
0.0
  0
LINE
  5
4F6
100
AcDbEntity
  8
0
100
AcDbLine
 62
     4
 10
-112.37537468
 20
29.94762218
 30
0.0
 11
-112.37537468
 21
39.77700821
 31
0.0
  0
LINE
  5
4F7
100
AcDbEntity
  8
0
100
AcDbLine
 62
     4
 10
-109.87537468
 20
29.94762218
 30
0.0
 11
-109.87537468
 21
39.77700821
 31
0.0
  0
TEXT
  5
4F8
100
AcDbEntity
  8
TXT_DIM49
100
AcDbText
 10
-123.87537468
 20
-19.66166866
 30
0.0
 40
2.50000000
  1
88,5
  7
Arial
 41
1.000
 50
90.000207410
 51
0.0
100
AcDbText
  0
LINE
  5
4F9
100
AcDbEntity
  8
0
100
AcDbLine
 62
     4
 10
-121.37537468
 20
26.94762218
 30
0.0
 11
-123.37537468
 21
28.94762218
 31
0.0
  0
LINE
  5
4FA
100
AcDbEntity
  8
0
100
AcDbLine
 62
     4
 10
-123.12537468
 20
-59.80237782
 30
0.0
 11
-121.62537468
 21
-61.30237782
 31
0.0
  0
LINE
  5
4FB
100
AcDbEntity
  8
0
100
AcDbLine
 62
     4
 10
-122.37537468
 20
27.94762218
 30
0.0
 11
-122.37537468
 21
-60.55237782
 31
0.0
  0
LINE
  5
4FC
100
AcDbEntity
  8
0
100
AcDbLine
 62
     4
 10
-114.37537468
 20
27.94762218
 30
0.0
 11
-124.37537468
 21
27.94762218
 31
0.0
  0
LINE
  5
4FD
100
AcDbEntity
  8
0
100
AcDbLine
 62
     4
 10
-109.37537468
 20
-60.55237782
 30
0.0
 11
-124.37537468
 21
-60.55237782
 31
0.0
  0
TEXT
  5
4FE
100
AcDbEntity
  8
TXT_DIM49
100
AcDbText
 10
-71.48466552
 20
-70.58329499
 30
0.0
 40
2.50000000
  1
88,5
  7
Arial
 41
1.000
 50
0.0
 51
0.0
100
AcDbText
  0
LINE
  5
4FF
100
AcDbEntity
  8
0
100
AcDbLine
 62
     4
 10
-111.37537468
 20
-71.08329499
 30
0.0
 11
-113.37537468
 21
-73.08329499
 31
0.0
  0
LINE
  5
500
100
AcDbEntity
  8
0
100
AcDbLine
 62
     4
 10
-24.62537468
 20
-72.83329499
 30
0.0
 11
-23.12537468
 21
-71.33329499
 31
0.0
  0
LINE
  5
501
100
AcDbEntity
  8
0
100
AcDbLine
 62
     4
 10
-112.37537468
 20
-72.08329499
 30
0.0
 11
-23.87537468
 21
-72.08329499
 31
0.0
  0
LINE
  5
502
100
AcDbEntity
  8
0
100
AcDbLine
 62
     4
 10
-112.37537468
 20
-57.55237782
 30
0.0
 11
-112.37537468
 21
-74.08329499
 31
0.0
  0
LINE
  5
503
100
AcDbEntity
  8
0
100
AcDbLine
 62
     4
 10
-23.87537468
 20
-62.55237782
 30
0.0
 11
-23.87537468
 21
-74.08329499
 31
0.0
  0
TEXT
  5
504
100
AcDbEntity
  8
TXT_DIM49
100
AcDbText
 10
41.88201343
 20
42.34779362
 30
0.0
 40
2.50000000
  1
58,5
  7
Arial
 41
1.000
 50
0.0
 51
0.0
100
AcDbText
  0
LINE
  5
505
100
AcDbEntity
  8
0
100
AcDbLine
 62
     4
 10
16.99130427
 20
41.84779362
 30
0.0
 11
14.99130427
 21
39.84779362
 31
0.0
  0
LINE
  5
506
100
AcDbEntity
  8
0
100
AcDbLine
 62
     4
 10
73.74130427
 20
40.09779362
 30
0.0
 11
75.24130427
 21
41.59779362
 31
0.0
  0
LINE
  5
507
100
AcDbEntity
  8
0
100
AcDbLine
 62
     4
 10
15.99130427
 20
40.84779362
 30
0.0
 11
74.49130427
 21
40.84779362
 31
0.0
  0
LINE
  5
508
100
AcDbEntity
  8
0
100
AcDbLine
 62
     4
 10
15.99130427
 20
24.94762218
 30
0.0
 11
15.99130427
 21
42.84779362
 31
0.0
  0
LINE
  5
509
100
AcDbEntity
  8
0
100
AcDbLine
 62
     4
 10
74.49130427
 20
24.94762218
 30
0.0
 11
74.49130427
 21
42.84779362
 31
0.0
  0
TEXT
  5
50A
100
AcDbEntity
  8
TXT_DIM49
100
AcDbText
 10
43.32146882
 20
34.75399007
 30
0.0
 40
2.50000000
  1
11
  7
Arial
 41
1.000
 50
0.0
 51
0.0
100
AcDbText
  0
LINE
  5
50B
100
AcDbEntity
  8
0
100
AcDbLine
 62
     4
 10
40.74130427
 20
34.25399007
 30
0.0
 11
38.74130427
 21
32.25399007
 31
0.0
  0
LINE
  5
50C
100
AcDbEntity
  8
0
100
AcDbLine
 62
     4
 10
49.99130427
 20
32.50399007
 30
0.0
 11
51.49130427
 21
34.00399007
 31
0.0
  0
LINE
  5
50D
100
AcDbEntity
  8
0
100
AcDbLine
 62
     4
 10
39.74130427
 20
33.25399007
 30
0.0
 11
50.74130427
 21
33.25399007
 31
0.0
  0
LINE
  5
50E
100
AcDbEntity
  8
0
100
AcDbLine
 62
     4
 10
39.74130427
 20
19.94762218
 30
0.0
 11
39.74130427
 21
35.25399007
 31
0.0
  0
LINE
  5
50F
100
AcDbEntity
  8
0
100
AcDbLine
 62
     4
 10
50.74130427
 20
19.94762218
 30
0.0
 11
50.74130427
 21
35.25399007
 31
0.0
  0
TEXT
  5
510
100
AcDbEntity
  8
TXT_DIM49
100
AcDbText
 10
7.52665286
 20
1.17199027
 30
0.0
 40
2.50000000
  1
Ø6
  7
Arial
 41
1.000
 50
90.000207410
 51
0.0
100
AcDbText
  0
TEXT
  5
511
100
AcDbEntity
  8
TXT_DIM49
100
AcDbText
 10
7.52665286
 20
7.27689874
 30
0.0
 40
2.50000000
  1
(3x)
  7
Arial
 41
1.000
 50
90.000207410
 51
0.0
100
AcDbText
  0
LINE
  5
512
100
AcDbEntity
  8
0
100
AcDbLine
 62
     4
 10
8.02665286
 20
23.19762218
 30
0.0
 11
10.02665286
 21
21.19762218
 31
0.0
  0
LINE
  5
513
100
AcDbEntity
  8
0
100
AcDbLine
 62
     4
 10
9.77665286
 20
14.94762218
 30
0.0
 11
8.27665286
 21
16.44762218
 31
0.0
  0
LINE
  5
514
100
AcDbEntity
  8
0
100
AcDbLine
 62
     4
 10
9.02665286
 20
28.19762218
 30
0.0
 11
9.02665286
 21
0.17199123
 31
0.0
  0
LINE
  5
515
100
AcDbEntity
  8
0
100
AcDbLine
 62
     4
 10
21.24130427
 20
22.19762218
 30
0.0
 11
7.02665286
 21
22.19762218
 31
0.0
  0
LINE
  5
516
100
AcDbEntity
  8
0
100
AcDbLine
 62
     4
 10
21.24130427
 20
15.69762218
 30
0.0
 11
7.02665286
 21
15.69762218
 31
0.0
  0
TEXT
  5
517
100
AcDbEntity
  8
TXT_DIM49
100
AcDbText
 10
81.27809889
 20
-0.19213915
 30
0.0
 40
2.50000000
  1
Ø4.5
  7
Arial
 41
1.000
 50
90.000207410
 51
0.0
100
AcDbText
  0
TEXT
  5
518
100
AcDbEntity
  8
TXT_DIM49
100
AcDbText
 10
81.27809889
 20
8.79167986
 30
0.0
 40
2.50000000
  1
(5x)
  7
Arial
 41
1.000
 50
90.000207410
 51
0.0
100
AcDbText
  0
LINE
  5
519
100
AcDbEntity
  8
0
100
AcDbLine
 62
     4
 10
81.77809889
 20
22.19762218
 30
0.0
 11
83.77809889
 21
20.19762218
 31
0.0
  0
LINE
  5
51A
100
AcDbEntity
  8
0
100
AcDbLine
 62
     4
 10
83.52809889
 20
15.94762218
 30
0.0
 11
82.02809889
 21
17.44762218
 31
0.0
  0
LINE
  5
51B
100
AcDbEntity
  8
0
100
AcDbLine
 62
     4
 10
82.77809889
 20
27.19762218
 30
0.0
 11
82.77809889
 21
-1.19213879
 31
0.0
  0
LINE
  5
51C
100
AcDbEntity
  8
0
100
AcDbLine
 62
     4
 10
69.24130427
 20
21.19762218
 30
0.0
 11
84.77809889
 21
21.19762218
 31
0.0
  0
LINE
  5
51D
100
AcDbEntity
  8
0
100
AcDbLine
 62
     4
 10
69.24130427
 20
16.69762218
 30
0.0
 11
84.77809889
 21
16.69762218
 31
0.0
  0
TEXT
  5
51E
100
AcDbEntity
  8
TXT_DIM49
100
AcDbText
 10
81.63591841
 20
-31.17486155
 30
0.0
 40
2.50000000
  1
Ø9
  7
Arial
 41
1.000
 50
90.000207410
 51
0.0
100
AcDbText
  0
TEXT
  5
51F
100
AcDbEntity
  8
TXT_DIM49
100
AcDbText
 10
81.63591841
 20
-25.06995308
 30
0.0
 40
2.50000000
  1
(2x)
  7
Arial
 41
1.000
 50
90.000207410
 51
0.0
100
AcDbText
  0
LINE
  5
520
100
AcDbEntity
  8
0
100
AcDbLine
 62
     4
 10
84.13591841
 20
-43.55237782
 30
0.0
 11
82.13591841
 21
-41.55237782
 31
0.0
  0
LINE
  5
521
100
AcDbEntity
  8
0
100
AcDbLine
 62
     4
 10
82.38591841
 20
-32.80237782
 30
0.0
 11
83.88591841
 21
-34.30237782
 31
0.0
  0
LINE
  5
522
100
AcDbEntity
  8
0
100
AcDbLine
 62
     4
 10
83.13591841
 20
-48.55237782
 30
0.0
 11
83.13591841
 21
-18.12503636
 31
0.0
  0
LINE
  5
523
100
AcDbEntity
  8
0
100
AcDbLine
 62
     4
 10
60.74130427
 20
-42.55237782
 30
0.0
 11
85.13591841
 21
-42.55237782
 31
0.0
  0
LINE
  5
524
100
AcDbEntity
  8
0
100
AcDbLine
 62
     4
 10
60.74130427
 20
-33.55237782
 30
0.0
 11
85.13591841
 21
-33.55237782
 31
0.0
  0
ENDSEC
  0
SECTION
  2
OBJECTS
  0
DICTIONARY
  5
C
330
0
100
AcDbDictionary
281
     1
  3
ACAD_GROUP
350
D
  3
ACAD_LAYOUT
350
19
  3
ACAD_MLINESTYLE
350
16
  0
DICTIONARY
  5
115
330
1E
100
AcDbDictionary
280
     1
281
     1
  3
ACAD_INDEX
360
116
  0
DICTIONARY
  5
D
100
AcDbDictionary
281
     1
  0
DICTIONARY
  5
19
100
AcDbDictionary
281
     1
  3
Layout1
350
1D
  3
Model
350
21
  0
DICTIONARY
  5
16
100
AcDbDictionary
281
     1
  3
Standard
350
17
  0
DICTIONARY
  5
116
100
AcDbDictionary
281
     1
  3
*A1
350
117
  0
LAYOUT
  5
1D
100
AcDbPlotSettings
  1

  2
C:\Programme\MDT\plotters\DWF Classic.pc3
  4

  6

 40
0.0
 41
0.0
 42
0.0
 43
0.0
 44
0.0
 45
0.0
 46
0.0
 47
0.0
 48
0.0
 49
0.0
140
0.0
141
0.0
142
1.0
143
1.0
 70
   688
 72
     0
 73
     0
 74
     5
  7

 75
    16
147
1.0
148
0.0
149
0.0
100
AcDbLayout
  1
Layout1
 70
     1
 71
     1
 10
0.0
 20
0.0
 11
12.0
 21
9.0
 12
0.0
 22
0.0
 32
0.0
 14
1.000000000000000E+20
 24
1.000000000000000E+20
 34
1.000000000000000E+20
 15
-1.000000000000000E+20
 25
-1.000000000000000E+20
 35
-1.000000000000000E+20
146
0.0
 13
0.0
 23
0.0
 33
0.0
 16
1.0
 26
0.0
 36
0.0
 17
0.0
 27
1.0
 37
0.0
 76
     0
330
1A
  0
LAYOUT
  5
21
100
AcDbPlotSettings
  1

  2
C:\Programme\MDT\plotters\DWF Classic.pc3
  4

  6

 40
0.0
 41
0.0
 42
0.0
 43
0.0
 44
0.0
 45
0.0
 46
0.0
 47
0.0
 48
0.0
 49
0.0
140
0.0
141
0.0
142
1.0
143
1.0
 70
  1712
 72
     0
 73
     0
 74
     0
  7

 75
     0
147
1.0
148
0.0
149
0.0
100
AcDbLayout
  1
Model
 70
     1
 71
     0
 10
0.0
 20
0.0
 11
12.0
 21
9.0
 12
0.0
 22
0.0
 32
0.0
 14
0.0
 24
0.0
 34
0.0
 15
0.0
 25
0.0
 35
0.0
146
0.0
 13
0.0
 23
0.0
 33
0.0
 16
1.0
 26
0.0
 36
0.0
 17
0.0
 27
1.0
 37
0.0
 76
     0
330
1E
  0
MLINESTYLE
  5
17
100
AcDbMlineStyle
  2
STANDARD
 70
     0
  3

 62
   256
 51
90.0
 52
90.0
 71
     2
 49
0.5
 62
   256
  6
BYLAYER
 49
-0.5
 62
   256
  6
BYLAYER
  0
ACDBPLACEHOLDER
  5
F
  0
XRECORD
  5
129
100
AcDbXrecord
280
     1
 90
        0
  0
XRECORD
  5
12A
100
AcDbXrecord
280
     1
  1
{46C4153B-0B27-49FA-99B6-AF3E057D65BC}
  0
XRECORD
  5
122
100
AcDbXrecord
280
     1
  1

  0
XRECORD
  5
128
100
AcDbXrecord
280
     1
 90
        0
  0
XRECORD
  5
124
100
AcDbXrecord
280
     1
340
19
  0
XRECORD
  5
127
100
AcDbXrecord
280
     1
 90
    10781
  0
XRECORD
  5
125
100
AcDbXrecord
280
     1
340
18
  0
XRECORD
  5
126
100
AcDbXrecord
280
     1
340
E
  0
XRECORD
  5
12C
100
AcDbXrecord
280
     1
 40
0.0
  0
XRECORD
  5
12F
100
AcDbXrecord
280
     1
340
0
  0
XRECORD
  5
135
100
AcDbXrecord
280
     1
 10
0.0
 20
0.0
 30
0.0
  0
XRECORD
  5
131
100
AcDbXrecord
280
     1
 10
0.0
 20
0.0
 30
0.0
  0
XRECORD
  5
134
100
AcDbXrecord
280
     1
 10
0.0
 20
0.0
 30
0.0
  0
XRECORD
  5
132
100
AcDbXrecord
280
     1
 10
0.0
 20
0.0
 30
0.0
  0
XRECORD
  5
133
100
AcDbXrecord
280
     1
 10
0.0
 20
0.0
 30
0.0
  0
XRECORD
  5
130
100
AcDbXrecord
280
     1
 10
0.0
 20
0.0
 30
0.0
  0
XRECORD
  5
12D
100
AcDbXrecord
280
     1
340
0
  0
XRECORD
  5
12E
100
AcDbXrecord
280
     1
 70
     0
  0
XRECORD
  5
123
100
AcDbXrecord
280
     1
  1

  0
XRECORD
  5
120
100
AcDbXrecord
280
     1
 90
        1
  0
XRECORD
  5
121
100
AcDbXrecord
280
     1
 90
       70
  0
XRECORD
  5
138
100
AcDbXrecord
280
     1
340
0
  0
XRECORD
  5
13E
100
AcDbXrecord
280
     1
 10
0.0
 20
0.0
 30
0.0
  0
XRECORD
  5
13A
100
AcDbXrecord
280
     1
 10
0.0
 20
0.0
 30
0.0
  0
XRECORD
  5
13D
100
AcDbXrecord
280
     1
 10
0.0
 20
0.0
 30
0.0
  0
XRECORD
  5
13B
100
AcDbXrecord
280
     1
 10
0.0
 20
0.0
 30
0.0
  0
XRECORD
  5
13C
100
AcDbXrecord
280
     1
 10
0.0
 20
0.0
 30
0.0
  0
XRECORD
  5
139
100
AcDbXrecord
280
     1
 10
0.0
 20
0.0
 30
0.0
  0
XRECORD
  5
136
100
AcDbXrecord
280
     1
340
0
  0
XRECORD
  5
137
100
AcDbXrecord
280
     1
 70
     0
  0
XRECORD
  5
12B
100
AcDbXrecord
280
     1
  1
{09700D79-BD6A-4B2C-8A65-8ED4ED61BA28}
  0
DICTIONARYVAR
  5
11D
100
DictionaryVariables
280
     0
  1
1
  0
ENDSEC
  0
EOF
