  0
SECTION
  2
HEADER
  9
$ACADVER
  1
AC1006
  9
$DWGCODEPAGE
  3
ansi_1252
  9
$INSBASE
 10
0.0
 20
0.0
 30
0.0
  9
$EXTMIN
 10
-542.33990675
 20
-225.39040704
  9
$EXTMAX
 10
597.00066056
 20
484.07162356
  9
$LIMMIN
 10
-542.33990675
 20
-225.39040704
  9
$LIMMAX
 10
597.00066056
 20
484.07162356
  9
$ORTHOMODE
 70
     0
  9
$REGENMODE
 70
     1
  9
$FILLMODE
 70
     1
  9
$QTEXTMODE
 70
     0
  9
$MIRRTEXT
 70
     1
  9
$DRAGMODE
 70
     2
  9
$LTSCALE
 40
1.0
  9
$OSMODE
 70
    37
  9
$ATTMODE
 70
     1
  9
$TEXTSIZE
 40
1.0
  9
$TRACEWID
 40
0.05
  9
$TEXTSTYLE
  7
STANDARD
  9
$CLAYER
  8
0
  9
$CELTYPE
  6
BYBLOCK
  9
$CECOLOR
 62
   256
  9
$DIMSCALE
 40
1.0
  9
$DIMASZ
 40
0.18
  9
$DIMEXO
 40
0.0625
  9
$DIMDLI
 40
0.38
  9
$DIMRND
 40
0.0
  9
$DIMDLE
 40
0.0
  9
$DIMEXE
 40
0.18
  9
$DIMTP
 40
0.0
  9
$DIMTM
 40
0.0
  9
$DIMTXT
 40
0.18
  9
$DIMCEN
 40
0.09
  9
$DIMTSZ
 40
0.0
  9
$DIMTOL
 70
     0
  9
$DIMLIM
 70
     0
  9
$DIMTIH
 70
     1
  9
$DIMTOH
 70
     1
  9
$DIMSE1
 70
     0
  9
$DIMSE2
 70
     0
  9
$DIMTAD
 70
     0
  9
$DIMZIN
 70
     0
  9
$DIMBLK
  1

  9
$DIMASO
 70
     1
  9
$DIMSHO
 70
     1
  9
$DIMPOST
  1

  9
$DIMAPOST
  1

  9
$DIMALT
 70
     0
  9
$DIMALTD
 70
     2
  9
$DIMALTF
 40
25.4
  9
$DIMLFAC
 40
1.0
  9
$DIMTOFL
 70
     0
  9
$DIMTVP
 40
0.0
  9
$DIMTIX
 70
     0
  9
$DIMSOXD
 70
     0
  9
$DIMSAH
 70
     0
  9
$DIMBLK1
  1

  9
$DIMBLK2
  1

  9
$LUNITS
 70
     2
  9
$LUPREC
 70
     4
  9
$SKETCHINC
 40
0.1
  9
$FILLETRAD
 40
0.5
  9
$AUNITS
 70
     0
  9
$AUPREC
 70
     0
  9
$MENU
  1
.
  9
$ELEVATION
 40
0.0
  9
$THICKNESS
 40
0.0
  9
$LIMCHECK
 70
     0
  9
$CHAMFERA
 40
0.0
  9
$CHAMFERB
 40
0.0
  9
$SKPOLY
 70
     0
  9
$TDCREATE
 40
2447893.125
  9
$TDUPDATE
 40
2460791.474809896
  9
$TDINDWG
 40
0.0
  9
$TDUSRTIMER
 40
0.0
  9
$USRTIMER
 70
     1
  9
$ANGBASE
 50
0.0
  9
$ANGDIR
 70
     0
  9
$PDMODE
 70
     0
  9
$PDSIZE
 40
0.0
  9
$PLINEWID
 40
0.0
  9
$COORDS
 70
     1
  9
$SPLFRAME
 70
     0
  9
$SPLINETYPE
 70
     6
  9
$SPLINESEGS
 70
     8
  9
$ATTDIA
 70
     0
  9
$ATTREQ
 70
     1
  9
$HANDLING
 70
     1
  9
$HANDSEED
  5
D24
  9
$SURFTAB1
 70
     6
  9
$SURFTAB2
 70
     6
  9
$SURFTYPE
 70
     6
  9
$SURFU
 70
     6
  9
$SURFV
 70
     6
  9
$UCSNAME
  2

  9
$UCSORG
 10
0.0
 20
0.0
 30
0.0
  9
$UCSXDIR
 10
1.0
 20
0.0
 30
0.0
  9
$UCSYDIR
 10
0.0
 20
1.0
 30
0.0
  9
$USERI1
 70
     0
  9
$USERI2
 70
     0
  9
$USERI3
 70
     0
  9
$USERI4
 70
     0
  9
$USERI5
 70
     0
  9
$USERR1
 40
0.0
  9
$USERR2
 40
0.0
  9
$USERR3
 40
0.0
  9
$USERR4
 40
0.0
  9
$USERR5
 40
0.0
  9
$WORLDVIEW
 70
     1
  0
ENDSEC
  0
SECTION
  2
TABLES
  0
TABLE
  2
VPORT
 70
     1
  0
VPORT
  2
*ACTIVE
 70
     0
 10
0.0
 20
0.0
 11
1.0
 21
1.0
 12
27.33037691
 22
129.34060826
 13
0.0
 23
0.0
 14
1.0
 24
1.0
 15
0.0
 25
0.0
 16
0.0
 26
0.0
 36
1.0
 17
0.0
 27
0.0
 37
0.0
 40
709.462030602
 41
1.605921837
 42
50.0
 43
0.0
 44
0.0
 50
0.0
 51
0.0
 71
     0
 72
   100
 73
     1
 74
     1
 75
     0
 76
     0
 77
     0
 78
     0
  0
ENDTAB
  0
TABLE
  2
LTYPE
 70
    19
  0
LTYPE
  2
CONTINUOUS
 70
     0
  3
Solid line
 72
    65
 73
     0
 40
0.0
  0
LTYPE
  2
DOT
 70
     0
  3
..............
 72
    65
 73
     2
 40
2.0
 49
0.5
 49
-1.5
  0
LTYPE
  2
HIDDEN
 70
     0
  3
-- -- -- -- --
 72
    65
 73
     2
 40
7.0
 49
4.0
 49
-3.0
  0
LTYPE
  2
DASHDOT
 70
     0
  3
--.--.--.--.--
 72
    65
 73
     4
 40
8.5
 49
4.0
 49
-2.0
 49
0.5
 49
-2.0
  0
LTYPE
  2
STRICHPUNKT2
 70
     0
  3
--.--.--.--.--
 72
    65
 73
     4
 40
18.5
 49
10.0
 49
-4.0
 49
0.5
 49
-4.0
  0
LTYPE
  2
STRICHPUNKT3
 70
     0
  3
--.--.--.--.--
 72
    65
 73
     4
 40
35.5
 49
25.0
 49
-5.0
 49
0.5
 49
-5.0
  0
LTYPE
  2
PHANTOM
 70
     0
  3
--..--..--..--
 72
    65
 73
     6
 40
23.0
 49
10.0
 49
-4.0
 49
0.5
 49
-4.0
 49
0.5
 49
-4.0
  0
LTYPE
  2
PHANTOM2
 70
     0
  3
--..--..--..--
 72
    65
 73
     6
 40
33.0
 49
20.0
 49
-4.0
 49
0.5
 49
-4.0
 49
0.5
 49
-4.0
  0
LTYPE
  2
PHANTOM3
 70
     0
  3
--..--..--..--
 72
    65
 73
     6
 40
50.0
 49
37.0
 49
-4.0
 49
0.5
 49
-4.0
 49
0.5
 49
-4.0
  0
LTYPE
  2
STR3PKT
 70
     0
  3
--...--...--...
 72
    65
 73
     8
 40
31.5
 49
20.0
 49
-2.5
 49
0.5
 49
-2.5
 49
0.5
 49
-2.5
 49
0.5
 49
-2.5
  0
LTYPE
  2
2STRPKT
 70
     0
  3
--.--.--.--.--
 72
    65
 73
     6
 40
28.0
 49
10.0
 49
-2.5
 49
10.0
 49
-2.5
 49
0.5
 49
-2.5
  0
LTYPE
  2
GESTRICHELT2
 70
     0
  3
-- -- -- -- --
 72
    65
 73
     2
 40
25.0
 49
10.0
 49
-15.0
  0
LTYPE
  2
2STR2PKT
 70
     0
  3
--..--..--..--
 72
    65
 73
     8
 40
31.0
 49
10.0
 49
-2.5
 49
10.0
 49
-2.5
 49
0.5
 49
-2.5
 49
0.5
 49
-2.5
  0
LTYPE
  2
STR3PKT2
 70
     0
  3
--...--...--...
 72
    65
 73
     8
 40
21.0
 49
10.0
 49
-2.5
 49
0.5
 49
-2.5
 49
0.5
 49
-2.5
 49
0.5
 49
-2.0
  0
LTYPE
  2
2STR3PKT
 70
     0
  3
--...--...--...
 72
    65
 73
    10
 40
34.0
 49
10.0
 49
-2.5
 49
10.0
 49
-2.5
 49
0.5
 49
-2.5
 49
0.5
 49
-2.5
 49
0.5
 49
-2.5
  0
LTYPE
  2
STRKSTR
 70
     0
  3
-- - -- - -- -
 72
    65
 73
     4
 40
30.0
 49
20.0
 49
-2.5
 49
5.0
 49
-2.5
  0
LTYPE
  2
STRKSTR2
 70
     0
  3
-- - -- - -- -
 72
    65
 73
     6
 40
37.5
 49
20.0
 49
-2.5
 49
5.0
 49
-2.5
 49
5.0
 49
-2.5
  0
LTYPE
  2
STRKSTR3
 70
     0
  3
-- - -- - -- -
 72
    65
 73
     8
 40
45.0
 49
20.0
 49
-2.5
 49
5.0
 49
-2.5
 49
5.0
 49
-2.5
 49
5.0
 49
-2.5
  0
LTYPE
  2
PUNKT2
 70
     0
  3
..............
 72
    65
 73
     2
 40
3.5
 49
0.5
 49
-3.0
  0
ENDTAB
  0
TABLE
  2
LAYER
 70
    16
  0
LAYER
  2
0
 70
     0
 62
     7
  6
CONTINUOUS
  0
LAYER
  2
LE_GREEN
 70
     0
 62
     3
  6
CONTINUOUS
  0
LAYER
  2
LE_RED
 70
     0
 62
     1
  6
CONTINUOUS
  0
LAYER
  2
LE_ALL
 70
     0
 62
     7
  6
CONTINUOUS
  0
LAYER
  2
LE_HIDDEN1
 70
     0
 62
     3
  6
HIDDEN
  0
LAYER
  2
LE_HIDDEN
 70
     0
 62
     7
  6
CONTINUOUS
  0
LAYER
  2
LE_MIDDLE
 70
     0
 62
     7
  6
CONTINUOUS
  0
LAYER
  2
TXT_YELLOW
 70
     0
 62
     2
  6
CONTINUOUS
  0
LAYER
  2
TXT_DIM49
 70
     0
 62
     2
  6
CONTINUOUS
  0
LAYER
  2
TXT_ALL
 70
     0
 62
     7
  6
CONTINUOUS
  0
LAYER
  2
DIM49
 70
     0
 62
     4
  6
CONTINUOUS
  0
LAYER
  2
HATCH
 70
     0
 62
     3
  6
CONTINUOUS
  0
LAYER
  2
APPLE
 70
     0
 62
     7
  6
CONTINUOUS
  0
LAYER
  2
10
 70
     0
 62
     7
  6
CONTINUOUS
  0
LAYER
  2
20
 70
     0
 62
     7
  6
CONTINUOUS
  0
LAYER
  2
49
 70
     0
 62
     7
  6
CONTINUOUS
  0
ENDTAB
  0
TABLE
  2
STYLE
 70
     5
  0
STYLE
  2
MONOTXT
 70
     0
 40
0.0
 41
1.0
 50
0.0
 71
     0
 42
1.0
  3
monotxt.shx
  4

  0
STYLE
  2
STANDARD
 70
     0
 40
0.0
 41
1.0
 50
0.0
 71
     0
 42
1.0
  3
txt
  4

  0
STYLE
  2
ARIAL
 70
     0
 40
0.0
 41
1.0
 50
0.0
 71
     0
 42
1.0
  3
arial.ttf
  4

  0
STYLE
  2
ARIAL_NARROW
 70
     0
 40
0.0
 41
1.0
 50
0.0
 71
     0
 42
1.0
  3
ArialN.ttf
  4

  0
STYLE
  2
ISOCPEUR
 70
     0
 40
0.0
 41
1.0
 50
0.0
 71
     0
 42
1.0
  3
ISOCPEUR.ttf
  4

  0
ENDTAB
  0
TABLE
  2
VIEW
 70
     0
  0
ENDTAB
  0
TABLE
  2
UCS
 70
     0
  0
ENDTAB
  0
ENDSEC
  0
SECTION
  2
BLOCKS
  0
BLOCK
  8
0
  2
_D1
 70
     0
 10
222.83096963
 20
197.62835984
 30
0.0
  0
TEXT
  5
80E
  8
TXT_DIM49
 10
222.83096963
 20
197.62835984
 30
0.0
 40
2.5
  1
200
  7
ARIAL
  0
LINE
  5
80F
  8
DIM49
 10
324.71065613
 20
195.12835984
 30
0.0
 11
326.71065613
 21
197.12835984
 31
0.0
  0
LINE
  5
810
  8
DIM49
 10
126.46078935
 20
196.87835984
 30
0.0
 11
124.96078935
 21
195.37835984
 31
0.0
  0
LINE
  5
811
  8
DIM49
 10
325.71065613
 20
196.12835984
 30
0.0
 11
125.71078935
 21
196.12835984
 31
0.0
  0
LINE
  5
812
  8
DIM49
 10
325.71065613
 20
198.12835984
 30
0.0
 11
325.71065613
 21
194.12835984
 31
0.0
  0
LINE
  5
813
  8
DIM49
 10
125.71078935
 20
198.12835984
 30
0.0
 11
125.71078935
 21
194.12835984
 31
0.0
  0
ENDBLK
  8
0
  0
BLOCK
  8
0
  2
_D2
 70
     0
 10
117.19354366
 20
240.61680362
 30
0.0
  0
TEXT
  5
816
  8
TXT_DIM49
 10
117.19354366
 20
240.61680362
 30
0.0
 40
2.5
  1
75
 50
90.00020741
  7
ARIAL
  0
LINE
  5
817
  8
DIM49
 10
117.69354366
 20
206.03661686
 30
0.0
 11
119.69354366
 21
204.03661686
 31
0.0
  0
LINE
  5
818
  8
DIM49
 10
119.44354366
 20
279.28666127
 30
0.0
 11
117.94354366
 21
280.78666127
 31
0.0
  0
LINE
  5
819
  8
DIM49
 10
118.69354366
 20
205.03661686
 30
0.0
 11
118.69354366
 21
280.03666127
 31
0.0
  0
LINE
  5
81A
  8
DIM49
 10
120.69354366
 20
205.03661686
 30
0.0
 11
116.69354366
 21
205.03661686
 31
0.0
  0
LINE
  5
81B
  8
DIM49
 10
120.69354366
 20
280.03666127
 30
0.0
 11
116.69354366
 21
280.03666127
 31
0.0
  0
ENDBLK
  8
0
  0
BLOCK
  8
0
  2
_D3
 70
     0
 10
127.25087163
 20
285.75489839
 30
0.0
  0
TEXT
  5
81E
  8
TXT_DIM49
 10
127.25087163
 20
285.75489839
 30
0.0
 40
2.5
  1
5
  7
ARIAL
  0
LINE
  5
81F
  8
DIM49
 10
129.71078935
 20
283.25489839
 30
0.0
 11
131.71078935
 21
285.25489839
 31
0.0
  0
LINE
  5
820
  8
DIM49
 10
126.46078935
 20
285.00489839
 30
0.0
 11
124.96078935
 21
283.50489839
 31
0.0
  0
LINE
  5
821
  8
DIM49
 10
130.71078935
 20
284.25489839
 30
0.0
 11
125.71078935
 21
284.25489839
 31
0.0
  0
LINE
  5
822
  8
DIM49
 10
130.71078935
 20
282.25489839
 30
0.0
 11
130.71078935
 21
286.25489839
 31
0.0
  0
LINE
  5
823
  8
DIM49
 10
125.71078935
 20
282.25489839
 30
0.0
 11
125.71078935
 21
286.25489839
 31
0.0
  0
ENDBLK
  8
0
  0
BLOCK
  8
0
  2
_D4
 70
     0
 10
147.45975215
 20
129.13214198
 30
0.0
  0
TEXT
  5
82E
  8
TXT_DIM49
 10
147.45975215
 20
129.13214198
 30
0.0
 40
2.5
  1
62
 50
90.00020741
  7
ARIAL
  0
LINE
  5
82F
  8
DIM49
 10
149.95975215
 20
161.05197743
 30
0.0
 11
147.95975215
 21
163.05197743
 31
0.0
  0
LINE
  5
830
  8
DIM49
 10
148.20975215
 20
100.80197743
 30
0.0
 11
149.70975215
 21
99.30197743
 31
0.0
  0
LINE
  5
831
  8
DIM49
 10
148.95975215
 20
162.05197743
 30
0.0
 11
148.95975215
 21
100.05197743
 31
0.0
  0
ENDBLK
  8
0
  0
BLOCK
  8
0
  2
_D5
 70
     0
 10
301.96104605
 20
173.54303142
 30
0.0
  0
TEXT
  5
846
  8
TXT_DIM49
 10
301.96104605
 20
173.54303142
 30
0.0
 40
2.5
  1
25
 50
90.00020741
  7
ARIAL
  0
LINE
  5
847
  8
DIM49
 10
301.46104605
 20
172.79303142
 30
0.0
 11
299.96104605
 21
171.29303142
 31
0.0
  0
LINE
  5
848
  8
DIM49
 10
325.71104605
 20
172.04303142
 30
0.0
 11
300.71104605
 21
172.04303142
 31
0.0
  0
LINE
  5
849
  8
DIM49
 10
300.71104605
 20
170.04303142
 30
0.0
 11
300.71104605
 21
173.04303142
 31
0.0
  0
ENDBLK
  8
0
  0
BLOCK
  8
0
  2
_D6
 70
     0
 10
281.14041276
 20
173.54303142
 30
0.0
  0
TEXT
  5
84C
  8
TXT_DIM49
 10
281.14041276
 20
173.54303142
 30
0.0
 40
2.5
  1
45
 50
90.00020741
  7
ARIAL
  0
LINE
  5
84D
  8
DIM49
 10
281.46104605
 20
172.79303142
 30
0.0
 11
279.96104605
 21
171.29303142
 31
0.0
  0
LINE
  5
84E
  8
DIM49
 10
325.71104605
 20
172.04303142
 30
0.0
 11
280.71104605
 21
172.04303142
 31
0.0
  0
LINE
  5
84F
  8
DIM49
 10
280.71104605
 20
170.04303142
 30
0.0
 11
280.71104605
 21
172.86066846
 31
0.0
  0
ENDBLK
  8
0
  0
BLOCK
  8
0
  2
_D7
 70
     0
 10
261.96104605
 20
173.54303142
 30
0.0
  0
TEXT
  5
852
  8
TXT_DIM49
 10
261.96104605
 20
173.54303142
 30
0.0
 40
2.5
  1
65
 50
90.00020741
  7
ARIAL
  0
LINE
  5
853
  8
DIM49
 10
261.46104605
 20
172.79303142
 30
0.0
 11
259.96104605
 21
171.29303142
 31
0.0
  0
LINE
  5
854
  8
DIM49
 10
325.71104605
 20
172.04303142
 30
0.0
 11
260.71104605
 21
172.04303142
 31
0.0
  0
LINE
  5
855
  8
DIM49
 10
260.71104605
 20
170.04303142
 30
0.0
 11
260.71104605
 21
173.04303142
 31
0.0
  0
ENDBLK
  8
0
  0
BLOCK
  8
0
  2
_D8
 70
     0
 10
231.96104605
 20
173.54303142
 30
0.0
  0
TEXT
  5
858
  8
TXT_DIM49
 10
231.96104605
 20
173.54303142
 30
0.0
 40
2.5
  1
95
 50
90.00020741
  7
ARIAL
  0
LINE
  5
859
  8
DIM49
 10
231.46104605
 20
172.79303142
 30
0.0
 11
229.96104605
 21
171.29303142
 31
0.0
  0
LINE
  5
85A
  8
DIM49
 10
325.71104605
 20
172.04303142
 30
0.0
 11
230.71104605
 21
172.04303142
 31
0.0
  0
LINE
  5
85B
  8
DIM49
 10
230.71104605
 20
170.04303142
 30
0.0
 11
230.71104605
 21
173.04303142
 31
0.0
  0
ENDBLK
  8
0
  0
BLOCK
  8
0
  2
_D9
 70
     0
 10
211.96104605
 20
173.54303142
 30
0.0
  0
TEXT
  5
85E
  8
TXT_DIM49
 10
211.96104605
 20
173.54303142
 30
0.0
 40
2.5
  1
115
 50
90.00020741
  7
ARIAL
  0
LINE
  5
85F
  8
DIM49
 10
211.46104605
 20
172.79303142
 30
0.0
 11
209.96104605
 21
171.29303142
 31
0.0
  0
LINE
  5
860
  8
DIM49
 10
325.71104605
 20
172.04303142
 30
0.0
 11
210.71104605
 21
172.04303142
 31
0.0
  0
LINE
  5
861
  8
DIM49
 10
210.71104605
 20
170.04303142
 30
0.0
 11
210.71104605
 21
173.04303142
 31
0.0
  0
ENDBLK
  8
0
  0
BLOCK
  8
0
  2
_D10
 70
     0
 10
326.96104605
 20
173.54303142
 30
0.0
  0
TEXT
  5
864
  8
TXT_DIM49
 10
326.96104605
 20
173.54303142
 30
0.0
 40
2.5
  1
0
 50
90.00020741
  7
ARIAL
  0
POLYLINE
  5
865
  8
DIM49
 66
     1
 10
0.0
 20
0.0
 30
0.0
 70
     1
  0
VERTEX
  5
866
  8
DIM49
 10
326.07326824
 20
172.14008856
 30
0.0
  0
VERTEX
  5
867
  8
DIM49
 10
326.03580558
 20
172.23053142
 30
0.0
  0
VERTEX
  5
868
  8
DIM49
 10
325.9762111
 20
172.30819646
 30
0.0
  0
VERTEX
  5
869
  8
DIM49
 10
325.89854605
 20
172.36779094
 30
0.0
  0
VERTEX
  5
86A
  8
DIM49
 10
325.8081032
 20
172.4052536
 30
0.0
  0
VERTEX
  5
86B
  8
DIM49
 10
325.71104605
 20
172.41803142
 30
0.0
  0
VERTEX
  5
86C
  8
DIM49
 10
325.61398891
 20
172.4052536
 30
0.0
  0
VERTEX
  5
86D
  8
DIM49
 10
325.52354605
 20
172.36779094
 30
0.0
  0
VERTEX
  5
86E
  8
DIM49
 10
325.44588101
 20
172.30819646
 30
0.0
  0
VERTEX
  5
86F
  8
DIM49
 10
325.38628653
 20
172.23053142
 30
0.0
  0
VERTEX
  5
870
  8
DIM49
 10
325.34882387
 20
172.14008856
 30
0.0
  0
VERTEX
  5
871
  8
DIM49
 10
325.33604605
 20
172.04303142
 30
0.0
  0
VERTEX
  5
872
  8
DIM49
 10
325.34882387
 20
171.94597427
 30
0.0
  0
VERTEX
  5
873
  8
DIM49
 10
325.38628653
 20
171.85553142
 30
0.0
  0
VERTEX
  5
874
  8
DIM49
 10
325.44588101
 20
171.77786637
 30
0.0
  0
VERTEX
  5
875
  8
DIM49
 10
325.52354605
 20
171.71827189
 30
0.0
  0
VERTEX
  5
876
  8
DIM49
 10
325.61398891
 20
171.68080923
 30
0.0
  0
VERTEX
  5
877
  8
DIM49
 10
325.71104605
 20
171.66803142
 30
0.0
  0
VERTEX
  5
878
  8
DIM49
 10
325.8081032
 20
171.68080923
 30
0.0
  0
VERTEX
  5
879
  8
DIM49
 10
325.89854605
 20
171.71827189
 30
0.0
  0
VERTEX
  5
87A
  8
DIM49
 10
325.9762111
 20
171.77786637
 30
0.0
  0
VERTEX
  5
87B
  8
DIM49
 10
326.03580558
 20
171.85553142
 30
0.0
  0
VERTEX
  5
87C
  8
DIM49
 10
326.07326824
 20
171.94597427
 30
0.0
  0
VERTEX
  5
87D
  8
DIM49
 10
326.08604605
 20
172.04303142
 30
0.0
  0
SEQEND
  5
87E
  8
DIM49
  0
LINE
  5
87F
  8
DIM49
 10
325.45869818
 20
171.76803142
 30
0.0
 11
325.96339393
 21
171.76803142
 31
0.0
  0
LINE
  5
880
  8
DIM49
 10
325.34591999
 20
171.96803142
 30
0.0
 11
326.07617212
 21
171.96803142
 31
0.0
  0
LINE
  5
881
  8
DIM49
 10
326.06169393
 20
172.16803142
 30
0.0
 11
325.36039818
 21
172.16803142
 31
0.0
  0
LINE
  5
882
  8
DIM49
 10
325.8979655
 20
172.36803142
 30
0.0
 11
325.52412661
 21
172.36803142
 31
0.0
  0
LINE
  5
883
  8
DIM49
 10
325.71104605
 20
170.04303142
 30
0.0
 11
325.71104605
 21
173.04303142
 31
0.0
  0
ENDBLK
  8
0
  0
BLOCK
  8
0
  2
_D11
 70
     0
 10
311.2912106
 20
173.54303142
 30
0.0
  0
TEXT
  5
886
  8
TXT_DIM49
 10
311.2912106
 20
173.54303142
 30
0.0
 40
2.5
  1
25
  7
ARIAL
  0
LINE
  5
887
  8
DIM49
 10
324.71104605
 20
171.04303142
 30
0.0
 11
326.71104605
 21
173.04303142
 31
0.0
  0
LINE
  5
888
  8
DIM49
 10
301.46104605
 20
172.79303142
 30
0.0
 11
299.96104605
 21
171.29303142
 31
0.0
  0
LINE
  5
889
  8
DIM49
 10
325.71104605
 20
172.04303142
 30
0.0
 11
300.71104605
 21
172.04303142
 31
0.0
  0
LINE
  5
88A
  8
DIM49
 10
325.71104605
 20
170.04303142
 30
0.0
 11
325.71104605
 21
174.04303142
 31
0.0
  0
LINE
  5
88B
  8
DIM49
 10
300.71104605
 20
170.04303142
 30
0.0
 11
300.71104605
 21
174.04303142
 31
0.0
  0
ENDBLK
  8
0
  0
BLOCK
  8
0
  2
_D12
 70
     0
 10
288.7912106
 20
173.54303142
 30
0.0
  0
TEXT
  5
88E
  8
TXT_DIM49
 10
288.7912106
 20
173.54303142
 30
0.0
 40
2.5
  1
20
  7
ARIAL
  0
LINE
  5
88F
  8
DIM49
 10
299.71104605
 20
171.04303142
 30
0.0
 11
301.71104605
 21
173.04303142
 31
0.0
  0
LINE
  5
890
  8
DIM49
 10
281.46104605
 20
172.79303142
 30
0.0
 11
279.96104605
 21
171.29303142
 31
0.0
  0
LINE
  5
891
  8
DIM49
 10
300.71104605
 20
172.04303142
 30
0.0
 11
280.71104605
 21
172.04303142
 31
0.0
  0
LINE
  5
892
  8
DIM49
 10
300.71104605
 20
170.04303142
 30
0.0
 11
300.71104605
 21
174.04303142
 31
0.0
  0
LINE
  5
893
  8
DIM49
 10
280.71104605
 20
170.04303142
 30
0.0
 11
280.71104605
 21
174.04303142
 31
0.0
  0
ENDBLK
  8
0
  0
BLOCK
  8
0
  2
_D13
 70
     0
 10
268.7912106
 20
173.54303142
 30
0.0
  0
TEXT
  5
896
  8
TXT_DIM49
 10
268.7912106
 20
173.54303142
 30
0.0
 40
2.5
  1
20
  7
ARIAL
  0
LINE
  5
897
  8
DIM49
 10
279.71104605
 20
171.04303142
 30
0.0
 11
281.71104605
 21
173.04303142
 31
0.0
  0
LINE
  5
898
  8
DIM49
 10
261.46104605
 20
172.79303142
 30
0.0
 11
259.96104605
 21
171.29303142
 31
0.0
  0
LINE
  5
899
  8
DIM49
 10
280.71104605
 20
172.04303142
 30
0.0
 11
260.71104605
 21
172.04303142
 31
0.0
  0
LINE
  5
89A
  8
DIM49
 10
280.71104605
 20
170.04303142
 30
0.0
 11
280.71104605
 21
174.04303142
 31
0.0
  0
LINE
  5
89B
  8
DIM49
 10
260.71104605
 20
170.04303142
 30
0.0
 11
260.71104605
 21
174.04303142
 31
0.0
  0
ENDBLK
  8
0
  0
BLOCK
  8
0
  2
_D14
 70
     0
 10
243.7912106
 20
173.54303142
 30
0.0
  0
TEXT
  5
89E
  8
TXT_DIM49
 10
243.7912106
 20
173.54303142
 30
0.0
 40
2.5
  1
30
  7
ARIAL
  0
LINE
  5
89F
  8
DIM49
 10
259.71104605
 20
171.04303142
 30
0.0
 11
261.71104605
 21
173.04303142
 31
0.0
  0
LINE
  5
8A0
  8
DIM49
 10
231.46104605
 20
172.79303142
 30
0.0
 11
229.96104605
 21
171.29303142
 31
0.0
  0
LINE
  5
8A1
  8
DIM49
 10
260.71104605
 20
172.04303142
 30
0.0
 11
230.71104605
 21
172.04303142
 31
0.0
  0
LINE
  5
8A2
  8
DIM49
 10
260.71104605
 20
170.04303142
 30
0.0
 11
260.71104605
 21
174.04303142
 31
0.0
  0
LINE
  5
8A3
  8
DIM49
 10
230.71104605
 20
170.04303142
 30
0.0
 11
230.71104605
 21
174.04303142
 31
0.0
  0
ENDBLK
  8
0
  0
BLOCK
  8
0
  2
_D15
 70
     0
 10
218.7912106
 20
173.54303142
 30
0.0
  0
TEXT
  5
8A6
  8
TXT_DIM49
 10
218.7912106
 20
173.54303142
 30
0.0
 40
2.5
  1
20
  7
ARIAL
  0
LINE
  5
8A7
  8
DIM49
 10
229.71104605
 20
171.04303142
 30
0.0
 11
231.71104605
 21
173.04303142
 31
0.0
  0
LINE
  5
8A8
  8
DIM49
 10
211.46104605
 20
172.79303142
 30
0.0
 11
209.96104605
 21
171.29303142
 31
0.0
  0
LINE
  5
8A9
  8
DIM49
 10
230.71104605
 20
172.04303142
 30
0.0
 11
210.71104605
 21
172.04303142
 31
0.0
  0
LINE
  5
8AA
  8
DIM49
 10
230.71104605
 20
170.04303142
 30
0.0
 11
230.71104605
 21
174.04303142
 31
0.0
  0
LINE
  5
8AB
  8
DIM49
 10
210.71104605
 20
170.04303142
 30
0.0
 11
210.71104605
 21
174.04303142
 31
0.0
  0
ENDBLK
  8
0
  0
BLOCK
  8
0
  2
_D16
 70
     0
 10
298.7912106
 20
141.76705703
 30
0.0
  0
TEXT
  5
8AE
  8
TXT_DIM49
 10
298.7912106
 20
141.76705703
 30
0.0
 40
2.5
  1
50
  7
ARIAL
  0
LINE
  5
8AF
  8
DIM49
 10
324.71104605
 20
139.26705703
 30
0.0
 11
326.71104605
 21
141.26705703
 31
0.0
  0
LINE
  5
8B0
  8
DIM49
 10
276.46104605
 20
141.01705703
 30
0.0
 11
274.96104605
 21
139.51705703
 31
0.0
  0
LINE
  5
8B1
  8
DIM49
 10
325.71104605
 20
140.26705703
 30
0.0
 11
275.71104605
 21
140.26705703
 31
0.0
  0
LINE
  5
8B2
  8
DIM49
 10
325.71104605
 20
138.26705703
 30
0.0
 11
325.71104605
 21
142.26705703
 31
0.0
  0
LINE
  5
8B3
  8
DIM49
 10
275.71104605
 20
138.26705703
 30
0.0
 11
275.71104605
 21
142.26705703
 31
0.0
  0
ENDBLK
  8
0
  0
BLOCK
  8
0
  2
_D17
 70
     0
 10
233.7912106
 20
141.76705703
 30
0.0
  0
TEXT
  5
8B6
  8
TXT_DIM49
 10
233.7912106
 20
141.76705703
 30
0.0
 40
2.5
  1
80
  7
ARIAL
  0
LINE
  5
8B7
  8
DIM49
 10
274.71104605
 20
139.26705703
 30
0.0
 11
276.71104605
 21
141.26705703
 31
0.0
  0
LINE
  5
8B8
  8
DIM49
 10
196.46104605
 20
141.01705703
 30
0.0
 11
194.96104605
 21
139.51705703
 31
0.0
  0
LINE
  5
8B9
  8
DIM49
 10
275.71104605
 20
140.26705703
 30
0.0
 11
195.71104605
 21
140.26705703
 31
0.0
  0
LINE
  5
8BA
  8
DIM49
 10
275.71104605
 20
138.26705703
 30
0.0
 11
275.71104605
 21
142.26705703
 31
0.0
  0
LINE
  5
8BB
  8
DIM49
 10
195.71104605
 20
138.26705703
 30
0.0
 11
195.71104605
 21
142.26705703
 31
0.0
  0
ENDBLK
  8
0
  0
BLOCK
  8
0
  2
_D18
 70
     0
 10
176.2912106
 20
141.76705703
 30
0.0
  0
TEXT
  5
8BE
  8
TXT_DIM49
 10
176.2912106
 20
141.76705703
 30
0.0
 40
2.5
  1
35
  7
ARIAL
  0
LINE
  5
8BF
  8
DIM49
 10
194.71104605
 20
139.26705703
 30
0.0
 11
196.71104605
 21
141.26705703
 31
0.0
  0
LINE
  5
8C0
  8
DIM49
 10
161.46104605
 20
141.01705703
 30
0.0
 11
159.96104605
 21
139.51705703
 31
0.0
  0
LINE
  5
8C1
  8
DIM49
 10
195.71104605
 20
140.26705703
 30
0.0
 11
160.71104605
 21
140.26705703
 31
0.0
  0
LINE
  5
8C2
  8
DIM49
 10
195.71104605
 20
138.26705703
 30
0.0
 11
195.71104605
 21
142.26705703
 31
0.0
  0
LINE
  5
8C3
  8
DIM49
 10
160.71104605
 20
138.26705703
 30
0.0
 11
160.71104605
 21
142.26705703
 31
0.0
  0
ENDBLK
  8
0
  0
BLOCK
  8
0
  2
_D19
 70
     0
 10
331.463759
 20
129.13214198
 30
0.0
  0
TEXT
  5
8C6
  8
TXT_DIM49
 10
331.463759
 20
129.13214198
 30
0.0
 40
2.5
  1
72
 50
90.00020741
  7
ARIAL
  0
LINE
  5
8C7
  8
DIM49
 10
333.963759
 20
166.05197743
 30
0.0
 11
331.963759
 21
168.05197743
 31
0.0
  0
LINE
  5
8C8
  8
DIM49
 10
332.213759
 20
95.80197743
 30
0.0
 11
333.713759
 21
94.30197743
 31
0.0
  0
LINE
  5
8C9
  8
DIM49
 10
332.963759
 20
167.05197743
 30
0.0
 11
332.963759
 21
95.05197743
 31
0.0
  0
LINE
  5
8CA
  8
DIM49
 10
330.963759
 20
167.05197743
 30
0.0
 11
334.963759
 21
167.05197743
 31
0.0
  0
LINE
  5
8CB
  8
DIM49
 10
330.963759
 20
95.05197743
 30
0.0
 11
334.963759
 21
95.05197743
 31
0.0
  0
ENDBLK
  8
0
  0
BLOCK
  8
0
  2
_D20
 70
     0
 10
249.6812568
 20
129.13214198
 30
0.0
  0
TEXT
  5
8CE
  8
TXT_DIM49
 10
249.6812568
 20
129.13214198
 30
0.0
 40
2.5
  1
31
 50
90.00020741
  7
ARIAL
  0
LINE
  5
8CF
  8
DIM49
 10
252.1812568
 20
145.55197743
 30
0.0
 11
250.1812568
 21
147.55197743
 31
0.0
  0
LINE
  5
8D0
  8
DIM49
 10
250.4312568
 20
116.30197743
 30
0.0
 11
251.9312568
 21
114.80197743
 31
0.0
  0
LINE
  5
8D1
  8
DIM49
 10
251.1812568
 20
146.55197743
 30
0.0
 11
251.1812568
 21
115.55197743
 31
0.0
  0
LINE
  5
8D2
  8
DIM49
 10
253.1812568
 20
146.55197743
 30
0.0
 11
249.1812568
 21
146.55197743
 31
0.0
  0
LINE
  5
8D3
  8
DIM49
 10
253.1812568
 20
115.55197743
 30
0.0
 11
249.1812568
 21
115.55197743
 31
0.0
  0
ENDBLK
  8
0
  0
BLOCK
  8
0
  2
_D21
 70
     0
 10
-17.87793067
 20
261.11708673
 30
0.0
  0
TEXT
  5
8F9
  8
TXT_DIM49
 10
-17.87793067
 20
261.11708673
 30
0.0
 40
2.5
  1
34
 50
90.00020741
  7
ARIAL
  0
LINE
  5
8FA
  8
DIM49
 10
-15.37793067
 20
279.03687777
 30
0.0
 11
-17.37793067
 21
281.03687777
 31
0.0
  0
LINE
  5
8FB
  8
DIM49
 10
-17.12793067
 20
246.78696659
 30
0.0
 11
-15.62793067
 21
245.28696659
 31
0.0
  0
LINE
  5
8FC
  8
DIM49
 10
-16.37793067
 20
280.03687777
 30
0.0
 11
-16.37793067
 21
246.03696659
 31
0.0
  0
LINE
  5
8FD
  8
DIM49
 10
-14.37793067
 20
280.03687777
 30
0.0
 11
-18.37793067
 21
280.03687777
 31
0.0
  0
LINE
  5
8FE
  8
DIM49
 10
-14.37793067
 20
246.03696659
 30
0.0
 11
-18.37793067
 21
246.03696659
 31
0.0
  0
ENDBLK
  8
0
  0
BLOCK
  8
0
  2
_D22
 70
     0
 10
-17.87793067
 20
223.61706453
 30
0.0
  0
TEXT
  5
901
  8
TXT_DIM49
 10
-17.87793067
 20
223.61706453
 30
0.0
 40
2.5
  1
41
 50
90.00020741
  7
ARIAL
  0
LINE
  5
902
  8
DIM49
 10
-15.37793067
 20
245.03696659
 30
0.0
 11
-17.37793067
 21
247.03696659
 31
0.0
  0
LINE
  5
903
  8
DIM49
 10
-17.12793067
 20
205.78683336
 30
0.0
 11
-15.62793067
 21
204.28683336
 31
0.0
  0
LINE
  5
904
  8
DIM49
 10
-16.37793067
 20
246.03696659
 30
0.0
 11
-16.37793067
 21
205.03683336
 31
0.0
  0
LINE
  5
905
  8
DIM49
 10
-14.37793067
 20
246.03696659
 30
0.0
 11
-18.37793067
 21
246.03696659
 31
0.0
  0
LINE
  5
906
  8
DIM49
 10
-14.37793067
 20
205.03683336
 30
0.0
 11
-18.37793067
 21
205.03683336
 31
0.0
  0
ENDBLK
  8
0
  0
BLOCK
  8
0
  2
_D23
 70
     0
 10
36.47876041
 20
288.53696659
 30
0.0
  0
TEXT
  5
909
  8
TXT_DIM49
 10
36.47876041
 20
288.53696659
 30
0.0
 40
2.5
  1
72
  7
ARIAL
  0
LINE
  5
90A
  8
DIM49
 10
3.39859586
 20
288.03696659
 30
0.0
 11
1.39859586
 21
286.03696659
 31
0.0
  0
LINE
  5
90B
  8
DIM49
 10
73.64859586
 20
286.28696659
 30
0.0
 11
75.14859586
 21
287.78696659
 31
0.0
  0
LINE
  5
90C
  8
DIM49
 10
2.39859586
 20
287.03696659
 30
0.0
 11
74.39859586
 21
287.03696659
 31
0.0
  0
LINE
  5
90D
  8
DIM49
 10
2.39859586
 20
285.03696659
 30
0.0
 11
2.39859586
 21
289.03696659
 31
0.0
  0
LINE
  5
90E
  8
DIM49
 10
74.39859586
 20
285.03696659
 30
0.0
 11
74.39859586
 21
289.03696659
 31
0.0
  0
ENDBLK
  8
0
  0
BLOCK
  8
0
  2
_D24
 70
     0
 10
36.47876041
 20
210.8057777
 30
0.0
  0
TEXT
  5
911
  8
TXT_DIM49
 10
36.47876041
 20
210.8057777
 30
0.0
 40
2.5
  1
31
  7
ARIAL
  0
LINE
  5
912
  8
DIM49
 10
23.89859586
 20
210.3057777
 30
0.0
 11
21.89859586
 21
208.3057777
 31
0.0
  0
LINE
  5
913
  8
DIM49
 10
53.14859586
 20
208.5557777
 30
0.0
 11
54.64859586
 21
210.0557777
 31
0.0
  0
LINE
  5
914
  8
DIM49
 10
22.89859586
 20
209.3057777
 30
0.0
 11
53.89859586
 21
209.3057777
 31
0.0
  0
LINE
  5
915
  8
DIM49
 10
22.89859586
 20
211.3057777
 30
0.0
 11
22.89859586
 21
207.3057777
 31
0.0
  0
LINE
  5
916
  8
DIM49
 10
53.89859586
 20
211.3057777
 30
0.0
 11
53.89859586
 21
207.3057777
 31
0.0
  0
ENDBLK
  8
0
  0
BLOCK
  8
0
  2
_D25
 70
     0
 10
79.12196942
 20
211.11706453
 30
0.0
  0
TEXT
  5
919
  8
TXT_DIM49
 10
79.12196942
 20
211.11706453
 30
0.0
 40
2.5
  1
16
 50
90.00020741
  7
ARIAL
  0
LINE
  5
91A
  8
DIM49
 10
79.62196942
 20
206.03683336
 30
0.0
 11
81.62196942
 21
204.03683336
 31
0.0
  0
LINE
  5
91B
  8
DIM49
 10
81.37196942
 20
220.28696659
 30
0.0
 11
79.87196942
 21
221.78696659
 31
0.0
  0
LINE
  5
91C
  8
DIM49
 10
80.62196942
 20
205.03683336
 30
0.0
 11
80.62196942
 21
221.03696659
 31
0.0
  0
LINE
  5
91D
  8
DIM49
 10
78.62196942
 20
205.03683336
 30
0.0
 11
82.62196942
 21
205.03683336
 31
0.0
  0
LINE
  5
91E
  8
DIM49
 10
78.62196942
 20
221.03696659
 30
0.0
 11
82.62196942
 21
221.03696659
 31
0.0
  0
ENDBLK
  8
0
  0
BLOCK
  8
0
  2
_D26
 70
     0
 10
79.12196942
 20
228.11713114
 30
0.0
  0
TEXT
  5
921
  8
TXT_DIM49
 10
79.12196942
 20
228.11713114
 30
0.0
 40
2.5
  1
18
 50
90.00020741
  7
ARIAL
  0
LINE
  5
922
  8
DIM49
 10
79.62196942
 20
222.03696659
 30
0.0
 11
81.62196942
 21
220.03696659
 31
0.0
  0
LINE
  5
923
  8
DIM49
 10
81.37196942
 20
238.28696659
 30
0.0
 11
79.87196942
 21
239.78696659
 31
0.0
  0
LINE
  5
924
  8
DIM49
 10
80.62196942
 20
221.03696659
 30
0.0
 11
80.62196942
 21
239.03696659
 31
0.0
  0
LINE
  5
925
  8
DIM49
 10
78.62196942
 20
221.03696659
 30
0.0
 11
82.62196942
 21
221.03696659
 31
0.0
  0
LINE
  5
926
  8
DIM49
 10
78.62196942
 20
239.03696659
 30
0.0
 11
82.62196942
 21
239.03696659
 31
0.0
  0
ENDBLK
  8
0
  0
BLOCK
  8
0
  2
_D27
 70
     0
 10
79.12196942
 20
257.61708673
 30
0.0
  0
TEXT
  5
929
  8
TXT_DIM49
 10
79.12196942
 20
257.61708673
 30
0.0
 40
2.5
  1
41
 50
90.00020741
  7
ARIAL
  0
LINE
  5
92A
  8
DIM49
 10
79.62196942
 20
240.03696659
 30
0.0
 11
81.62196942
 21
238.03696659
 31
0.0
  0
LINE
  5
92B
  8
DIM49
 10
81.37196942
 20
279.28687777
 30
0.0
 11
79.87196942
 21
280.78687777
 31
0.0
  0
LINE
  5
92C
  8
DIM49
 10
80.62196942
 20
239.03696659
 30
0.0
 11
80.62196942
 21
280.03687777
 31
0.0
  0
LINE
  5
92D
  8
DIM49
 10
78.62196942
 20
239.03696659
 30
0.0
 11
82.62196942
 21
239.03696659
 31
0.0
  0
LINE
  5
92E
  8
DIM49
 10
78.62196942
 20
280.03687777
 30
0.0
 11
82.62196942
 21
280.03687777
 31
0.0
  0
ENDBLK
  8
0
  0
BLOCK
  8
0
  2
_ZBL0001_00001
 70
     0
 10
0.0
 20
0.0
 30
0.0
  0
INSERT
  5
200
  8
0
  2
DINA3_VIETNAM_00002
 10
-77.78167904
 20
19.84486445
 30
0.0
  0
ENDBLK
  8
0
  0
BLOCK
  8
0
  2
DINA3_VIETNAM_00002
 70
     0
 10
-77.78167904
 20
19.84486445
 30
0.0
  0
POLYLINE
  5
203
  8
0
 66
     1
 10
0.0
 20
0.0
 30
0.0
 70
     1
  0
VERTEX
  5
204
  8
0
 10
-77.78167904
 20
19.84486445
 30
0.0
  0
VERTEX
  5
205
  8
0
 10
342.21832096
 20
19.84486445
 30
0.0
  0
VERTEX
  5
206
  8
0
 10
342.21832096
 20
316.84486445
 30
0.0
  0
VERTEX
  5
207
  8
0
 10
-77.78167904
 20
316.84486445
 30
0.0
  0
SEQEND
  5
208
  8
0
  0
POLYLINE
  5
209
  8
0
 66
     1
 10
0.0
 20
0.0
 30
0.0
 70
     1
  0
VERTEX
  5
20A
  8
0
 10
-72.78167904
 20
24.84486445
 30
0.0
  0
VERTEX
  5
20B
  8
0
 10
337.21832096
 20
24.84486445
 30
0.0
  0
VERTEX
  5
20C
  8
0
 10
337.21832096
 20
311.84486445
 30
0.0
  0
VERTEX
  5
20D
  8
0
 10
-72.78167904
 20
311.84486445
 30
0.0
  0
SEQEND
  5
20E
  8
0
  0
LINE
  5
20F
  8
0
 10
152.21832096
 20
24.84486445
 30
0.0
 11
152.21832096
 21
19.84486445
 31
0.0
  0
LINE
  5
210
  8
0
 10
152.21832096
 20
311.84486445
 30
0.0
 11
152.21832096
 21
316.84486445
 31
0.0
  0
LINE
  5
211
  8
0
 10
-57.78167904
 20
24.84486445
 30
0.0
 11
-57.78167904
 21
19.84486445
 31
0.0
  0
LINE
  5
212
  8
0
 10
-57.78167904
 20
311.84486445
 30
0.0
 11
-57.78167904
 21
316.84486445
 31
0.0
  0
TEXT
  5
213
  8
TXT_ALL
 62
     4
 10
341.21832096
 20
20.84486445
 30
0.0
 40
2.5
  1

 50
90.00020741
  0
POLYLINE
  5
214
  8
0
 66
     1
 10
0.0
 20
0.0
 30
0.0
  0
VERTEX
  5
215
  8
0
 10
337.21832096
 20
301.84486445
 30
0.0
  0
VERTEX
  5
216
  8
0
 10
268.22502096
 20
301.84486445
 30
0.0
  0
VERTEX
  5
217
  8
0
 10
268.22502096
 20
311.84486445
 30
0.0
  0
SEQEND
  5
218
  8
0
  0
LINE
  5
219
  8
0
 10
270.12832096
 20
44.34486445
 30
0.0
 11
130.23832096
 21
44.34486445
 31
0.0
  0
LINE
  5
21A
  8
0
 10
130.23832096
 20
34.59486445
 30
0.0
 11
270.12832096
 21
34.59486445
 31
0.0
  0
POLYLINE
  5
21B
  8
0
 66
     1
 10
0.0
 20
0.0
 30
0.0
  0
VERTEX
  5
21C
  8
0
 10
130.23832096
 20
44.34486445
 30
0.0
  0
VERTEX
  5
21D
  8
0
 10
130.23832096
 20
34.59486445
 30
0.0
  0
VERTEX
  5
21E
  8
0
 10
130.23832096
 20
24.84486445
 30
0.0
  0
SEQEND
  5
21F
  8
0
  0
POLYLINE
  5
220
  8
0
 66
     1
 10
0.0
 20
0.0
 30
0.0
  0
VERTEX
  5
221
  8
0
 10
200.18332096
 20
44.34486445
 30
0.0
  0
VERTEX
  5
222
  8
0
 10
200.18332096
 20
34.59486445
 30
0.0
  0
VERTEX
  5
223
  8
0
 10
200.18332096
 20
24.84486445
 30
0.0
  0
SEQEND
  5
224
  8
0
  0
INSERT
  5
225
  8
0
  2
FLEX_00003
 10
132.23832096
 20
39.46986445
 30
0.0
  0
INSERT
  5
226
  8
0
  2
FLEX_00005
 10
132.23832096
 20
29.71986445
 30
0.0
  0
INSERT
  5
227
  8
0
  2
FLEX_00007
 10
202.18332096
 20
29.71986445
 30
0.0
  0
INSERT
  5
228
  8
0
  2
FLEX_00009
 10
202.18332096
 20
39.46986445
 30
0.0
  0
INSERT
  5
229
  8
0
  2
SCHRIFE_00011
 10
-69.33971879
 20
306.84486445
 30
0.0
  0
INSERT
  5
22A
  8
0
  2
_B_M_P___00015
 10
319.06074703
 20
19.95486445
 30
0.0
  0
ENDBLK
  8
0
  0
BLOCK
  8
0
  2
FLEX_00003
 70
     0
 10
132.23832096
 20
39.46986445
 30
0.0
  0
INSERT
  5
22D
  8
0
  2
TFIELD_00004
 10
132.23832096
 20
39.46986445
 30
0.0
  0
ENDBLK
  8
0
  0
BLOCK
  8
0
  2
TFIELD_00004
 70
     0
 10
132.23832096
 20
39.46986445
 30
0.0
  0
TEXT
  5
230
  8
TXT_ALL
 10
132.23832096
 20
38.1698645
 30
0.0
 40
2.5999999
  1
E-mail: verkoop@jonkers-bouwmetaal.nl
  7
ARIAL
  0
ENDBLK
  8
0
  0
BLOCK
  8
0
  2
FLEX_00005
 70
     0
 10
132.23832096
 20
29.71986445
 30
0.0
  0
INSERT
  5
233
  8
0
  2
TFIELD_00006
 10
132.23832096
 20
29.71986445
 30
0.0
  0
ENDBLK
  8
0
  0
BLOCK
  8
0
  2
TFIELD_00006
 70
     0
 10
132.23832096
 20
29.71986445
 30
0.0
  0
TEXT
  5
236
  8
TXT_ALL
 10
132.23832096
 20
28.4198645
 30
0.0
 40
2.5999999
  1
Telefoon: 0527-685156
  7
ARIAL
  0
ENDBLK
  8
0
  0
BLOCK
  8
0
  2
FLEX_00007
 70
     0
 10
202.18332096
 20
29.71986445
 30
0.0
  0
INSERT
  5
239
  8
0
  2
TFIELD_00008
 10
202.18332096
 20
29.71986445
 30
0.0
  0
ENDBLK
  8
0
  0
BLOCK
  8
0
  2
TFIELD_00008
 70
     0
 10
202.18332096
 20
29.71986445
 30
0.0
  0
TEXT
  5
23C
  8
TXT_ALL
 10
202.18332096
 20
28.4198645
 30
0.0
 40
2.5999999
  1
Website: www.jonkers-bouwmetaal.nl
  7
ARIAL
  0
ENDBLK
  8
0
  0
BLOCK
  8
0
  2
FLEX_00009
 70
     0
 10
202.18332096
 20
39.46986445
 30
0.0
  0
INSERT
  5
23F
  8
0
  2
TFIELD_00010
 10
202.18332096
 20
39.46986445
 30
0.0
  0
ENDBLK
  8
0
  0
BLOCK
  8
0
  2
TFIELD_00010
 70
     0
 10
202.18332096
 20
39.46986445
 30
0.0
  0
TEXT
  5
242
  8
TXT_ALL
 10
202.18332096
 20
38.1698645
 30
0.0
 40
2.5999999
  1
Adres: Hoornse Hop 10, 8321 WX Urk
  7
ARIAL
  0
ENDBLK
  8
0
  0
BLOCK
  8
0
  2
SCHRIFE_00011
 70
     0
 10
-69.33971879
 20
306.84486445
 30
0.0
  0
TEXT
  5
245
  8
TXT_ALL
 10
-69.33971879
 20
305.59486445
 30
0.0
 40
2.5
  1
Art. nr. 91013468
  7
ARIAL
  0
TEXT
  5
246
  8
TXT_ALL
 10
-26.60168197
 20
305.59486445
 30
0.0
 40
2.5
  1
Omschrijving: HXL04-anker 200x75 72x5
  7
ARIAL
  0
LINE
  5
247
  8
0
 10
337.21832096
 20
301.84486445
 30
0.0
 11
-72.78167904
 21
301.84486445
 31
0.0
  0
LINE
  5
248
  8
0
 10
-29.76167904
 20
301.84486445
 30
0.0
 11
-29.76167904
 21
311.84486445
 31
0.0
  0
LINE
  5
249
  8
0
 10
130.23832096
 20
301.84486445
 30
0.0
 11
130.23832096
 21
311.84486445
 31
0.0
  0
TEXT
  5
24A
  8
TXT_ALL
 10
201.23202096
 20
305.59486445
 30
0.0
 40
2.5
  1
Behandeling: N.V.T.
  7
ARIAL
  0
LINE
  5
24B
  8
0
 10
270.12832096
 20
44.34486445
 30
0.0
 11
337.21832096
 21
44.34486445
 31
0.0
  0
LINE
  5
24C
  8
0
 10
270.12832096
 20
24.84486445
 30
0.0
 11
270.12832096
 21
44.34486445
 31
0.0
  0
LINE
  5
24D
  8
0
 10
270.12832096
 20
24.84486445
 30
0.0
 11
270.12832096
 21
44.34486445
 31
0.0
  0
TEXT
  5
24E
  8
TXT_ALL
 10
64.58351905
 20
25.99939786
 30
0.0
 40
2.5
  1

  0
TEXT
  5
24F
  8
TXT_ALL
 10
185.71870201
 20
36.09486445
 30
0.0
 40
2.5
  1

  0
POLYLINE
  5
250
  8
0
 66
     1
 10
0.0
 20
0.0
 30
0.0
  0
VERTEX
  5
251
  8
0
 10
268.22502096
 20
301.84486445
 30
0.0
  0
VERTEX
  5
252
  8
0
 10
199.23202096
 20
301.84486445
 30
0.0
  0
VERTEX
  5
253
  8
0
 10
199.23202096
 20
311.84486445
 30
0.0
  0
SEQEND
  5
254
  8
0
  0
TEXT
  5
255
  8
TXT_ALL
 10
270.22502096
 20
305.59486445
 30
0.0
 40
2.5
  1
Verpakkingshoeveelheid: 25 st.
  7
ARIAL
  0
TEXT
  5
256
  8
TXT_ALL
 10
132.23832096
 20
305.59486445
 30
0.0
 40
2.5
  1
Materiaal: Sendzimir Verzinkt
  7
ARIAL
  0
INSERT
  5
257
  8
0
  2
FLEX_00012
 10
311.79355637
 20
20.8453546
 30
0.0
  0
INSERT
  5
258
  8
0
  2
_B_M_P___00014
 10
270.88768827
 20
25.63754651
 30
0.0
  0
ENDBLK
  8
0
  0
BLOCK
  8
0
  2
FLEX_00012
 70
     0
 10
311.79355637
 20
20.8453546
 30
0.0
  0
INSERT
  5
25B
  8
0
  2
TFIELD_00013
 10
304.99996818
 20
22.3453546
 30
0.0
  0
ENDBLK
  8
0
  0
BLOCK
  8
0
  2
TFIELD_00013
 70
     0
 10
304.99996818
 20
22.3453546
 30
0.0
  0
TEXT
  5
25E
  8
TXT_ALL
 10
304.99996818
 20
21.5953546
 30
0.0
 40
1.5
  1
Onderdeel van
  7
ARIAL
  0
ENDBLK
  8
0
  0
BLOCK
  8
0
  2
_B_M_P___00014
 70
     0
 10
270.88768827
 20
25.63754651
 30
0.0
  0
ENDBLK
  8
0
  0
BLOCK
  8
0
  2
_B_M_P___00015
 70
     0
 10
319.06074703
 20
19.95486445
 30
0.0
  0
ENDBLK
  8
0
  0
BLOCK
  8
0
  2
_ANS0002_00016
 70
     0
 10
0.0
 20
0.0
 30
0.0
  0
INSERT
  5
265
  8
0
  2
_A3D0002_00017
 10
0.0
 20
0.0
 30
0.0
  0
ENDBLK
  8
0
  0
BLOCK
  8
0
  2
_A3D0002_00017
 70
     0
 10
0.0
 20
0.0
 30
0.0
  0
INSERT
  5
268
  8
0
  2
SVH05-ANKER_00018
 10
0.0
 20
0.0
 30
0.0
  0
ENDBLK
  8
0
  0
BLOCK
  8
0
  2
SVH05-ANKER_00018
 70
     0
 10
0.0
 20
0.0
 30
0.0
  0
INSERT
  5
26B
  8
0
  2
1X_BL_10X7_143X72_000_S235
 10
0.0
 20
0.0
 30
0.0
  0
INSERT
  5
26C
  8
0
  2
1X_BL_10X7_143X72_000_S231
 10
0.0
 20
0.0
 30
0.0
  0
INSERT
  5
26D
  8
0
  2
PLAAT_5MM_00023
 10
0.0
 20
0.0
 30
0.0
  0
INSERT
  5
26E
  8
0
  2
SPHERE_2_00034
 10
0.0
 20
0.0
 30
0.0
  0
ENDBLK
  8
0
  0
BLOCK
  8
0
  2
1X_BL_10X7_143X72_000_S235
 70
     0
 10
0.0
 20
0.0
 30
0.0
  0
INSERT
  5
271
  8
0
  2
1X_BL_10X7_143X72_000_S230
 10
208.72914027
 20
205.03661686
 30
0.0
  0
ENDBLK
  8
0
  0
BLOCK
  8
0
  2
1X_BL_10X7_143X72_000_S230
 70
     0
 10
208.72914027
 20
205.03661686
 30
0.0
  0
LINE
  5
274
  8
0
 10
208.72914027
 20
205.03661686
 30
0.0
 11
209.71092258
 21
210.03661686
 31
0.0
  0
LINE
  5
275
  8
0
 10
208.72914027
 20
210.72386448
 30
0.0
 11
209.71092258
 21
210.03661686
 31
0.0
  0
POLYLINE
  5
276
  8
0
 66
     1
 10
0.0
 20
0.0
 30
0.0
  0
VERTEX
  5
277
  8
0
 10
208.72914027
 20
210.72386448
 30
0.0
  0
VERTEX
  5
278
  8
0
 10
208.72914027
 20
205.03661686
 30
0.0
  0
VERTEX
  5
279
  8
0
 10
209.71092258
 20
205.03661686
 30
0.0
  0
VERTEX
  5
27A
  8
0
 10
209.71092258
 20
210.03661686
 30
0.0
  0
SEQEND
  5
27B
  8
0
  0
POLYLINE
  5
27C
  8
0
 66
     1
 10
0.0
 20
0.0
 30
0.0
  0
VERTEX
  5
27D
  8
0
 10
208.72914027
 20
205.03661686
 30
0.0
  0
VERTEX
  5
27E
  8
0
 10
203.23765206
 20
205.03661686
 30
0.0
  0
VERTEX
  5
27F
  8
0
 10
203.23765206
 20
214.56790623
 30
0.0
  0
VERTEX
  5
280
  8
0
 10
208.72914027
 20
210.72386448
 30
0.0
  0
SEQEND
  5
281
  8
0
  0
LINE
  5
282
  8
0
 10
202.56806543
 20
215.03661686
 30
0.0
 11
203.23765206
 21
214.56790623
 31
0.0
  0
LINE
  5
283
  8
0
 10
203.23765206
 20
205.03661686
 30
0.0
 11
202.56806543
 21
215.03661686
 31
0.0
  0
POLYLINE
  5
284
  8
0
 66
     1
 10
0.0
 20
0.0
 30
0.0
  0
VERTEX
  5
285
  8
0
 10
203.23765206
 20
205.03661686
 30
0.0
  0
VERTEX
  5
286
  8
0
 10
202.56806543
 20
205.03661686
 30
0.0
  0
VERTEX
  5
287
  8
0
 10
202.56806543
 20
215.03661686
 30
0.0
  0
SEQEND
  5
288
  8
0
  0
ENDBLK
  8
0
  0
BLOCK
  8
0
  2
1X_BL_10X7_143X72_000_S231
 70
     0
 10
0.0
 20
0.0
 30
0.0
  0
INSERT
  5
28B
  8
0
  2
1X_BL_10X7_143X72_000_S232
 10
130.71078935
 20
264.03675009
 30
0.0
  0
ENDBLK
  8
0
  0
BLOCK
  8
0
  2
1X_BL_10X7_143X72_000_S232
 70
     0
 10
130.71078935
 20
264.03675009
 30
0.0
  0
POLYLINE
  5
28E
  8
0
 66
     1
 10
0.0
 20
0.0
 30
0.0
  0
VERTEX
  5
28F
  8
0
 10
130.71078935
 20
264.03675009
 30
0.0
  0
VERTEX
  5
290
  8
0
 10
125.71078935
 20
263.05496778
 30
0.0
  0
VERTEX
  5
291
  8
0
 10
125.71078935
 20
264.03675009
 30
0.0
  0
VERTEX
  5
292
  8
0
 10
130.71078935
 20
264.03675009
 30
0.0
  0
VERTEX
  5
293
  8
0
 10
131.39803697
 20
263.05496778
 30
0.0
  0
VERTEX
  5
294
  8
0
 10
125.71078935
 20
263.05496778
 30
0.0
  0
SEQEND
  5
295
  8
0
  0
LINE
  5
296
  8
0
 10
125.71078935
 20
257.56347957
 30
0.0
 11
125.71078935
 21
263.05496778
 31
0.0
  0
LINE
  5
297
  8
0
 10
135.24207872
 20
257.56347957
 30
0.0
 11
125.71078935
 21
257.56347957
 31
0.0
  0
POLYLINE
  5
298
  8
0
 66
     1
 10
0.0
 20
0.0
 30
0.0
  0
VERTEX
  5
299
  8
0
 10
131.39803697
 20
263.05496778
 30
0.0
  0
VERTEX
  5
29A
  8
0
 10
135.24207872
 20
257.56347957
 30
0.0
  0
VERTEX
  5
29B
  8
0
 10
135.71078935
 20
256.89389294
 30
0.0
  0
SEQEND
  5
29C
  8
0
  0
LINE
  5
29D
  8
0
 10
125.71078935
 20
257.56347957
 30
0.0
 11
135.71078935
 21
256.89389294
 31
0.0
  0
LINE
  5
29E
  8
0
 10
125.71078935
 20
256.89389294
 30
0.0
 11
125.71078935
 21
257.56347957
 31
0.0
  0
LINE
  5
29F
  8
0
 10
135.71078935
 20
256.89389294
 30
0.0
 11
125.71078935
 21
256.89389294
 31
0.0
  0
ENDBLK
  8
0
  0
BLOCK
  8
0
  2
PLAAT_5MM_00023
 70
     0
 10
0.0
 20
0.0
 30
0.0
  0
INSERT
  5
2A2
  8
0
  2
SHEET_FLANGE_00024
 10
0.0
 20
0.0
 30
0.0
  0
INSERT
  5
2A3
  8
0
  2
BEND_ZONE_00026
 10
0.0
 20
0.0
 30
0.0
  0
INSERT
  5
2A4
  8
0
  2
SHEET_FLANGE_00028
 10
0.0
 20
0.0
 30
0.0
  0
INSERT
  5
2A5
  8
0
  2
BEND_ZONE_00030
 10
0.0
 20
0.0
 30
0.0
  0
INSERT
  5
2A6
  8
0
  2
BEND_ZONE_00032
 10
0.0
 20
0.0
 30
0.0
  0
ENDBLK
  8
0
  0
BLOCK
  8
0
  2
SHEET_FLANGE_00024
 70
     0
 10
0.0
 20
0.0
 30
0.0
  0
INSERT
  5
2A9
  8
0
  2
SHEET_FLANGE_00025
 10
321.71065613
 20
205.03661686
 30
0.0
  0
ENDBLK
  8
0
  0
BLOCK
  8
0
  2
SHEET_FLANGE_00025
 70
     0
 10
321.71065613
 20
205.03661686
 30
0.0
  0
LINE
  5
2AC
  8
LE_ALL
 10
321.71065613
 20
205.03661686
 30
0.0
 11
321.71065613
 21
210.03661686
 31
0.0
  0
LINE
  5
2AD
  8
LE_ALL
 10
325.71065613
 20
210.03661686
 30
0.0
 11
321.71065613
 21
210.03661686
 31
0.0
  0
LINE
  5
2AE
  8
LE_ALL
 10
325.71065613
 20
205.03661686
 30
0.0
 11
325.71065613
 21
210.03661686
 31
0.0
  0
LINE
  5
2AF
  8
LE_ALL
 10
321.71065613
 20
205.03661686
 30
0.0
 11
325.71065613
 21
205.03661686
 31
0.0
  0
LINE
  5
2B0
  8
LE_ALL
 10
315.71065613
 20
205.03661686
 30
0.0
 11
321.71065613
 21
205.03661686
 31
0.0
  0
LINE
  5
2B1
  8
LE_ALL
 10
321.71065613
 20
210.03661686
 30
0.0
 11
315.71065613
 21
210.03661686
 31
0.0
  0
LINE
  5
2B2
  8
LE_ALL
 10
135.71078935
 20
205.03661686
 30
0.0
 11
202.56806543
 21
205.03661686
 31
0.0
  0
POLYLINE
  5
2B3
  8
LE_ALL
 66
     1
 10
0.0
 20
0.0
 30
0.0
  0
VERTEX
  5
2B4
  8
LE_ALL
 10
209.71092258
 20
205.03661686
 30
0.0
  0
VERTEX
  5
2B5
  8
LE_ALL
 10
209.71092258
 20
210.03661686
 30
0.0
  0
VERTEX
  5
2B6
  8
LE_ALL
 10
315.71065613
 20
210.03661686
 30
0.0
  0
SEQEND
  5
2B7
  8
LE_ALL
  0
LINE
  5
2B8
  8
LE_ALL
 10
315.71065613
 20
205.03661686
 30
0.0
 11
315.71065613
 21
210.03661686
 31
0.0
  0
LINE
  5
2B9
  8
LE_ALL
 10
315.71065613
 20
205.03661686
 30
0.0
 11
209.71092258
 21
205.03661686
 31
0.0
  0
ENDBLK
  8
0
  0
BLOCK
  8
0
  2
BEND_ZONE_00026
 70
     0
 10
0.0
 20
0.0
 30
0.0
  0
INSERT
  5
2BC
  8
0
  2
BEND_ZONE_00027
 10
125.71078935
 20
215.03661686
 30
0.0
  0
ENDBLK
  8
0
  0
BLOCK
  8
0
  2
BEND_ZONE_00027
 70
     0
 10
125.71078935
 20
215.03661686
 30
0.0
  0
ARC
  5
2BF
  8
LE_ALL
 10
135.71078935
 20
215.03661686
 30
0.0
 40
10.0
 50
180.0
 51
-90.0
  0
ENDBLK
  8
0
  0
BLOCK
  8
0
  2
SHEET_FLANGE_00028
 70
     0
 10
0.0
 20
0.0
 30
0.0
  0
INSERT
  5
2C2
  8
0
  2
SHEET_FLANGE_00029
 10
130.71078935
 20
264.03675009
 30
0.0
  0
ENDBLK
  8
0
  0
BLOCK
  8
0
  2
SHEET_FLANGE_00029
 70
     0
 10
130.71078935
 20
264.03675009
 30
0.0
  0
LINE
  5
2C5
  8
LE_ALL
 10
130.71078935
 20
264.03675009
 30
0.0
 11
130.71078935
 21
270.03675009
 31
0.0
  0
LINE
  5
2C6
  8
LE_ALL
 10
125.71078935
 20
270.03675009
 30
0.0
 11
130.71078935
 21
270.03675009
 31
0.0
  0
POLYLINE
  5
2C7
  8
LE_ALL
 66
     1
 10
0.0
 20
0.0
 30
0.0
  0
VERTEX
  5
2C8
  8
LE_ALL
 10
125.71078935
 20
270.03675009
 30
0.0
  0
VERTEX
  5
2C9
  8
LE_ALL
 10
125.71078935
 20
264.03675009
 30
0.0
  0
VERTEX
  5
2CA
  8
LE_ALL
 10
130.71078935
 20
264.03675009
 30
0.0
  0
SEQEND
  5
2CB
  8
LE_ALL
  0
LINE
  5
2CC
  8
LE_ALL
 10
130.71078935
 20
276.03675009
 30
0.0
 11
130.71078935
 21
280.03666127
 31
0.0
  0
LINE
  5
2CD
  8
LE_ALL
 10
125.71078935
 20
280.03666127
 30
0.0
 11
130.71078935
 21
280.03666127
 31
0.0
  0
POLYLINE
  5
2CE
  8
LE_ALL
 66
     1
 10
0.0
 20
0.0
 30
0.0
  0
VERTEX
  5
2CF
  8
LE_ALL
 10
125.71078935
 20
280.03666127
 30
0.0
  0
VERTEX
  5
2D0
  8
LE_ALL
 10
125.71078935
 20
276.03675009
 30
0.0
  0
VERTEX
  5
2D1
  8
LE_ALL
 10
130.71078935
 20
276.03675009
 30
0.0
  0
SEQEND
  5
2D2
  8
LE_ALL
  0
LINE
  5
2D3
  8
LE_ALL
 10
130.71078935
 20
270.03675009
 30
0.0
 11
130.71078935
 21
276.03675009
 31
0.0
  0
LINE
  5
2D4
  8
LE_ALL
 10
125.71078935
 20
276.03675009
 30
0.0
 11
125.71078935
 21
270.03675009
 31
0.0
  0
LINE
  5
2D5
  8
LE_ALL
 10
125.71078935
 20
256.89389294
 30
0.0
 11
125.71078935
 21
215.03661686
 31
0.0
  0
ENDBLK
  8
0
  0
BLOCK
  8
0
  2
BEND_ZONE_00030
 70
     0
 10
0.0
 20
0.0
 30
0.0
  0
INSERT
  5
2D8
  8
0
  2
BEND_ZONE_00031
 10
202.56806543
 20
205.03661686
 30
0.0
  0
ENDBLK
  8
0
  0
BLOCK
  8
0
  2
BEND_ZONE_00031
 70
     0
 10
202.56806543
 20
205.03661686
 30
0.0
  0
POLYLINE
  5
2DB
  8
LE_ALL
 66
     1
 10
0.0
 20
0.0
 30
0.0
  0
VERTEX
  5
2DC
  8
LE_ALL
 10
202.56806543
 20
205.03661686
 30
0.0
  0
VERTEX
  5
2DD
  8
LE_ALL
 10
135.71078935
 20
205.03661686
 30
0.0
  0
VERTEX
  5
2DE
  8
LE_ALL
 10
135.71078935
 20
215.03661686
 30
0.0
  0
SEQEND
  5
2DF
  8
LE_ALL
  0
LINE
  5
2E0
  8
LE_ALL
 10
203.21092258
 20
215.03661686
 30
0.0
 11
135.71078935
 21
215.03661686
 31
0.0
  0
LINE
  5
2E1
  8
LE_ALL
 10
203.21092258
 20
215.03661686
 30
0.0
 11
203.21092258
 21
214.58661686
 31
0.0
  0
ENDBLK
  8
0
  0
BLOCK
  8
0
  2
BEND_ZONE_00032
 70
     0
 10
0.0
 20
0.0
 30
0.0
  0
INSERT
  5
2E4
  8
0
  2
BEND_ZONE_00033
 10
125.71078935
 20
215.03661686
 30
0.0
  0
ENDBLK
  8
0
  0
BLOCK
  8
0
  2
BEND_ZONE_00033
 70
     0
 10
125.71078935
 20
215.03661686
 30
0.0
  0
POLYLINE
  5
2E7
  8
LE_ALL
 66
     1
 10
0.0
 20
0.0
 30
0.0
  0
VERTEX
  5
2E8
  8
LE_ALL
 10
125.71078935
 20
215.03661686
 30
0.0
  0
VERTEX
  5
2E9
  8
LE_ALL
 10
125.71078935
 20
256.89375009
 30
0.0
  0
VERTEX
  5
2EA
  8
LE_ALL
 10
135.71078935
 20
256.89375009
 30
0.0
  0
SEQEND
  5
2EB
  8
LE_ALL
  0
LINE
  5
2EC
  8
LE_ALL
 10
135.71078935
 20
215.03661686
 30
0.0
 11
135.71078935
 21
256.89375009
 31
0.0
  0
LINE
  5
2ED
  8
LE_ALL
 10
135.71078935
 20
215.03661686
 30
0.0
 11
125.71078935
 21
215.03661686
 31
0.0
  0
ENDBLK
  8
0
  0
BLOCK
  8
0
  2
SPHERE_2_00034
 70
     0
 10
0.0
 20
0.0
 30
0.0
  0
INSERT
  5
2F0
  8
0
  2
SPHERE_2_00035
 10
135.71078935
 20
215.03661686
 30
0.0
  0
ENDBLK
  8
0
  0
BLOCK
  8
0
  2
SPHERE_2_00035
 70
     0
 10
135.71078935
 20
215.03661686
 30
0.0
  0
POLYLINE
  5
2F3
  8
0
 66
     1
 10
0.0
 20
0.0
 30
0.0
 70
     1
  0
VERTEX
  5
2F4
  8
0
 10
135.71078935
 20
215.03661686
 30
0.0
  0
VERTEX
  5
2F5
  8
0
 10
135.71078935
 20
205.03661686
 30
0.0
 42
-0.414213562
  0
VERTEX
  5
2F6
  8
0
 10
125.71078935
 20
215.03661686
 30
0.0
  0
SEQEND
  5
2F7
  8
0
  0
ENDBLK
  8
0
  0
BLOCK
  8
0
  2
_ANS0003_00036
 70
     0
 10
0.0
 20
0.0
 30
0.0
  0
INSERT
  5
2FA
  8
0
  2
_A3D0003_00037
 10
0.0
 20
0.0
 30
0.0
  0
ENDBLK
  8
0
  0
BLOCK
  8
0
  2
_A3D0003_00037
 70
     0
 10
0.0
 20
0.0
 30
0.0
  0
INSERT
  5
2FD
  8
0
  2
SVH05-ANKER_00038
 10
0.0
 20
0.0
 30
0.0
  0
ENDBLK
  8
0
  0
BLOCK
  8
0
  2
SVH05-ANKER_00038
 70
     0
 10
0.0
 20
0.0
 30
0.0
  0
INSERT
  5
300
  8
0
  2
1X_BL_10X7_143X72_000_S233
 10
0.0
 20
0.0
 30
0.0
  0
INSERT
  5
301
  8
0
  2
1X_BL_10X7_143X72_000_S236
 10
0.0
 20
0.0
 30
0.0
  0
INSERT
  5
302
  8
0
  2
PLAAT_5MM_00043
 10
0.0
 20
0.0
 30
0.0
  0
INSERT
  5
303
  8
0
  2
SPHERE_2_00062
 10
0.0
 20
0.0
 30
0.0
  0
INSERT
  5
304
  8
0
  2
SPHERE_2_00064
 10
0.0
 20
0.0
 30
0.0
  0
ENDBLK
  8
0
  0
BLOCK
  8
0
  2
1X_BL_10X7_143X72_000_S233
 70
     0
 10
0.0
 20
0.0
 30
0.0
  0
INSERT
  5
307
  8
0
  2
1X_BL_10X7_143X72_000_S234
 10
202.56845536
 20
109.57229369
 30
0.0
  0
ENDBLK
  8
0
  0
BLOCK
  8
0
  2
1X_BL_10X7_143X72_000_S234
 70
     0
 10
202.56845536
 20
109.57229369
 30
0.0
  0
POLYLINE
  5
30A
  8
0
 66
     1
 10
0.0
 20
0.0
 30
0.0
 70
     1
  0
VERTEX
  5
30B
  8
0
 10
202.56845536
 20
109.57229369
 30
0.0
  0
VERTEX
  5
30C
  8
0
 10
209.57488562
 20
109.0802074
 30
0.0
  0
VERTEX
  5
30D
  8
0
 10
202.56845536
 20
109.0802074
 30
0.0
  0
SEQEND
  5
30E
  8
0
  0
LINE
  5
30F
  8
0
 10
209.67815653
 20
109.57229369
 30
0.0
 11
202.56845536
 21
109.57229369
 31
0.0
  0
LINE
  5
310
  8
0
 10
209.57488562
 20
109.0802074
 30
0.0
 11
209.67815653
 21
109.57229369
 31
0.0
  0
POLYLINE
  5
311
  8
0
 66
     1
 10
0.0
 20
0.0
 30
0.0
  0
VERTEX
  5
312
  8
0
 10
209.57488562
 20
109.0802074
 30
0.0
  0
VERTEX
  5
313
  8
0
 10
209.39615393
 20
108.58291774
 30
0.0
  0
VERTEX
  5
314
  8
0
 10
209.13789208
 20
108.08873885
 30
0.0
  0
VERTEX
  5
315
  8
0
 10
208.79889
 20
107.60676904
 30
0.0
  0
VERTEX
  5
316
  8
0
 10
208.38138935
 20
107.14643452
 30
0.0
  0
VERTEX
  5
317
  8
0
 10
208.24279529
 20
107.01505225
 30
0.0
  0
VERTEX
  5
318
  8
0
 10
207.89027229
 20
106.71694479
 30
0.0
  0
VERTEX
  5
319
  8
0
 10
207.33287374
 20
106.32671806
 30
0.0
  0
VERTEX
  5
31A
  8
0
 10
206.71920426
 20
105.98284724
 30
0.0
  0
VERTEX
  5
31B
  8
0
 10
206.06157921
 20
105.69067533
 30
0.0
  0
VERTEX
  5
31C
  8
0
 10
205.53408423
 20
105.50329934
 30
0.0
  0
VERTEX
  5
31D
  8
0
 10
205.373142
 20
105.45353266
 30
0.0
  0
VERTEX
  5
31E
  8
0
 10
204.66711309
 20
105.27266119
 30
0.0
  0
VERTEX
  5
31F
  8
0
 10
203.95670226
 20
105.14732015
 30
0.0
  0
VERTEX
  5
320
  8
0
 10
203.2537105
 20
105.07504026
 30
0.0
  0
VERTEX
  5
321
  8
0
 10
202.56845536
 20
105.05197743
 30
0.0
  0
VERTEX
  5
322
  8
0
 10
202.56845536
 20
100.05197743
 30
0.0
  0
VERTEX
  5
323
  8
0
 10
203.23804198
 20
99.79113568
 30
0.0
  0
VERTEX
  5
324
  8
0
 10
208.72953019
 20
96.12184056
 30
0.0
  0
VERTEX
  5
325
  8
0
 10
209.7113125
 20
95.05197743
 30
0.0
  0
VERTEX
  5
326
  8
0
 10
209.7113125
 20
110.05197743
 30
0.0
  0
SEQEND
  5
327
  8
0
  0
LINE
  5
328
  8
0
 10
209.67815653
 20
109.57229369
 30
0.0
 11
209.7113125
 21
110.05197743
 31
0.0
  0
POLYLINE
  5
329
  8
0
 66
     1
 10
0.0
 20
0.0
 30
0.0
  0
VERTEX
  5
32A
  8
0
 10
209.67815653
 20
109.57229369
 30
0.0
  0
VERTEX
  5
32B
  8
0
 10
202.56845536
 20
110.05197743
 30
0.0
  0
VERTEX
  5
32C
  8
0
 10
202.56845536
 20
109.57229369
 30
0.0
  0
SEQEND
  5
32D
  8
0
  0
LINE
  5
32E
  8
0
 10
204.94940774
 20
110.05197743
 30
0.0
 11
202.56845536
 21
110.05197743
 31
0.0
  0
LINE
  5
32F
  8
0
 10
207.33036012
 20
110.05197743
 30
0.0
 11
204.94940774
 21
110.05197743
 31
0.0
  0
LINE
  5
330
  8
0
 10
209.7113125
 20
110.05197743
 30
0.0
 11
207.33036012
 21
110.05197743
 31
0.0
  0
POLYLINE
  5
331
  8
0
 66
     1
 10
0.0
 20
0.0
 30
0.0
  0
VERTEX
  5
332
  8
0
 10
202.56845536
 20
105.05197743
 30
0.0
  0
VERTEX
  5
333
  8
0
 10
202.56845536
 20
105.07504026
 30
0.0
  0
VERTEX
  5
334
  8
0
 10
202.56845536
 20
105.14732015
 30
0.0
  0
VERTEX
  5
335
  8
0
 10
202.56845536
 20
105.27266119
 30
0.0
  0
VERTEX
  5
336
  8
0
 10
202.56845536
 20
105.45353266
 30
0.0
  0
VERTEX
  5
337
  8
0
 10
202.56845536
 20
105.69067533
 30
0.0
  0
VERTEX
  5
338
  8
0
 10
202.56845536
 20
105.72183338
 30
0.0
  0
SEQEND
  5
339
  8
0
  0
LINE
  5
33A
  8
0
 10
206.06157921
 20
105.69067533
 30
0.0
 11
202.56845536
 21
105.72183338
 31
0.0
  0
POLYLINE
  5
33B
  8
0
 66
     1
 10
0.0
 20
0.0
 30
0.0
  0
VERTEX
  5
33C
  8
0
 10
206.06157921
 20
105.69067533
 30
0.0
  0
VERTEX
  5
33D
  8
0
 10
202.56845536
 20
105.98284724
 30
0.0
  0
VERTEX
  5
33E
  8
0
 10
202.56845536
 20
106.32671806
 30
0.0
  0
VERTEX
  5
33F
  8
0
 10
202.56845536
 20
106.71694479
 30
0.0
  0
VERTEX
  5
340
  8
0
 10
202.56845536
 20
107.14643452
 30
0.0
  0
VERTEX
  5
341
  8
0
 10
202.56845536
 20
107.55195057
 30
0.0
  0
SEQEND
  5
342
  8
0
  0
LINE
  5
343
  8
0
 10
208.38138935
 20
107.14643452
 30
0.0
 11
202.56845536
 21
107.55195057
 31
0.0
  0
POLYLINE
  5
344
  8
0
 66
     1
 10
0.0
 20
0.0
 30
0.0
  0
VERTEX
  5
345
  8
0
 10
208.38138935
 20
107.14643452
 30
0.0
  0
VERTEX
  5
346
  8
0
 10
202.56845536
 20
107.60676904
 30
0.0
  0
VERTEX
  5
347
  8
0
 10
202.56845536
 20
108.08873885
 30
0.0
  0
VERTEX
  5
348
  8
0
 10
202.56845536
 20
108.58291774
 30
0.0
  0
VERTEX
  5
349
  8
0
 10
202.56845536
 20
109.0802074
 30
0.0
  0
SEQEND
  5
34A
  8
0
  0
LINE
  5
34B
  8
0
 10
209.39615393
 20
108.58291774
 30
0.0
 11
202.56845536
 21
109.0802074
 31
0.0
  0
LINE
  5
34C
  8
0
 10
209.39615393
 20
108.58291774
 30
0.0
 11
202.56845536
 21
108.58291774
 31
0.0
  0
LINE
  5
34D
  8
0
 10
209.13789208
 20
108.08873885
 30
0.0
 11
202.56845536
 21
108.58291774
 31
0.0
  0
LINE
  5
34E
  8
0
 10
209.13789208
 20
108.08873885
 30
0.0
 11
202.56845536
 21
108.08873885
 31
0.0
  0
LINE
  5
34F
  8
0
 10
208.79889
 20
107.60676904
 30
0.0
 11
202.56845536
 21
108.08873885
 31
0.0
  0
LINE
  5
350
  8
0
 10
208.79889
 20
107.60676904
 30
0.0
 11
202.56845536
 21
107.60676904
 31
0.0
  0
LINE
  5
351
  8
0
 10
202.56845536
 20
107.55195057
 30
0.0
 11
202.56845536
 21
107.60676904
 31
0.0
  0
LINE
  5
352
  8
0
 10
208.38138935
 20
107.14643452
 30
0.0
 11
202.56845536
 21
107.14643452
 31
0.0
  0
LINE
  5
353
  8
0
 10
208.24279529
 20
107.01505225
 30
0.0
 11
202.56845536
 21
107.14643452
 31
0.0
  0
LINE
  5
354
  8
0
 10
207.89027229
 20
106.71694479
 30
0.0
 11
202.56845536
 21
107.14643452
 31
0.0
  0
LINE
  5
355
  8
0
 10
207.89027229
 20
106.71694479
 30
0.0
 11
202.56845536
 21
106.71694479
 31
0.0
  0
LINE
  5
356
  8
0
 10
207.33287374
 20
106.32671806
 30
0.0
 11
202.56845536
 21
106.71694479
 31
0.0
  0
LINE
  5
357
  8
0
 10
207.33287374
 20
106.32671806
 30
0.0
 11
202.56845536
 21
106.32671806
 31
0.0
  0
LINE
  5
358
  8
0
 10
206.71920426
 20
105.98284724
 30
0.0
 11
202.56845536
 21
106.32671806
 31
0.0
  0
LINE
  5
359
  8
0
 10
206.71920426
 20
105.98284724
 30
0.0
 11
202.56845536
 21
105.98284724
 31
0.0
  0
LINE
  5
35A
  8
0
 10
202.56845536
 20
105.72183338
 30
0.0
 11
202.56845536
 21
105.98284724
 31
0.0
  0
LINE
  5
35B
  8
0
 10
206.06157921
 20
105.69067533
 30
0.0
 11
202.56845536
 21
105.69067533
 31
0.0
  0
LINE
  5
35C
  8
0
 10
205.53408423
 20
105.50329934
 30
0.0
 11
202.56845536
 21
105.69067533
 31
0.0
  0
LINE
  5
35D
  8
0
 10
205.373142
 20
105.45353266
 30
0.0
 11
202.56845536
 21
105.69067533
 31
0.0
  0
LINE
  5
35E
  8
0
 10
205.373142
 20
105.45353266
 30
0.0
 11
202.56845536
 21
105.45353266
 31
0.0
  0
LINE
  5
35F
  8
0
 10
204.66711309
 20
105.27266119
 30
0.0
 11
202.56845536
 21
105.45353266
 31
0.0
  0
LINE
  5
360
  8
0
 10
204.66711309
 20
105.27266119
 30
0.0
 11
202.56845536
 21
105.27266119
 31
0.0
  0
LINE
  5
361
  8
0
 10
203.95670226
 20
105.14732015
 30
0.0
 11
202.56845536
 21
105.27266119
 31
0.0
  0
LINE
  5
362
  8
0
 10
203.95670226
 20
105.14732015
 30
0.0
 11
202.56845536
 21
105.14732015
 31
0.0
  0
LINE
  5
363
  8
0
 10
203.2537105
 20
105.07504026
 30
0.0
 11
202.56845536
 21
105.14732015
 31
0.0
  0
LINE
  5
364
  8
0
 10
203.2537105
 20
105.07504026
 30
0.0
 11
202.56845536
 21
105.07504026
 31
0.0
  0
POLYLINE
  5
365
  8
0
 66
     1
 10
0.0
 20
0.0
 30
0.0
  0
VERTEX
  5
366
  8
0
 10
202.56845536
 20
152.53166116
 30
0.0
  0
VERTEX
  5
367
  8
0
 10
209.67815653
 20
152.53166116
 30
0.0
  0
VERTEX
  5
368
  8
0
 10
209.7113125
 20
152.05197743
 30
0.0
  0
VERTEX
  5
369
  8
0
 10
202.56845536
 20
152.53166116
 30
0.0
  0
VERTEX
  5
36A
  8
0
 10
202.56845536
 20
153.02374745
 30
0.0
  0
SEQEND
  5
36B
  8
0
  0
LINE
  5
36C
  8
0
 10
209.67815653
 20
152.53166116
 30
0.0
 11
202.56845536
 21
153.02374745
 31
0.0
  0
POLYLINE
  5
36D
  8
0
 66
     1
 10
0.0
 20
0.0
 30
0.0
  0
VERTEX
  5
36E
  8
0
 10
209.67815653
 20
152.53166116
 30
0.0
  0
VERTEX
  5
36F
  8
0
 10
209.57488561
 20
153.02374745
 30
0.0
  0
VERTEX
  5
370
  8
0
 10
202.56845536
 20
153.02374745
 30
0.0
  0
VERTEX
  5
371
  8
0
 10
202.56845536
 20
153.52103711
 30
0.0
  0
SEQEND
  5
372
  8
0
  0
LINE
  5
373
  8
0
 10
209.57488561
 20
153.02374745
 30
0.0
 11
202.56845536
 21
153.52103711
 31
0.0
  0
POLYLINE
  5
374
  8
0
 66
     1
 10
0.0
 20
0.0
 30
0.0
  0
VERTEX
  5
375
  8
0
 10
209.57488561
 20
153.02374745
 30
0.0
  0
VERTEX
  5
376
  8
0
 10
209.39615393
 20
153.52103711
 30
0.0
  0
VERTEX
  5
377
  8
0
 10
202.56845536
 20
153.52103711
 30
0.0
  0
VERTEX
  5
378
  8
0
 10
202.56845536
 20
154.015216
 30
0.0
  0
SEQEND
  5
379
  8
0
  0
LINE
  5
37A
  8
0
 10
209.39615393
 20
153.52103711
 30
0.0
 11
202.56845536
 21
154.015216
 31
0.0
  0
POLYLINE
  5
37B
  8
0
 66
     1
 10
0.0
 20
0.0
 30
0.0
  0
VERTEX
  5
37C
  8
0
 10
209.39615393
 20
153.52103711
 30
0.0
  0
VERTEX
  5
37D
  8
0
 10
209.13789208
 20
154.015216
 30
0.0
  0
VERTEX
  5
37E
  8
0
 10
202.56845536
 20
154.015216
 30
0.0
  0
VERTEX
  5
37F
  8
0
 10
202.56845536
 20
154.49718581
 30
0.0
  0
SEQEND
  5
380
  8
0
  0
LINE
  5
381
  8
0
 10
209.13789208
 20
154.015216
 30
0.0
 11
202.56845536
 21
154.49718581
 31
0.0
  0
POLYLINE
  5
382
  8
0
 66
     1
 10
0.0
 20
0.0
 30
0.0
  0
VERTEX
  5
383
  8
0
 10
209.13789208
 20
154.015216
 30
0.0
  0
VERTEX
  5
384
  8
0
 10
208.79889
 20
154.49718581
 30
0.0
  0
VERTEX
  5
385
  8
0
 10
202.56845536
 20
154.49718581
 30
0.0
  0
VERTEX
  5
386
  8
0
 10
202.56845536
 20
154.55194794
 30
0.0
  0
SEQEND
  5
387
  8
0
  0
LINE
  5
388
  8
0
 10
208.79889
 20
154.49718581
 30
0.0
 11
202.56845536
 21
154.55194794
 31
0.0
  0
LINE
  5
389
  8
0
 10
208.79889
 20
154.49718581
 30
0.0
 11
202.56845536
 21
154.95752033
 31
0.0
  0
LINE
  5
38A
  8
0
 10
202.56845536
 20
154.55194794
 30
0.0
 11
202.56845536
 21
154.95752033
 31
0.0
  0
LINE
  5
38B
  8
0
 10
208.38138935
 20
154.95752033
 30
0.0
 11
202.56845536
 21
154.95752033
 31
0.0
  0
POLYLINE
  5
38C
  8
0
 66
     1
 10
0.0
 20
0.0
 30
0.0
  0
VERTEX
  5
38D
  8
0
 10
208.79889
 20
154.49718581
 30
0.0
  0
VERTEX
  5
38E
  8
0
 10
208.38138935
 20
154.95752033
 30
0.0
  0
VERTEX
  5
38F
  8
0
 10
202.56845536
 20
155.38701006
 30
0.0
  0
SEQEND
  5
390
  8
0
  0
LINE
  5
391
  8
0
 10
202.56845536
 20
154.95752033
 30
0.0
 11
202.56845536
 21
155.38701006
 31
0.0
  0
LINE
  5
392
  8
0
 10
208.24279482
 20
155.08890303
 30
0.0
 11
202.56845536
 21
155.38701006
 31
0.0
  0
LINE
  5
393
  8
0
 10
208.38138935
 20
154.95752033
 30
0.0
 11
208.24279482
 21
155.08890303
 31
0.0
  0
LINE
  5
394
  8
0
 10
207.89027229
 20
155.38701006
 30
0.0
 11
208.24279482
 21
155.08890303
 31
0.0
  0
LINE
  5
395
  8
0
 10
207.33287375
 20
155.77723679
 30
0.0
 11
207.89027229
 21
155.38701006
 31
0.0
  0
LINE
  5
396
  8
0
 10
206.71920425
 20
156.12110761
 30
0.0
 11
207.33287375
 21
155.77723679
 31
0.0
  0
LINE
  5
397
  8
0
 10
206.0615792
 20
156.41327952
 30
0.0
 11
206.71920425
 21
156.12110761
 31
0.0
  0
LINE
  5
398
  8
0
 10
205.53408317
 20
156.60065585
 30
0.0
 11
206.0615792
 21
156.41327952
 31
0.0
  0
LINE
  5
399
  8
0
 10
205.37314202
 20
156.6504222
 30
0.0
 11
205.53408317
 21
156.60065585
 31
0.0
  0
LINE
  5
39A
  8
0
 10
204.66711307
 20
156.83129366
 30
0.0
 11
205.37314202
 21
156.6504222
 31
0.0
  0
LINE
  5
39B
  8
0
 10
203.95670225
 20
156.9566347
 30
0.0
 11
204.66711307
 21
156.83129366
 31
0.0
  0
LINE
  5
39C
  8
0
 10
203.25371051
 20
157.02891459
 30
0.0
 11
203.95670225
 21
156.9566347
 31
0.0
  0
LINE
  5
39D
  8
0
 10
202.56845536
 20
157.05197743
 30
0.0
 11
203.25371051
 21
157.02891459
 31
0.0
  0
LINE
  5
39E
  8
0
 10
202.56845536
 20
157.05197743
 30
0.0
 11
202.56845536
 21
162.05197743
 31
0.0
  0
LINE
  5
39F
  8
0
 10
203.23804198
 20
162.31281917
 30
0.0
 11
202.56845536
 21
162.05197743
 31
0.0
  0
LINE
  5
3A0
  8
0
 10
208.72953019
 20
165.98211429
 30
0.0
 11
203.23804198
 21
162.31281917
 31
0.0
  0
LINE
  5
3A1
  8
0
 10
209.7113125
 20
167.05197743
 30
0.0
 11
208.72953019
 21
165.98211429
 31
0.0
  0
LINE
  5
3A2
  8
0
 10
209.7113125
 20
167.05197743
 30
0.0
 11
209.7113125
 21
152.05197743
 31
0.0
  0
LINE
  5
3A3
  8
0
 10
207.33036012
 20
152.05197743
 30
0.0
 11
209.7113125
 21
152.05197743
 31
0.0
  0
LINE
  5
3A4
  8
0
 10
204.94940774
 20
152.05197743
 30
0.0
 11
207.33036012
 21
152.05197743
 31
0.0
  0
LINE
  5
3A5
  8
0
 10
202.56845536
 20
152.05197743
 30
0.0
 11
204.94940774
 21
152.05197743
 31
0.0
  0
LINE
  5
3A6
  8
0
 10
202.56845536
 20
152.53166116
 30
0.0
 11
202.56845536
 21
152.05197743
 31
0.0
  0
LINE
  5
3A7
  8
0
 10
202.56845536
 20
157.02891459
 30
0.0
 11
202.56845536
 21
157.05197743
 31
0.0
  0
LINE
  5
3A8
  8
0
 10
202.56845536
 20
157.02891459
 30
0.0
 11
203.25371051
 21
157.02891459
 31
0.0
  0
LINE
  5
3A9
  8
0
 10
202.56845536
 20
157.02891459
 30
0.0
 11
203.95670225
 21
156.9566347
 31
0.0
  0
LINE
  5
3AA
  8
0
 10
202.56845536
 20
156.9566347
 30
0.0
 11
203.95670225
 21
156.9566347
 31
0.0
  0
LINE
  5
3AB
  8
0
 10
202.56845536
 20
156.9566347
 30
0.0
 11
202.56845536
 21
157.02891459
 31
0.0
  0
LINE
  5
3AC
  8
0
 10
202.56845536
 20
156.9566347
 30
0.0
 11
204.66711307
 21
156.83129366
 31
0.0
  0
LINE
  5
3AD
  8
0
 10
202.56845536
 20
156.83129366
 30
0.0
 11
204.66711307
 21
156.83129366
 31
0.0
  0
LINE
  5
3AE
  8
0
 10
202.56845536
 20
156.83129366
 30
0.0
 11
202.56845536
 21
156.9566347
 31
0.0
  0
LINE
  5
3AF
  8
0
 10
202.56845536
 20
156.83129366
 30
0.0
 11
205.37314202
 21
156.6504222
 31
0.0
  0
LINE
  5
3B0
  8
0
 10
202.56845536
 20
156.6504222
 30
0.0
 11
205.37314202
 21
156.6504222
 31
0.0
  0
LINE
  5
3B1
  8
0
 10
202.56845536
 20
156.6504222
 30
0.0
 11
202.56845536
 21
156.83129366
 31
0.0
  0
LINE
  5
3B2
  8
0
 10
202.56845536
 20
156.6504222
 30
0.0
 11
205.53408317
 21
156.60065585
 31
0.0
  0
LINE
  5
3B3
  8
0
 10
202.56845536
 20
156.6504222
 30
0.0
 11
206.0615792
 21
156.41327952
 31
0.0
  0
LINE
  5
3B4
  8
0
 10
202.56845536
 20
156.41327952
 30
0.0
 11
206.0615792
 21
156.41327952
 31
0.0
  0
LINE
  5
3B5
  8
0
 10
202.56845536
 20
156.41327952
 30
0.0
 11
202.56845536
 21
156.6504222
 31
0.0
  0
LINE
  5
3B6
  8
0
 10
202.56845536
 20
156.41327952
 30
0.0
 11
206.71920425
 21
156.12110761
 31
0.0
  0
LINE
  5
3B7
  8
0
 10
202.56845536
 20
156.38208893
 30
0.0
 11
206.71920425
 21
156.12110761
 31
0.0
  0
LINE
  5
3B8
  8
0
 10
202.56845536
 20
156.38208893
 30
0.0
 11
202.56845536
 21
156.41327952
 31
0.0
  0
LINE
  5
3B9
  8
0
 10
202.56845536
 20
156.12110761
 30
0.0
 11
202.56845536
 21
156.38208893
 31
0.0
  0
LINE
  5
3BA
  8
0
 10
202.56845536
 20
156.12110761
 30
0.0
 11
206.71920425
 21
156.12110761
 31
0.0
  0
LINE
  5
3BB
  8
0
 10
202.56845536
 20
156.12110761
 30
0.0
 11
207.33287375
 21
155.77723679
 31
0.0
  0
LINE
  5
3BC
  8
0
 10
202.56845536
 20
155.77723679
 30
0.0
 11
207.33287375
 21
155.77723679
 31
0.0
  0
LINE
  5
3BD
  8
0
 10
202.56845536
 20
155.77723679
 30
0.0
 11
202.56845536
 21
156.12110761
 31
0.0
  0
LINE
  5
3BE
  8
0
 10
202.56845536
 20
155.77723679
 30
0.0
 11
207.89027229
 21
155.38701006
 31
0.0
  0
LINE
  5
3BF
  8
0
 10
202.56845536
 20
155.38701006
 30
0.0
 11
207.89027229
 21
155.38701006
 31
0.0
  0
LINE
  5
3C0
  8
0
 10
202.56845536
 20
155.38701006
 30
0.0
 11
202.56845536
 21
155.77723679
 31
0.0
  0
ENDBLK
  8
0
  0
BLOCK
  8
0
  2
1X_BL_10X7_143X72_000_S236
 70
     0
 10
0.0
 20
0.0
 30
0.0
  0
INSERT
  5
3C3
  8
0
  2
1X_BL_10X7_143X72_000_S237
 10
131.39842689
 20
165.98211429
 30
0.0
  0
ENDBLK
  8
0
  0
BLOCK
  8
0
  2
1X_BL_10X7_143X72_000_S237
 70
     0
 10
131.39842689
 20
165.98211429
 30
0.0
  0
POLYLINE
  5
3C6
  8
0
 66
     1
 10
0.0
 20
0.0
 30
0.0
  0
VERTEX
  5
3C7
  8
0
 10
131.39842689
 20
165.98211429
 30
0.0
  0
VERTEX
  5
3C8
  8
0
 10
130.71117928
 20
167.05197743
 30
0.0
  0
VERTEX
  5
3C9
  8
0
 10
130.71117928
 20
152.05197743
 30
0.0
  0
SEQEND
  5
3CA
  8
0
  0
LINE
  5
3CB
  8
0
 10
130.73424211
 20
152.53166116
 30
0.0
 11
130.71117928
 21
152.05197743
 31
0.0
  0
LINE
  5
3CC
  8
0
 10
130.806522
 20
153.02374745
 30
0.0
 11
130.73424211
 21
152.53166116
 31
0.0
  0
POLYLINE
  5
3CD
  8
0
 66
     1
 10
0.0
 20
0.0
 30
0.0
  0
VERTEX
  5
3CE
  8
0
 10
130.806522
 20
153.02374745
 30
0.0
  0
VERTEX
  5
3CF
  8
0
 10
130.93186305
 20
153.52103711
 30
0.0
  0
VERTEX
  5
3D0
  8
0
 10
131.11273451
 20
154.015216
 30
0.0
  0
VERTEX
  5
3D1
  8
0
 10
131.34987718
 20
154.49718581
 30
0.0
  0
VERTEX
  5
3D2
  8
0
 10
131.6420491
 20
154.95752033
 30
0.0
  0
VERTEX
  5
3D3
  8
0
 10
131.73914132
 20
155.0889026
 30
0.0
  0
VERTEX
  5
3D4
  8
0
 10
131.98591991
 20
155.38701006
 30
0.0
  0
VERTEX
  5
3D5
  8
0
 10
132.37614664
 20
155.77723679
 30
0.0
  0
VERTEX
  5
3D6
  8
0
 10
132.80563637
 20
156.12110761
 30
0.0
  0
VERTEX
  5
3D7
  8
0
 10
133.26597089
 20
156.41327952
 30
0.0
  0
VERTEX
  5
3D8
  8
0
 10
133.63523907
 20
156.60065551
 30
0.0
  0
VERTEX
  5
3D9
  8
0
 10
133.7479407
 20
156.6504222
 30
0.0
  0
VERTEX
  5
3DA
  8
0
 10
134.24211959
 20
156.83129366
 30
0.0
  0
VERTEX
  5
3DB
  8
0
 10
134.73940925
 20
156.9566347
 30
0.0
  0
VERTEX
  5
3DC
  8
0
 10
135.23149554
 20
157.02891459
 30
0.0
  0
VERTEX
  5
3DD
  8
0
 10
135.71117928
 20
157.05197743
 30
0.0
  0
VERTEX
  5
3DE
  8
0
 10
135.71117928
 20
162.05197743
 30
0.0
  0
VERTEX
  5
3DF
  8
0
 10
135.24246864
 20
162.31281917
 30
0.0
  0
VERTEX
  5
3E0
  8
0
 10
131.39842689
 20
165.98211429
 30
0.0
  0
SEQEND
  5
3E1
  8
0
  0
LINE
  5
3E2
  8
0
 10
133.7479407
 20
156.6504222
 30
0.0
 11
133.26597089
 21
156.41327952
 31
0.0
  0
LINE
  5
3E3
  8
0
 10
131.98591991
 20
155.38701006
 30
0.0
 11
131.6420491
 21
154.95752033
 31
0.0
  0
LINE
  5
3E4
  8
0
 10
130.71117928
 20
95.05197743
 30
0.0
 11
130.71117928
 21
110.05197743
 31
0.0
  0
LINE
  5
3E5
  8
0
 10
130.73424211
 20
109.57229369
 30
0.0
 11
130.71117928
 21
110.05197743
 31
0.0
  0
POLYLINE
  5
3E6
  8
0
 66
     1
 10
0.0
 20
0.0
 30
0.0
  0
VERTEX
  5
3E7
  8
0
 10
130.73424211
 20
109.57229369
 30
0.0
  0
VERTEX
  5
3E8
  8
0
 10
130.806522
 20
109.0802074
 30
0.0
  0
VERTEX
  5
3E9
  8
0
 10
130.93186305
 20
108.58291774
 30
0.0
  0
VERTEX
  5
3EA
  8
0
 10
131.11273451
 20
108.08873885
 30
0.0
  0
VERTEX
  5
3EB
  8
0
 10
131.34987718
 20
107.60676904
 30
0.0
  0
VERTEX
  5
3EC
  8
0
 10
131.6420491
 20
107.14643452
 30
0.0
  0
VERTEX
  5
3ED
  8
0
 10
131.73914165
 20
107.01505182
 30
0.0
  0
SEQEND
  5
3EE
  8
0
  0
LINE
  5
3EF
  8
0
 10
131.98591991
 20
106.71694479
 30
0.0
 11
131.73914165
 21
107.01505182
 31
0.0
  0
LINE
  5
3F0
  8
0
 10
132.37614664
 20
106.32671806
 30
0.0
 11
131.98591991
 21
106.71694479
 31
0.0
  0
LINE
  5
3F1
  8
0
 10
132.80563637
 20
105.98284724
 30
0.0
 11
132.37614664
 21
106.32671806
 31
0.0
  0
LINE
  5
3F2
  8
0
 10
133.26597089
 20
105.69067533
 30
0.0
 11
132.80563637
 21
105.98284724
 31
0.0
  0
LINE
  5
3F3
  8
0
 10
133.63523981
 20
105.503299
 30
0.0
 11
133.26597089
 21
105.69067533
 31
0.0
  0
LINE
  5
3F4
  8
0
 10
133.7479407
 20
105.45353266
 30
0.0
 11
133.63523981
 21
105.503299
 31
0.0
  0
LINE
  5
3F5
  8
0
 10
134.24211959
 20
105.27266119
 30
0.0
 11
133.7479407
 21
105.45353266
 31
0.0
  0
LINE
  5
3F6
  8
0
 10
134.73940925
 20
105.14732015
 30
0.0
 11
134.24211959
 21
105.27266119
 31
0.0
  0
LINE
  5
3F7
  8
0
 10
135.23149554
 20
105.07504026
 30
0.0
 11
134.73940925
 21
105.14732015
 31
0.0
  0
LINE
  5
3F8
  8
0
 10
135.71117928
 20
105.05197743
 30
0.0
 11
135.23149554
 21
105.07504026
 31
0.0
  0
LINE
  5
3F9
  8
0
 10
135.71117928
 20
105.05197743
 30
0.0
 11
135.71117928
 21
100.05197743
 31
0.0
  0
LINE
  5
3FA
  8
0
 10
135.24246864
 20
99.79113568
 30
0.0
 11
135.71117928
 21
100.05197743
 31
0.0
  0
LINE
  5
3FB
  8
0
 10
131.39842689
 20
96.12184056
 30
0.0
 11
135.24246864
 21
99.79113568
 31
0.0
  0
LINE
  5
3FC
  8
0
 10
130.71117928
 20
95.05197743
 30
0.0
 11
131.39842689
 21
96.12184056
 31
0.0
  0
LINE
  5
3FD
  8
0
 10
133.7479407
 20
105.45353266
 30
0.0
 11
133.26597089
 21
105.69067533
 31
0.0
  0
LINE
  5
3FE
  8
0
 10
131.6420491
 20
107.14643452
 30
0.0
 11
131.98591991
 21
106.71694479
 31
0.0
  0
ENDBLK
  8
0
  0
BLOCK
  8
0
  2
PLAAT_5MM_00043
 70
     0
 10
0.0
 20
0.0
 30
0.0
  0
INSERT
  5
401
  8
0
  2
SHEET_FLANGE_00044
 10
0.0
 20
0.0
 30
0.0
  0
INSERT
  5
402
  8
0
  2
BEND_ZONE_00046
 10
0.0
 20
0.0
 30
0.0
  0
INSERT
  5
403
  8
0
  2
SHEET_FLANGE_00048
 10
0.0
 20
0.0
 30
0.0
  0
INSERT
  5
404
  8
0
  2
BEND_ZONE_00050
 10
0.0
 20
0.0
 30
0.0
  0
INSERT
  5
405
  8
0
  2
SHEET_FLANGE_00052
 10
0.0
 20
0.0
 30
0.0
  0
INSERT
  5
406
  8
0
  2
BEND_ZONE_00054
 10
0.0
 20
0.0
 30
0.0
  0
INSERT
  5
407
  8
0
  2
SHEET_FLANGE_00056
 10
0.0
 20
0.0
 30
0.0
  0
INSERT
  5
408
  8
0
  2
BEND_ZONE_00058
 10
0.0
 20
0.0
 30
0.0
  0
INSERT
  5
409
  8
0
  2
BEND_ZONE_00060
 10
0.0
 20
0.0
 30
0.0
  0
ENDBLK
  8
0
  0
BLOCK
  8
0
  2
SHEET_FLANGE_00044
 70
     0
 10
0.0
 20
0.0
 30
0.0
  0
INSERT
  5
40C
  8
0
  2
SHEET_FLANGE_00045
 10
187.21104605
 20
124.55197743
 30
0.0
  0
ENDBLK
  8
0
  0
BLOCK
  8
0
  2
SHEET_FLANGE_00045
 70
     0
 10
187.21104605
 20
124.55197743
 30
0.0
  0
POLYLINE
  5
40F
  8
LE_ALL
 66
     1
 10
0.0
 20
0.0
 30
0.0
 70
     1
  0
VERTEX
  5
410
  8
LE_ALL
 10
187.21104605
 20
124.55197743
 30
0.0
  0
VERTEX
  5
411
  8
LE_ALL
 10
204.21104605
 20
124.55197743
 30
0.0
 42
1.0
  0
VERTEX
  5
412
  8
LE_ALL
 10
204.21104605
 20
137.55197743
 30
0.0
  0
VERTEX
  5
413
  8
LE_ALL
 10
187.21104605
 20
137.55197743
 30
0.0
 42
1.0
  0
SEQEND
  5
414
  8
LE_ALL
  0
CIRCLE
  5
415
  8
LE_ALL
 10
160.71104605
 20
131.05197743
 30
0.0
 40
6.5
  0
CIRCLE
  5
416
  8
LE_ALL
 10
260.71104605
 20
146.55197743
 30
0.0
 40
3.5
  0
CIRCLE
  5
417
  8
LE_ALL
 10
280.71104605
 20
146.55197743
 30
0.0
 40
3.5
  0
CIRCLE
  5
418
  8
LE_ALL
 10
300.71104605
 20
115.55197743
 30
0.0
 40
3.5
  0
CIRCLE
  5
419
  8
LE_ALL
 10
260.71104605
 20
115.55197743
 30
0.0
 40
3.5
  0
CIRCLE
  5
41A
  8
LE_ALL
 10
230.71104605
 20
115.55197743
 30
0.0
 40
3.5
  0
CIRCLE
  5
41B
  8
LE_ALL
 10
210.71104605
 20
146.55197743
 30
0.0
 40
3.5
  0
CIRCLE
  5
41C
  8
LE_ALL
 10
300.71104605
 20
146.55197743
 30
0.0
 40
4.5
  0
CIRCLE
  5
41D
  8
LE_ALL
 10
280.71104605
 20
115.55197743
 30
0.0
 40
4.5
  0
CIRCLE
  5
41E
  8
LE_ALL
 10
230.71104605
 20
146.55197743
 30
0.0
 40
4.5
  0
CIRCLE
  5
41F
  8
LE_ALL
 10
210.71104605
 20
115.55197743
 30
0.0
 40
4.5
  0
POLYLINE
  5
420
  8
LE_ALL
 66
     1
 10
0.0
 20
0.0
 30
0.0
 70
     1
  0
VERTEX
  5
421
  8
LE_ALL
 10
284.21104605
 20
137.55197743
 30
0.0
  0
VERTEX
  5
422
  8
LE_ALL
 10
267.21104605
 20
137.55197743
 30
0.0
 42
1.0
  0
VERTEX
  5
423
  8
LE_ALL
 10
267.21104605
 20
124.55197743
 30
0.0
  0
VERTEX
  5
424
  8
LE_ALL
 10
284.21104605
 20
124.55197743
 30
0.0
 42
1.0
  0
SEQEND
  5
425
  8
LE_ALL
  0
POLYLINE
  5
426
  8
LE_ALL
 66
     1
 10
0.0
 20
0.0
 30
0.0
  0
VERTEX
  5
427
  8
LE_ALL
 10
135.71117928
 20
152.05197743
 30
0.0
  0
VERTEX
  5
428
  8
LE_ALL
 10
209.7113125
 20
152.05197743
 30
0.0
  0
VERTEX
  5
429
  8
LE_ALL
 10
209.7113125
 20
167.05197743
 30
0.0
  0
VERTEX
  5
42A
  8
LE_ALL
 10
315.71104605
 20
167.05197743
 30
0.0
  0
VERTEX
  5
42B
  8
LE_ALL
 10
315.71104605
 20
164.05197743
 30
0.0
  0
VERTEX
  5
42C
  8
LE_ALL
 10
321.71104605
 20
164.05197743
 30
0.0
  0
VERTEX
  5
42D
  8
LE_ALL
 10
325.71104605
 20
155.05197743
 30
0.0
  0
VERTEX
  5
42E
  8
LE_ALL
 10
325.71104605
 20
107.05197743
 30
0.0
  0
VERTEX
  5
42F
  8
LE_ALL
 10
321.71104605
 20
98.05197743
 30
0.0
  0
VERTEX
  5
430
  8
LE_ALL
 10
315.71104605
 20
98.05197743
 30
0.0
  0
VERTEX
  5
431
  8
LE_ALL
 10
315.71104605
 20
95.05197743
 30
0.0
  0
SEQEND
  5
432
  8
LE_ALL
  0
LINE
  5
433
  8
LE_ALL
 10
209.7113125
 20
95.05197743
 30
0.0
 11
315.71104605
 21
95.05197743
 31
0.0
  0
POLYLINE
  5
434
  8
LE_ALL
 66
     1
 10
0.0
 20
0.0
 30
0.0
  0
VERTEX
  5
435
  8
LE_ALL
 10
209.7113125
 20
95.05197743
 30
0.0
  0
VERTEX
  5
436
  8
LE_ALL
 10
209.7113125
 20
110.05197743
 30
0.0
  0
VERTEX
  5
437
  8
LE_ALL
 10
135.71117928
 20
110.05197743
 30
0.0
  0
VERTEX
  5
438
  8
LE_ALL
 10
135.71117928
 20
152.05197743
 30
0.0
  0
SEQEND
  5
439
  8
LE_ALL
  0
ENDBLK
  8
0
  0
BLOCK
  8
0
  2
BEND_ZONE_00046
 70
     0
 10
0.0
 20
0.0
 30
0.0
  0
INSERT
  5
43C
  8
0
  2
BEND_ZONE_00047
 10
135.71117928
 20
110.05197743
 30
0.0
  0
ENDBLK
  8
0
  0
BLOCK
  8
0
  2
BEND_ZONE_00047
 70
     0
 10
135.71117928
 20
110.05197743
 30
0.0
  0
LINE
  5
43F
  8
LE_ALL
 10
135.71117928
 20
110.05197743
 30
0.0
 11
135.71117928
 21
152.05197743
 31
0.0
  0
LINE
  5
440
  8
LE_ALL
 10
130.71117928
 20
152.05197743
 30
0.0
 11
135.71117928
 21
152.05197743
 31
0.0
  0
LINE
  5
441
  8
LE_ALL
 10
135.71117928
 20
110.05197743
 30
0.0
 11
130.71117928
 21
110.05197743
 31
0.0
  0
ENDBLK
  8
0
  0
BLOCK
  8
0
  2
SHEET_FLANGE_00048
 70
     0
 10
0.0
 20
0.0
 30
0.0
  0
INSERT
  5
444
  8
0
  2
SHEET_FLANGE_00049
 10
130.71117928
 20
95.05197743
 30
0.0
  0
ENDBLK
  8
0
  0
BLOCK
  8
0
  2
SHEET_FLANGE_00049
 70
     0
 10
130.71117928
 20
95.05197743
 30
0.0
  0
LINE
  5
447
  8
LE_ALL
 10
130.71117928
 20
95.05197743
 30
0.0
 11
130.71117928
 21
98.05197743
 31
0.0
  0
POLYLINE
  5
448
  8
LE_ALL
 66
     1
 10
0.0
 20
0.0
 30
0.0
  0
VERTEX
  5
449
  8
LE_ALL
 10
125.71117928
 20
98.05197743
 30
0.0
  0
VERTEX
  5
44A
  8
LE_ALL
 10
125.71117928
 20
95.05197743
 30
0.0
  0
VERTEX
  5
44B
  8
LE_ALL
 10
130.71117928
 20
95.05197743
 30
0.0
  0
SEQEND
  5
44C
  8
LE_ALL
  0
LINE
  5
44D
  8
LE_ALL
 10
130.71117928
 20
164.05197743
 30
0.0
 11
130.71117928
 21
167.05197743
 31
0.0
  0
LINE
  5
44E
  8
LE_ALL
 10
125.71117928
 20
167.05197743
 30
0.0
 11
130.71117928
 21
167.05197743
 31
0.0
  0
LINE
  5
44F
  8
LE_ALL
 10
125.71117928
 20
167.05197743
 30
0.0
 11
125.71117928
 21
164.05197743
 31
0.0
  0
LINE
  5
450
  8
LE_ALL
 10
130.71117928
 20
155.05207734
 30
0.0
 11
130.71117928
 21
107.05187751
 31
0.0
  0
LINE
  5
451
  8
LE_ALL
 10
125.71117928
 20
107.05187751
 30
0.0
 11
130.71117928
 21
107.05187751
 31
0.0
  0
POLYLINE
  5
452
  8
LE_ALL
 66
     1
 10
0.0
 20
0.0
 30
0.0
  0
VERTEX
  5
453
  8
LE_ALL
 10
125.71117928
 20
107.05187751
 30
0.0
  0
VERTEX
  5
454
  8
LE_ALL
 10
125.71117928
 20
155.05207734
 30
0.0
  0
VERTEX
  5
455
  8
LE_ALL
 10
130.71117928
 20
155.05207734
 30
0.0
  0
VERTEX
  5
456
  8
LE_ALL
 10
130.71117928
 20
164.05197743
 30
0.0
  0
SEQEND
  5
457
  8
LE_ALL
  0
LINE
  5
458
  8
LE_ALL
 10
125.71117928
 20
164.05197743
 30
0.0
 11
130.71117928
 21
164.05197743
 31
0.0
  0
LINE
  5
459
  8
LE_ALL
 10
125.71117928
 20
164.05197743
 30
0.0
 11
125.71117928
 21
155.05207734
 31
0.0
  0
POLYLINE
  5
45A
  8
LE_ALL
 66
     1
 10
0.0
 20
0.0
 30
0.0
  0
VERTEX
  5
45B
  8
LE_ALL
 10
125.71117928
 20
107.05187751
 30
0.0
  0
VERTEX
  5
45C
  8
LE_ALL
 10
125.71117928
 20
98.05197743
 30
0.0
  0
VERTEX
  5
45D
  8
LE_ALL
 10
130.71117928
 20
98.05197743
 30
0.0
  0
VERTEX
  5
45E
  8
LE_ALL
 10
130.71117928
 20
107.05187751
 30
0.0
  0
SEQEND
  5
45F
  8
LE_ALL
  0
ENDBLK
  8
0
  0
BLOCK
  8
0
  2
BEND_ZONE_00050
 70
     0
 10
0.0
 20
0.0
 30
0.0
  0
INSERT
  5
462
  8
0
  2
BEND_ZONE_00051
 10
203.2113125
 20
100.05197743
 30
0.0
  0
ENDBLK
  8
0
  0
BLOCK
  8
0
  2
BEND_ZONE_00051
 70
     0
 10
203.2113125
 20
100.05197743
 30
0.0
  0
LINE
  5
465
  8
LE_ALL
 10
203.2113125
 20
100.05197743
 30
0.0
 11
135.71117928
 21
100.05197743
 31
0.0
  0
LINE
  5
466
  8
LE_ALL
 10
135.71117928
 20
105.05197743
 30
0.0
 11
135.71117928
 21
100.05197743
 31
0.0
  0
LINE
  5
467
  8
LE_ALL
 10
203.2113125
 20
105.05197743
 30
0.0
 11
135.71117928
 21
105.05197743
 31
0.0
  0
POLYLINE
  5
468
  8
LE_ALL
 66
     1
 10
0.0
 20
0.0
 30
0.0
  0
VERTEX
  5
469
  8
LE_ALL
 10
203.2113125
 20
100.05197743
 30
0.0
  0
VERTEX
  5
46A
  8
LE_ALL
 10
203.2113125
 20
105.05197743
 30
0.0
  0
VERTEX
  5
46B
  8
LE_ALL
 10
203.2113125
 20
110.05197743
 30
0.0
  0
VERTEX
  5
46C
  8
LE_ALL
 10
135.71117928
 20
110.05197743
 30
0.0
  0
VERTEX
  5
46D
  8
LE_ALL
 10
135.71117928
 20
105.05197743
 30
0.0
  0
SEQEND
  5
46E
  8
LE_ALL
  0
ENDBLK
  8
0
  0
BLOCK
  8
0
  2
SHEET_FLANGE_00052
 70
     0
 10
0.0
 20
0.0
 30
0.0
  0
INSERT
  5
471
  8
0
  2
SHEET_FLANGE_00053
 10
135.71117928
 20
100.05197743
 30
0.0
  0
ENDBLK
  8
0
  0
BLOCK
  8
0
  2
SHEET_FLANGE_00053
 70
     0
 10
135.71117928
 20
100.05197743
 30
0.0
  0
LINE
  5
474
  8
LE_ALL
 10
135.71117928
 20
100.05197743
 30
0.0
 11
135.71117928
 21
105.05197743
 31
0.0
  0
LINE
  5
475
  8
LE_ALL
 10
203.2113125
 20
105.05197743
 30
0.0
 11
135.71117928
 21
105.05197743
 31
0.0
  0
LINE
  5
476
  8
LE_ALL
 10
203.2113125
 20
100.05197743
 30
0.0
 11
203.2113125
 21
105.05197743
 31
0.0
  0
LINE
  5
477
  8
LE_ALL
 10
135.71117928
 20
100.05197743
 30
0.0
 11
203.2113125
 21
100.05197743
 31
0.0
  0
ENDBLK
  8
0
  0
BLOCK
  8
0
  2
BEND_ZONE_00054
 70
     0
 10
0.0
 20
0.0
 30
0.0
  0
INSERT
  5
47A
  8
0
  2
BEND_ZONE_00055
 10
135.71117928
 20
162.05197743
 30
0.0
  0
ENDBLK
  8
0
  0
BLOCK
  8
0
  2
BEND_ZONE_00055
 70
     0
 10
135.71117928
 20
162.05197743
 30
0.0
  0
LINE
  5
47D
  8
LE_ALL
 10
135.71117928
 20
162.05197743
 30
0.0
 11
203.2113125
 21
162.05197743
 31
0.0
  0
LINE
  5
47E
  8
LE_ALL
 10
203.2113125
 20
157.05197743
 30
0.0
 11
203.2113125
 21
162.05197743
 31
0.0
  0
LINE
  5
47F
  8
LE_ALL
 10
135.71117928
 20
157.05197743
 30
0.0
 11
203.2113125
 21
157.05197743
 31
0.0
  0
POLYLINE
  5
480
  8
LE_ALL
 66
     1
 10
0.0
 20
0.0
 30
0.0
  0
VERTEX
  5
481
  8
LE_ALL
 10
135.71117928
 20
162.05197743
 30
0.0
  0
VERTEX
  5
482
  8
LE_ALL
 10
135.71117928
 20
157.05197743
 30
0.0
  0
VERTEX
  5
483
  8
LE_ALL
 10
135.71117928
 20
152.05197743
 30
0.0
  0
VERTEX
  5
484
  8
LE_ALL
 10
203.2113125
 20
152.05197743
 30
0.0
  0
VERTEX
  5
485
  8
LE_ALL
 10
203.2113125
 20
157.05197743
 30
0.0
  0
SEQEND
  5
486
  8
LE_ALL
  0
ENDBLK
  8
0
  0
BLOCK
  8
0
  2
SHEET_FLANGE_00056
 70
     0
 10
0.0
 20
0.0
 30
0.0
  0
INSERT
  5
489
  8
0
  2
SHEET_FLANGE_00057
 10
135.71117928
 20
162.05197743
 30
0.0
  0
ENDBLK
  8
0
  0
BLOCK
  8
0
  2
SHEET_FLANGE_00057
 70
     0
 10
135.71117928
 20
162.05197743
 30
0.0
  0
POLYLINE
  5
48C
  8
LE_ALL
 66
     1
 10
0.0
 20
0.0
 30
0.0
 70
     1
  0
VERTEX
  5
48D
  8
LE_ALL
 10
135.71117928
 20
162.05197743
 30
0.0
  0
VERTEX
  5
48E
  8
LE_ALL
 10
135.71117928
 20
157.05197743
 30
0.0
  0
VERTEX
  5
48F
  8
LE_ALL
 10
203.2113125
 20
157.05197743
 30
0.0
  0
VERTEX
  5
490
  8
LE_ALL
 10
203.2113125
 20
162.05197743
 30
0.0
  0
SEQEND
  5
491
  8
LE_ALL
  0
ENDBLK
  8
0
  0
BLOCK
  8
0
  2
BEND_ZONE_00058
 70
     0
 10
0.0
 20
0.0
 30
0.0
  0
INSERT
  5
494
  8
0
  2
BEND_ZONE_00059
 10
133.63523982
 20
105.50329901
 30
0.0
  0
ENDBLK
  8
0
  0
BLOCK
  8
0
  2
BEND_ZONE_00059
 70
     0
 10
133.63523982
 20
105.50329901
 30
0.0
  0
ARC
  5
497
  8
LE_ALL
 10
135.71117928
 20
110.05197743
 30
0.0
 40
5.0
 50
-142.599330606
 51
-114.531149511
  0
ENDBLK
  8
0
  0
BLOCK
  8
0
  2
BEND_ZONE_00060
 70
     0
 10
0.0
 20
0.0
 30
0.0
  0
INSERT
  5
49A
  8
0
  2
BEND_ZONE_00061
 10
131.73914133
 20
155.0889026
 30
0.0
  0
ENDBLK
  8
0
  0
BLOCK
  8
0
  2
BEND_ZONE_00061
 70
     0
 10
131.73914133
 20
155.0889026
 30
0.0
  0
ARC
  5
49D
  8
LE_ALL
 10
135.71117928
 20
152.05197743
 30
0.0
 40
5.0
 50
114.531158889
 51
142.599336805
  0
ENDBLK
  8
0
  0
BLOCK
  8
0
  2
SPHERE_2_00062
 70
     0
 10
0.0
 20
0.0
 30
0.0
  0
INSERT
  5
4A0
  8
0
  2
SPHERE_2_00063
 10
135.71117928
 20
105.05197743
 30
0.0
  0
ENDBLK
  8
0
  0
BLOCK
  8
0
  2
SPHERE_2_00063
 70
     0
 10
135.71117928
 20
105.05197743
 30
0.0
  0
POLYLINE
  5
4A3
  8
0
 66
     1
 10
0.0
 20
0.0
 30
0.0
  0
VERTEX
  5
4A4
  8
0
 10
135.71117928
 20
105.05197743
 30
0.0
  0
VERTEX
  5
4A5
  8
0
 10
135.71117928
 20
110.05197743
 30
0.0
  0
VERTEX
  5
4A6
  8
0
 10
130.71117928
 20
110.05197743
 30
0.0
  0
SEQEND
  5
4A7
  8
0
  0
ENDBLK
  8
0
  0
BLOCK
  8
0
  2
SPHERE_2_00064
 70
     0
 10
0.0
 20
0.0
 30
0.0
  0
INSERT
  5
4AA
  8
0
  2
SPHERE_2_00065
 10
130.71117928
 20
152.05197743
 30
0.0
  0
ENDBLK
  8
0
  0
BLOCK
  8
0
  2
SPHERE_2_00065
 70
     0
 10
130.71117928
 20
152.05197743
 30
0.0
  0
POLYLINE
  5
4AD
  8
0
 66
     1
 10
0.0
 20
0.0
 30
0.0
  0
VERTEX
  5
4AE
  8
0
 10
130.71117928
 20
152.05197743
 30
0.0
  0
VERTEX
  5
4AF
  8
0
 10
135.71117928
 20
152.05197743
 30
0.0
  0
VERTEX
  5
4B0
  8
0
 10
135.71117928
 20
157.05197743
 30
0.0
  0
SEQEND
  5
4B1
  8
0
  0
ENDBLK
  8
0
  0
BLOCK
  8
0
  2
_ANS0004_00066
 70
     0
 10
0.0
 20
0.0
 30
0.0
  0
INSERT
  5
4B4
  8
0
  2
_A3D0004_00067
 10
0.0
 20
0.0
 30
0.0
  0
ENDBLK
  8
0
  0
BLOCK
  8
0
  2
_A3D0004_00067
 70
     0
 10
0.0
 20
0.0
 30
0.0
  0
INSERT
  5
4B7
  8
0
  2
SVH05-ANKER_00068
 10
0.0
 20
0.0
 30
0.0
  0
ENDBLK
  8
0
  0
BLOCK
  8
0
  2
SVH05-ANKER_00068
 70
     0
 10
0.0
 20
0.0
 30
0.0
  0
INSERT
  5
4BA
  8
0
  2
1X_BL_10X7_143X72_000_S238
 10
0.0
 20
0.0
 30
0.0
  0
INSERT
  5
4BB
  8
0
  2
1X_BL_10X7_143X72_000_S23A
 10
0.0
 20
0.0
 30
0.0
  0
INSERT
  5
4BC
  8
0
  2
PLAAT_5MM_00073
 10
0.0
 20
0.0
 30
0.0
  0
INSERT
  5
4BD
  8
0
  2
SPHERE_2_00092
 10
0.0
 20
0.0
 30
0.0
  0
INSERT
  5
4BE
  8
0
  2
SPHERE_2_00094
 10
0.0
 20
0.0
 30
0.0
  0
ENDBLK
  8
0
  0
BLOCK
  8
0
  2
1X_BL_10X7_143X72_000_S238
 70
     0
 10
0.0
 20
0.0
 30
0.0
  0
INSERT
  5
4C1
  8
0
  2
1X_BL_10X7_143X72_000_S239
 10
17.39859586
 20
205.03683336
 30
0.0
  0
ENDBLK
  8
0
  0
BLOCK
  8
0
  2
1X_BL_10X7_143X72_000_S239
 70
     0
 10
17.39859586
 20
205.03683336
 30
0.0
  0
LINE
  5
4C4
  8
0
 10
17.39859586
 20
205.03683336
 30
0.0
 11
7.39859586
 21
205.03683336
 31
0.0
  0
LINE
  5
4C5
  8
0
 10
7.39859586
 20
215.03683336
 30
0.0
 11
7.39859586
 21
205.03683336
 31
0.0
  0
LINE
  5
4C6
  8
0
 10
7.13775412
 20
205.03683336
 30
0.0
 11
7.39859586
 21
215.03683336
 31
0.0
  0
LINE
  5
4C7
  8
0
 10
7.39859586
 20
205.03683336
 30
0.0
 11
7.13775412
 21
205.03683336
 31
0.0
  0
LINE
  5
4C8
  8
0
 10
7.13775412
 20
214.56812273
 30
0.0
 11
7.13775412
 21
205.03683336
 31
0.0
  0
LINE
  5
4C9
  8
0
 10
7.13775412
 20
214.56812273
 30
0.0
 11
7.39859586
 21
215.03683336
 31
0.0
  0
LINE
  5
4CA
  8
0
 10
3.468459
 20
210.72408098
 30
0.0
 11
7.13775412
 21
214.56812273
 31
0.0
  0
LINE
  5
4CB
  8
0
 10
3.468459
 20
210.72408098
 30
0.0
 11
3.468459
 21
205.03683336
 31
0.0
  0
LINE
  5
4CC
  8
0
 10
7.13775412
 20
205.03683336
 30
0.0
 11
3.468459
 21
205.03683336
 31
0.0
  0
LINE
  5
4CD
  8
0
 10
2.39859586
 20
210.03683336
 30
0.0
 11
3.468459
 21
205.03683336
 31
0.0
  0
LINE
  5
4CE
  8
0
 10
2.39859586
 20
210.03683336
 30
0.0
 11
3.468459
 21
210.72408098
 31
0.0
  0
LINE
  5
4CF
  8
0
 10
2.39859586
 20
205.03683336
 30
0.0
 11
2.39859586
 21
210.03683336
 31
0.0
  0
LINE
  5
4D0
  8
0
 10
3.468459
 20
205.03683336
 30
0.0
 11
2.39859586
 21
205.03683336
 31
0.0
  0
LINE
  5
4D1
  8
0
 10
73.32873272
 20
205.03683336
 30
0.0
 11
74.39859586
 21
210.03683336
 31
0.0
  0
LINE
  5
4D2
  8
0
 10
73.32873272
 20
210.72408098
 30
0.0
 11
74.39859586
 21
210.03683336
 31
0.0
  0
POLYLINE
  5
4D3
  8
0
 66
     1
 10
0.0
 20
0.0
 30
0.0
  0
VERTEX
  5
4D4
  8
0
 10
73.32873272
 20
210.72408098
 30
0.0
  0
VERTEX
  5
4D5
  8
0
 10
73.32873272
 20
205.03683336
 30
0.0
  0
VERTEX
  5
4D6
  8
0
 10
74.39859586
 20
205.03683336
 30
0.0
  0
VERTEX
  5
4D7
  8
0
 10
74.39859586
 20
210.03683336
 30
0.0
  0
SEQEND
  5
4D8
  8
0
  0
POLYLINE
  5
4D9
  8
0
 66
     1
 10
0.0
 20
0.0
 30
0.0
  0
VERTEX
  5
4DA
  8
0
 10
73.32873272
 20
205.03683336
 30
0.0
  0
VERTEX
  5
4DB
  8
0
 10
69.65943761
 20
205.03683336
 30
0.0
  0
VERTEX
  5
4DC
  8
0
 10
69.65943761
 20
214.56812273
 30
0.0
  0
VERTEX
  5
4DD
  8
0
 10
73.32873272
 20
210.72408098
 30
0.0
  0
SEQEND
  5
4DE
  8
0
  0
LINE
  5
4DF
  8
0
 10
69.39859586
 20
215.03683336
 30
0.0
 11
69.65943761
 21
214.56812273
 31
0.0
  0
LINE
  5
4E0
  8
0
 10
69.65943761
 20
205.03683336
 30
0.0
 11
69.39859586
 21
215.03683336
 31
0.0
  0
POLYLINE
  5
4E1
  8
0
 66
     1
 10
0.0
 20
0.0
 30
0.0
  0
VERTEX
  5
4E2
  8
0
 10
69.65943761
 20
205.03683336
 30
0.0
  0
VERTEX
  5
4E3
  8
0
 10
69.39859586
 20
205.03683336
 30
0.0
  0
VERTEX
  5
4E4
  8
0
 10
69.39859586
 20
215.03683336
 30
0.0
  0
SEQEND
  5
4E5
  8
0
  0
LINE
  5
4E6
  8
0
 10
69.39859586
 20
205.03683336
 30
0.0
 11
59.39859586
 21
205.03683336
 31
0.0
  0
ENDBLK
  8
0
  0
BLOCK
  8
0
  2
1X_BL_10X7_143X72_000_S23A
 70
     0
 10
0.0
 20
0.0
 30
0.0
  0
INSERT
  5
4E9
  8
0
  2
1X_BL_10X7_143X72_000_S23B
 10
17.39859586
 20
256.89410944
 30
0.0
  0
ENDBLK
  8
0
  0
BLOCK
  8
0
  2
1X_BL_10X7_143X72_000_S23B
 70
     0
 10
17.39859586
 20
256.89410944
 30
0.0
  0
LINE
  5
4EC
  8
0
 10
17.39859586
 20
256.89410944
 30
0.0
 11
17.39859586
 21
264.03696659
 31
0.0
  0
LINE
  5
4ED
  8
0
 10
2.39859586
 20
264.03696659
 30
0.0
 11
17.39859586
 21
264.03696659
 31
0.0
  0
POLYLINE
  5
4EE
  8
0
 66
     1
 10
0.0
 20
0.0
 30
0.0
  0
VERTEX
  5
4EF
  8
0
 10
2.39859586
 20
264.03696659
 30
0.0
  0
VERTEX
  5
4F0
  8
0
 10
3.468459
 20
263.05518428
 30
0.0
  0
VERTEX
  5
4F1
  8
0
 10
7.13775412
 20
257.56369607
 30
0.0
  0
VERTEX
  5
4F2
  8
0
 10
7.39859586
 20
256.89410944
 30
0.0
  0
VERTEX
  5
4F3
  8
0
 10
17.39859586
 20
256.89410944
 30
0.0
  0
SEQEND
  5
4F4
  8
0
  0
POLYLINE
  5
4F5
  8
0
 66
     1
 10
0.0
 20
0.0
 30
0.0
  0
VERTEX
  5
4F6
  8
0
 10
59.39859586
 20
256.89410944
 30
0.0
  0
VERTEX
  5
4F7
  8
0
 10
59.39859586
 20
264.03696659
 30
0.0
  0
VERTEX
  5
4F8
  8
0
 10
74.39859586
 20
264.03696659
 30
0.0
  0
SEQEND
  5
4F9
  8
0
  0
LINE
  5
4FA
  8
0
 10
73.32873272
 20
263.05518428
 30
0.0
 11
74.39859586
 21
264.03696659
 31
0.0
  0
LINE
  5
4FB
  8
0
 10
69.65943761
 20
257.56369607
 30
0.0
 11
73.32873272
 21
263.05518428
 31
0.0
  0
LINE
  5
4FC
  8
0
 10
69.39859586
 20
256.89410944
 30
0.0
 11
69.65943761
 21
257.56369607
 31
0.0
  0
LINE
  5
4FD
  8
0
 10
59.39859586
 20
256.89410944
 30
0.0
 11
69.39859586
 21
256.89410944
 31
0.0
  0
ENDBLK
  8
0
  0
BLOCK
  8
0
  2
PLAAT_5MM_00073
 70
     0
 10
0.0
 20
0.0
 30
0.0
  0
INSERT
  5
500
  8
0
  2
SHEET_FLANGE_00074
 10
0.0
 20
0.0
 30
0.0
  0
INSERT
  5
501
  8
0
  2
BEND_ZONE_00076
 10
0.0
 20
0.0
 30
0.0
  0
INSERT
  5
502
  8
0
  2
SHEET_FLANGE_00078
 10
0.0
 20
0.0
 30
0.0
  0
INSERT
  5
503
  8
0
  2
BEND_ZONE_00080
 10
0.0
 20
0.0
 30
0.0
  0
INSERT
  5
504
  8
0
  2
BEND_ZONE_00082
 10
0.0
 20
0.0
 30
0.0
  0
INSERT
  5
505
  8
0
  2
BEND_ZONE_00084
 10
0.0
 20
0.0
 30
0.0
  0
INSERT
  5
506
  8
0
  2
SHEET_FLANGE_00086
 10
0.0
 20
0.0
 30
0.0
  0
INSERT
  5
507
  8
0
  2
BEND_ZONE_00088
 10
0.0
 20
0.0
 30
0.0
  0
INSERT
  5
508
  8
0
  2
SHEET_FLANGE_00090
 10
0.0
 20
0.0
 30
0.0
  0
ENDBLK
  8
0
  0
BLOCK
  8
0
  2
SHEET_FLANGE_00074
 70
     0
 10
0.0
 20
0.0
 30
0.0
  0
INSERT
  5
50B
  8
0
  2
SHEET_FLANGE_00075
 10
2.39859586
 20
205.03683336
 30
0.0
  0
ENDBLK
  8
0
  0
BLOCK
  8
0
  2
SHEET_FLANGE_00075
 70
     0
 10
2.39859586
 20
205.03683336
 30
0.0
  0
LINE
  5
50E
  8
LE_ALL
 10
2.39859586
 20
205.03683336
 30
0.0
 11
2.39859586
 21
210.03683336
 31
0.0
  0
LINE
  5
50F
  8
LE_ALL
 10
74.39859586
 20
205.03683336
 30
0.0
 11
74.39859586
 21
210.03683336
 31
0.0
  0
LINE
  5
510
  8
LE_ALL
 10
17.39859586
 20
205.03683336
 30
0.0
 11
59.39859586
 21
205.03683336
 31
0.0
  0
ENDBLK
  8
0
  0
BLOCK
  8
0
  2
BEND_ZONE_00076
 70
     0
 10
0.0
 20
0.0
 30
0.0
  0
INSERT
  5
513
  8
0
  2
BEND_ZONE_00077
 10
59.39859586
 20
205.03683336
 30
0.0
  0
ENDBLK
  8
0
  0
BLOCK
  8
0
  2
BEND_ZONE_00077
 70
     0
 10
59.39859586
 20
205.03683336
 30
0.0
  0
POLYLINE
  5
516
  8
LE_ALL
 66
     1
 10
0.0
 20
0.0
 30
0.0
  0
VERTEX
  5
517
  8
LE_ALL
 10
59.39859586
 20
205.03683336
 30
0.0
  0
VERTEX
  5
518
  8
LE_ALL
 10
17.39859586
 20
205.03683336
 30
0.0
  0
VERTEX
  5
519
  8
LE_ALL
 10
17.39859586
 20
215.03683336
 30
0.0
  0
SEQEND
  5
51A
  8
LE_ALL
  0
LINE
  5
51B
  8
LE_ALL
 10
59.39859586
 20
215.03683336
 30
0.0
 11
17.39859586
 21
215.03683336
 31
0.0
  0
LINE
  5
51C
  8
LE_ALL
 10
59.39859586
 20
215.03683336
 30
0.0
 11
59.39859586
 21
205.03683336
 31
0.0
  0
ENDBLK
  8
0
  0
BLOCK
  8
0
  2
SHEET_FLANGE_00078
 70
     0
 10
0.0
 20
0.0
 30
0.0
  0
INSERT
  5
51F
  8
0
  2
SHEET_FLANGE_00079
 10
22.89859586
 20
235.53696659
 30
0.0
  0
ENDBLK
  8
0
  0
BLOCK
  8
0
  2
SHEET_FLANGE_00079
 70
     0
 10
22.89859586
 20
235.53696659
 30
0.0
  0
CIRCLE
  5
522
  8
LE_ALL
 10
22.89859586
 20
239.03696659
 30
0.0
 40
3.5
  0
CIRCLE
  5
523
  8
LE_ALL
 10
22.89859586
 20
221.03696659
 30
0.0
 40
4.5
  0
CIRCLE
  5
524
  8
LE_ALL
 10
53.89859586
 20
239.03696659
 30
0.0
 40
4.5
  0
CIRCLE
  5
525
  8
LE_ALL
 10
53.89859586
 20
221.03696659
 30
0.0
 40
3.5
  0
POLYLINE
  5
526
  8
LE_ALL
 66
     1
 10
0.0
 20
0.0
 30
0.0
 70
     1
  0
VERTEX
  5
527
  8
LE_ALL
 10
31.89859586
 20
237.53696659
 30
0.0
 42
1.0
  0
VERTEX
  5
528
  8
LE_ALL
 10
44.89859586
 20
237.53696659
 30
0.0
  0
VERTEX
  5
529
  8
LE_ALL
 10
44.89859586
 20
254.53696659
 30
0.0
 42
1.0
  0
VERTEX
  5
52A
  8
LE_ALL
 10
31.89859586
 20
254.53696659
 30
0.0
  0
SEQEND
  5
52B
  8
LE_ALL
  0
LINE
  5
52C
  8
LE_ALL
 10
62.39869578
 20
280.03687777
 30
0.0
 11
14.39849595
 21
280.03687777
 31
0.0
  0
LINE
  5
52D
  8
LE_ALL
 10
5.39859586
 20
276.03696659
 30
0.0
 11
14.39849595
 21
280.03687777
 31
0.0
  0
LINE
  5
52E
  8
LE_ALL
 10
5.39859586
 20
270.03696659
 30
0.0
 11
5.39859586
 21
276.03696659
 31
0.0
  0
LINE
  5
52F
  8
LE_ALL
 10
2.39859586
 20
270.03696659
 30
0.0
 11
5.39859586
 21
270.03696659
 31
0.0
  0
LINE
  5
530
  8
LE_ALL
 10
2.39859586
 20
264.03696659
 30
0.0
 11
2.39859586
 21
270.03696659
 31
0.0
  0
LINE
  5
531
  8
LE_ALL
 10
17.39859586
 20
264.03696659
 30
0.0
 11
2.39859586
 21
264.03696659
 31
0.0
  0
LINE
  5
532
  8
LE_ALL
 10
17.39859586
 20
215.03683336
 30
0.0
 11
17.39859586
 21
264.03696659
 31
0.0
  0
LINE
  5
533
  8
LE_ALL
 10
17.39859586
 20
215.03683336
 30
0.0
 11
59.39859586
 21
215.03683336
 31
0.0
  0
LINE
  5
534
  8
LE_ALL
 10
59.39859586
 20
264.03696659
 30
0.0
 11
59.39859586
 21
215.03683336
 31
0.0
  0
LINE
  5
535
  8
LE_ALL
 10
74.39859586
 20
264.03696659
 30
0.0
 11
59.39859586
 21
264.03696659
 31
0.0
  0
LINE
  5
536
  8
LE_ALL
 10
74.39859586
 20
270.03696659
 30
0.0
 11
74.39859586
 21
264.03696659
 31
0.0
  0
LINE
  5
537
  8
LE_ALL
 10
71.39859586
 20
270.03696659
 30
0.0
 11
74.39859586
 21
270.03696659
 31
0.0
  0
LINE
  5
538
  8
LE_ALL
 10
71.39859586
 20
276.03696659
 30
0.0
 11
71.39859586
 21
270.03696659
 31
0.0
  0
LINE
  5
539
  8
LE_ALL
 10
62.39869578
 20
280.03687777
 30
0.0
 11
71.39859586
 21
276.03696659
 31
0.0
  0
ENDBLK
  8
0
  0
BLOCK
  8
0
  2
BEND_ZONE_00080
 70
     0
 10
0.0
 20
0.0
 30
0.0
  0
INSERT
  5
53C
  8
0
  2
BEND_ZONE_00081
 10
59.39859586
 20
205.03683336
 30
0.0
  0
ENDBLK
  8
0
  0
BLOCK
  8
0
  2
BEND_ZONE_00081
 70
     0
 10
59.39859586
 20
205.03683336
 30
0.0
  0
ARC
  5
53F
  8
LE_ALL
 10
59.39859586
 20
215.03683336
 30
0.0
 40
10.0
 50
-90.0
 51
0.0
  0
ENDBLK
  8
0
  0
BLOCK
  8
0
  2
BEND_ZONE_00082
 70
     0
 10
0.0
 20
0.0
 30
0.0
  0
INSERT
  5
542
  8
0
  2
BEND_ZONE_00083
 10
7.39859586
 20
215.03683336
 30
0.0
  0
ENDBLK
  8
0
  0
BLOCK
  8
0
  2
BEND_ZONE_00083
 70
     0
 10
7.39859586
 20
215.03683336
 30
0.0
  0
ARC
  5
545
  8
LE_ALL
 10
17.39859586
 20
215.03683336
 30
0.0
 40
10.0
 50
180.0
 51
-90.0
  0
ENDBLK
  8
0
  0
BLOCK
  8
0
  2
BEND_ZONE_00084
 70
     0
 10
0.0
 20
0.0
 30
0.0
  0
INSERT
  5
548
  8
0
  2
BEND_ZONE_00085
 10
59.39859586
 20
215.03683336
 30
0.0
  0
ENDBLK
  8
0
  0
BLOCK
  8
0
  2
BEND_ZONE_00085
 70
     0
 10
59.39859586
 20
215.03683336
 30
0.0
  0
POLYLINE
  5
54B
  8
LE_ALL
 66
     1
 10
0.0
 20
0.0
 30
0.0
  0
VERTEX
  5
54C
  8
LE_ALL
 10
59.39859586
 20
215.03683336
 30
0.0
  0
VERTEX
  5
54D
  8
LE_ALL
 10
59.39859586
 20
256.89396659
 30
0.0
  0
VERTEX
  5
54E
  8
LE_ALL
 10
69.39859586
 20
256.89396659
 30
0.0
  0
SEQEND
  5
54F
  8
LE_ALL
  0
LINE
  5
550
  8
LE_ALL
 10
69.39859586
 20
215.03683336
 30
0.0
 11
69.39859586
 21
256.89396659
 31
0.0
  0
LINE
  5
551
  8
LE_ALL
 10
69.39859586
 20
215.03683336
 30
0.0
 11
59.39859586
 21
215.03683336
 31
0.0
  0
ENDBLK
  8
0
  0
BLOCK
  8
0
  2
SHEET_FLANGE_00086
 70
     0
 10
0.0
 20
0.0
 30
0.0
  0
INSERT
  5
554
  8
0
  2
SHEET_FLANGE_00087
 10
69.39859586
 20
256.89410944
 30
0.0
  0
ENDBLK
  8
0
  0
BLOCK
  8
0
  2
SHEET_FLANGE_00087
 70
     0
 10
69.39859586
 20
256.89410944
 30
0.0
  0
LINE
  5
557
  8
LE_ALL
 10
69.39859586
 20
256.89410944
 30
0.0
 11
69.39859586
 21
215.03683336
 31
0.0
  0
ENDBLK
  8
0
  0
BLOCK
  8
0
  2
BEND_ZONE_00088
 70
     0
 10
0.0
 20
0.0
 30
0.0
  0
INSERT
  5
55A
  8
0
  2
BEND_ZONE_00089
 10
7.39859586
 20
256.89396659
 30
0.0
  0
ENDBLK
  8
0
  0
BLOCK
  8
0
  2
BEND_ZONE_00089
 70
     0
 10
7.39859586
 20
256.89396659
 30
0.0
  0
LINE
  5
55D
  8
LE_ALL
 10
7.39859586
 20
256.89396659
 30
0.0
 11
7.39859586
 21
215.03683336
 31
0.0
  0
LINE
  5
55E
  8
LE_ALL
 10
17.39859586
 20
215.03683336
 30
0.0
 11
7.39859586
 21
215.03683336
 31
0.0
  0
LINE
  5
55F
  8
LE_ALL
 10
17.39859586
 20
256.89396659
 30
0.0
 11
17.39859586
 21
215.03683336
 31
0.0
  0
LINE
  5
560
  8
LE_ALL
 10
7.39859586
 20
256.89396659
 30
0.0
 11
17.39859586
 21
256.89396659
 31
0.0
  0
ENDBLK
  8
0
  0
BLOCK
  8
0
  2
SHEET_FLANGE_00090
 70
     0
 10
0.0
 20
0.0
 30
0.0
  0
INSERT
  5
563
  8
0
  2
SHEET_FLANGE_00091
 10
7.39859586
 20
215.03683336
 30
0.0
  0
ENDBLK
  8
0
  0
BLOCK
  8
0
  2
SHEET_FLANGE_00091
 70
     0
 10
7.39859586
 20
215.03683336
 30
0.0
  0
LINE
  5
566
  8
LE_ALL
 10
7.39859586
 20
215.03683336
 30
0.0
 11
7.39859586
 21
256.89410944
 31
0.0
  0
ENDBLK
  8
0
  0
BLOCK
  8
0
  2
SPHERE_2_00092
 70
     0
 10
0.0
 20
0.0
 30
0.0
  0
INSERT
  5
569
  8
0
  2
SPHERE_2_00093
 10
69.39859586
 20
215.03683336
 30
0.0
  0
ENDBLK
  8
0
  0
BLOCK
  8
0
  2
SPHERE_2_00093
 70
     0
 10
69.39859586
 20
215.03683336
 30
0.0
  0
POLYLINE
  5
56C
  8
0
 66
     1
 10
0.0
 20
0.0
 30
0.0
 70
     1
  0
VERTEX
  5
56D
  8
0
 10
69.39859586
 20
215.03683336
 30
0.0
 42
-0.414213562
  0
VERTEX
  5
56E
  8
0
 10
59.39859586
 20
205.03683336
 30
0.0
  0
VERTEX
  5
56F
  8
0
 10
59.39859586
 20
215.03683336
 30
0.0
  0
SEQEND
  5
570
  8
0
  0
ENDBLK
  8
0
  0
BLOCK
  8
0
  2
SPHERE_2_00094
 70
     0
 10
0.0
 20
0.0
 30
0.0
  0
INSERT
  5
573
  8
0
  2
SPHERE_2_00095
 10
17.39859586
 20
215.03683336
 30
0.0
  0
ENDBLK
  8
0
  0
BLOCK
  8
0
  2
SPHERE_2_00095
 70
     0
 10
17.39859586
 20
215.03683336
 30
0.0
  0
POLYLINE
  5
576
  8
0
 66
     1
 10
0.0
 20
0.0
 30
0.0
 70
     1
  0
VERTEX
  5
577
  8
0
 10
17.39859586
 20
215.03683336
 30
0.0
  0
VERTEX
  5
578
  8
0
 10
17.39859586
 20
205.03683336
 30
0.0
 42
-0.414213562
  0
VERTEX
  5
579
  8
0
 10
7.39859586
 20
215.03683336
 30
0.0
  0
SEQEND
  5
57A
  8
0
  0
ENDBLK
  8
0
  0
BLOCK
  8
0
  2
_ANS0005_00096
 70
     0
 10
0.0
 20
0.0
 30
0.0
  0
INSERT
  5
57D
  8
0
  2
_A3D0005_00097
 10
0.0
 20
0.0
 30
0.0
  0
ENDBLK
  8
0
  0
BLOCK
  8
0
  2
_A3D0005_00097
 70
     0
 10
0.0
 20
0.0
 30
0.0
  0
INSERT
  5
580
  8
0
  2
SVH05-ANKER_00098
 10
0.0
 20
0.0
 30
0.0
  0
ENDBLK
  8
0
  0
BLOCK
  8
0
  2
SVH05-ANKER_00098
 70
     0
 10
0.0
 20
0.0
 30
0.0
  0
INSERT
  5
583
  8
0
  2
1X_BL_10X7_143X72_000_S23C
 10
0.0
 20
0.0
 30
0.0
  0
INSERT
  5
584
  8
0
  2
1X_BL_10X7_143X72_000_S23E
 10
0.0
 20
0.0
 30
0.0
  0
INSERT
  5
585
  8
0
  2
PLAAT_5MM_00103
 10
0.0
 20
0.0
 30
0.0
  0
INSERT
  5
586
  8
0
  2
SPHERE_2_00126
 10
0.0
 20
0.0
 30
0.0
  0
INSERT
  5
587
  8
0
  2
SPHERE_2_00128
 10
0.0
 20
0.0
 30
0.0
  0
ENDBLK
  8
0
  0
BLOCK
  8
0
  2
1X_BL_10X7_143X72_000_S23C
 70
     0
 10
0.0
 20
0.0
 30
0.0
  0
INSERT
  5
58A
  8
0
  2
1X_BL_10X7_143X72_000_S23D
 10
13.48293709
 20
73.28728269
 30
0.0
  0
ENDBLK
  8
0
  0
BLOCK
  8
0
  2
1X_BL_10X7_143X72_000_S23D
 70
     0
 10
13.48293709
 20
73.28728269
 30
0.0
  0
POLYLINE
  5
58D
  8
0
 66
     1
 10
0.0
 20
0.0
 30
0.0
  0
VERTEX
  5
58E
  8
0
 10
13.48293709
 20
73.28728269
 30
0.0
  0
VERTEX
  5
58F
  8
0
 10
15.75507715
 20
72.76396306
 30
0.0
  0
VERTEX
  5
590
  8
0
 10
13.72652805
 20
73.1847103
 30
0.0
  0
SEQEND
  5
591
  8
0
  0
LINE
  5
592
  8
0
 10
16.09502087
 20
72.82572503
 30
0.0
 11
13.1510716
 21
73.43633806
 31
0.0
  0
LINE
  5
593
  8
0
 10
15.75507715
 20
72.76396306
 30
0.0
 11
16.09502087
 21
72.82572503
 31
0.0
  0
POLYLINE
  5
594
  8
0
 66
     1
 10
0.0
 20
0.0
 30
0.0
  0
VERTEX
  5
595
  8
0
 10
15.75507715
 20
72.76396306
 30
0.0
  0
VERTEX
  5
596
  8
0
 10
15.34758394
 20
72.7638118
 30
0.0
  0
VERTEX
  5
597
  8
0
 10
14.87328477
 20
72.83080957
 30
0.0
  0
VERTEX
  5
598
  8
0
 10
14.33578229
 20
72.9686009
 30
0.0
  0
VERTEX
  5
599
  8
0
 10
13.7418149
 20
73.1784555
 30
0.0
  0
VERTEX
  5
59A
  8
0
 10
13.5555779
 20
73.2546565
 30
0.0
  0
VERTEX
  5
59B
  8
0
 10
13.10028112
 20
73.45915029
 30
0.0
  0
VERTEX
  5
59C
  8
0
 10
12.42178496
 20
73.80690114
 30
0.0
  0
VERTEX
  5
59D
  8
0
 10
11.71855501
 20
74.21540875
 30
0.0
  0
VERTEX
  5
59E
  8
0
 10
11.0039089
 20
74.67619507
 30
0.0
  0
VERTEX
  5
59F
  8
0
 10
10.45465279
 20
75.05994504
 30
0.0
  0
VERTEX
  5
5A0
  8
0
 10
10.29084918
 20
75.179288
 30
0.0
  0
VERTEX
  5
5A1
  8
0
 10
9.59137886
 20
75.71387098
 30
0.0
  0
VERTEX
  5
5A2
  8
0
 10
8.91647992
 20
76.26884063
 30
0.0
  0
VERTEX
  5
5A3
  8
0
 10
8.27504066
 20
76.83356005
 30
0.0
  0
VERTEX
  5
5A4
  8
0
 10
8.23710964
 20
76.86919777
 30
0.0
  0
SEQEND
  5
5A5
  8
0
  0
POLYLINE
  5
5A6
  8
0
 66
     1
 10
0.0
 20
0.0
 30
0.0
  0
VERTEX
  5
5A7
  8
0
 10
7.67397203
 20
77.39828834
 30
0.0
  0
VERTEX
  5
5A8
  8
0
 10
5.12224607
 20
75.89546489
 30
0.0
  0
VERTEX
  5
5A9
  8
0
 10
5.56495091
 20
75.25848075
 30
0.0
  0
VERTEX
  5
5AA
  8
0
 10
8.41485695
 20
69.57449645
 30
0.0
  0
VERTEX
  5
5AB
  8
0
 10
8.71316043
 20
68.43390834
 30
0.0
  0
VERTEX
  5
5AC
  8
0
 10
16.36833828
 20
72.94237868
 30
0.0
  0
SEQEND
  5
5AD
  8
0
  0
LINE
  5
5AE
  8
0
 10
16.09502087
 20
72.82572503
 30
0.0
 11
16.36833828
 21
72.94237868
 31
0.0
  0
LINE
  5
5AF
  8
0
 10
16.09502087
 20
72.82572503
 30
0.0
 11
12.82389355
 21
73.60080771
 31
0.0
  0
LINE
  5
5B0
  8
0
 10
14.32079151
 20
73.36706627
 30
0.0
 11
12.57240306
 21
73.72970457
 31
0.0
  0
LINE
  5
5B1
  8
0
 10
16.36833828
 20
72.94237868
 30
0.0
 11
14.32079151
 21
73.36706627
 31
0.0
  0
LINE
  5
5B2
  8
0
 10
8.41485695
 20
64.24592042
 30
0.0
 11
8.71316043
 21
63.74923801
 31
0.0
  0
LINE
  5
5B3
  8
0
 10
8.41485695
 20
64.24592042
 30
0.0
 11
8.71316043
 21
68.43390834
 31
0.0
  0
LINE
  5
5B4
  8
0
 10
8.71316043
 20
63.74923801
 30
0.0
 11
8.71316043
 21
68.43390834
 31
0.0
  0
POLYLINE
  5
5B5
  8
0
 66
     1
 10
0.0
 20
0.0
 30
0.0
  0
VERTEX
  5
5B6
  8
0
 10
8.41485695
 20
69.57449645
 30
0.0
  0
VERTEX
  5
5B7
  8
0
 10
8.41485695
 20
64.24592042
 30
0.0
  0
VERTEX
  5
5B8
  8
0
 10
5.56495091
 20
66.32829106
 30
0.0
  0
VERTEX
  5
5B9
  8
0
 10
5.56495091
 20
75.25848075
 30
0.0
  0
SEQEND
  5
5BA
  8
0
  0
LINE
  5
5BB
  8
0
 10
5.56495091
 20
66.32829106
 30
0.0
 11
5.12224607
 21
75.89546489
 31
0.0
  0
LINE
  5
5BC
  8
0
 10
5.12224607
 20
66.52612424
 30
0.0
 11
5.12224607
 21
75.89546489
 31
0.0
  0
LINE
  5
5BD
  8
0
 10
5.56495091
 20
66.32829106
 30
0.0
 11
5.12224607
 21
66.52612424
 31
0.0
  0
LINE
  5
5BE
  8
0
 10
15.34758394
 20
72.7638118
 30
0.0
 11
14.18045106
 21
73.02348097
 31
0.0
  0
LINE
  5
5BF
  8
0
 10
15.34758394
 20
72.7638118
 30
0.0
 11
14.30102077
 21
72.98088249
 31
0.0
  0
POLYLINE
  5
5C0
  8
0
 66
     1
 10
0.0
 20
0.0
 30
0.0
  0
VERTEX
  5
5C1
  8
0
 10
31.90500027
 20
87.00594275
 30
0.0
  0
VERTEX
  5
5C2
  8
0
 10
38.01912745
 20
85.73779397
 30
0.0
  0
VERTEX
  5
5C3
  8
0
 10
37.80283628
 20
85.56609562
 30
0.0
  0
VERTEX
  5
5C4
  8
0
 10
31.90500027
 20
87.00594275
 30
0.0
  0
VERTEX
  5
5C5
  8
0
 10
32.15613414
 20
87.221568
 30
0.0
  0
SEQEND
  5
5C6
  8
0
  0
LINE
  5
5C7
  8
0
 10
38.01912745
 20
85.73779397
 30
0.0
 11
32.15613414
 21
87.221568
 31
0.0
  0
POLYLINE
  5
5C8
  8
0
 66
     1
 10
0.0
 20
0.0
 30
0.0
  0
VERTEX
  5
5C9
  8
0
 10
38.01912745
 20
85.73779397
 30
0.0
  0
VERTEX
  5
5CA
  8
0
 10
38.18145146
 20
85.97183952
 30
0.0
  0
VERTEX
  5
5CB
  8
0
 10
32.70897176
 20
87.10690235
 30
0.0
  0
SEQEND
  5
5CC
  8
0
  0
LINE
  5
5CD
  8
0
 10
32.15613414
 20
87.221568
 30
0.0
 11
32.40992353
 21
87.48847201
 31
0.0
  0
LINE
  5
5CE
  8
0
 10
38.18145146
 20
85.97183952
 30
0.0
 11
32.40992353
 21
87.48847201
 31
0.0
  0
POLYLINE
  5
5CF
  8
0
 66
     1
 10
0.0
 20
0.0
 30
0.0
  0
VERTEX
  5
5D0
  8
0
 10
38.18145146
 20
85.97183952
 30
0.0
  0
VERTEX
  5
5D1
  8
0
 10
38.28153703
 20
86.27062369
 30
0.0
  0
VERTEX
  5
5D2
  8
0
 10
32.96276115
 20
87.37380636
 30
0.0
  0
SEQEND
  5
5D3
  8
0
  0
LINE
  5
5D4
  8
0
 10
32.40992353
 20
87.48847201
 30
0.0
 11
32.66212534
 21
87.80646937
 31
0.0
  0
LINE
  5
5D5
  8
0
 10
38.28153703
 20
86.27062369
 30
0.0
 11
32.66212534
 21
87.80646937
 31
0.0
  0
POLYLINE
  5
5D6
  8
0
 66
     1
 10
0.0
 20
0.0
 30
0.0
  0
VERTEX
  5
5D7
  8
0
 10
38.28153703
 20
86.27062369
 30
0.0
  0
VERTEX
  5
5D8
  8
0
 10
38.3116415
 20
86.63468689
 30
0.0
  0
VERTEX
  5
5D9
  8
0
 10
33.21496297
 20
87.69180372
 30
0.0
  0
SEQEND
  5
5DA
  8
0
  0
LINE
  5
5DB
  8
0
 10
38.3116415
 20
86.63468689
 30
0.0
 11
32.90809632
 21
88.17351952
 31
0.0
  0
POLYLINE
  5
5DC
  8
0
 66
     1
 10
0.0
 20
0.0
 30
0.0
  0
VERTEX
  5
5DD
  8
0
 10
38.3116415
 20
86.63468689
 30
0.0
  0
VERTEX
  5
5DE
  8
0
 10
38.26608097
 20
87.06220444
 30
0.0
  0
VERTEX
  5
5DF
  8
0
 10
33.46093394
 20
88.05885387
 30
0.0
  0
SEQEND
  5
5E0
  8
0
  0
LINE
  5
5E1
  8
0
 10
38.26608097
 20
87.06220444
 30
0.0
 11
33.4859979
 21
88.09979603
 31
0.0
  0
LINE
  5
5E2
  8
0
 10
38.26608097
 20
87.06220444
 30
0.0
 11
33.14302583
 21
88.58562565
 31
0.0
  0
LINE
  5
5E3
  8
0
 10
38.1419726
 20
87.54877965
 30
0.0
 11
33.69586345
 21
88.47096
 31
0.0
  0
POLYLINE
  5
5E4
  8
0
 66
     1
 10
0.0
 20
0.0
 30
0.0
  0
VERTEX
  5
5E5
  8
0
 10
38.26608097
 20
87.06220444
 30
0.0
  0
VERTEX
  5
5E6
  8
0
 10
38.1419726
 20
87.54877965
 30
0.0
  0
VERTEX
  5
5E7
  8
0
 10
33.36221385
 20
89.03689938
 30
0.0
  0
SEQEND
  5
5E8
  8
0
  0
LINE
  5
5E9
  8
0
 10
33.14302583
 20
88.58562565
 30
0.0
 11
33.36221385
 21
89.03689938
 31
0.0
  0
LINE
  5
5EA
  8
0
 10
38.08983604
 20
87.70395891
 30
0.0
 11
33.36221385
 21
89.03689938
 31
0.0
  0
LINE
  5
5EB
  8
0
 10
38.1419726
 20
87.54877965
 30
0.0
 11
38.08983604
 21
87.70395891
 31
0.0
  0
LINE
  5
5EC
  8
0
 10
37.93881485
 20
88.08765334
 30
0.0
 11
38.08983604
 21
87.70395891
 31
0.0
  0
LINE
  5
5ED
  8
0
 10
37.65861936
 20
88.66998093
 30
0.0
 11
37.93881485
 21
88.08765334
 31
0.0
  0
LINE
  5
5EE
  8
0
 10
37.30637504
 20
89.2851994
 30
0.0
 11
37.65861936
 21
88.66998093
 31
0.0
  0
LINE
  5
5EF
  8
0
 10
36.88994599
 20
89.92161884
 30
0.0
 11
37.30637504
 21
89.2851994
 31
0.0
  0
LINE
  5
5F0
  8
0
 10
36.53194202
 20
90.418007
 30
0.0
 11
36.88994599
 21
89.92161884
 31
0.0
  0
LINE
  5
5F1
  8
0
 10
36.41893554
 20
90.56726519
 30
0.0
 11
36.53194202
 21
90.418007
 31
0.0
  0
LINE
  5
5F2
  8
0
 10
35.90407896
 20
91.21057532
 30
0.0
 11
36.41893554
 21
90.56726519
 31
0.0
  0
LINE
  5
5F3
  8
0
 10
35.35711442
 20
91.84089116
 30
0.0
 11
35.90407896
 21
91.21057532
 31
0.0
  0
LINE
  5
5F4
  8
0
 10
34.78945056
 20
92.44906013
 30
0.0
 11
35.35711442
 21
91.84089116
 31
0.0
  0
LINE
  5
5F5
  8
0
 10
34.21192193
 20
93.02765217
 30
0.0
 11
34.78945056
 21
92.44906013
 31
0.0
  0
LINE
  5
5F6
  8
0
 10
34.21192193
 20
93.02765217
 30
0.0
 11
36.76364788
 21
94.53047562
 31
0.0
  0
LINE
  5
5F7
  8
0
 10
37.47259139
 20
94.05029112
 30
0.0
 11
37.31456005
 21
94.15732955
 31
0.0
  0
LINE
  5
5F8
  8
0
 10
44.06771165
 20
90.5720279
 30
0.0
 11
37.47259139
 21
94.05029112
 31
0.0
  0
LINE
  5
5F9
  8
0
 10
45.45801414
 20
90.07456596
 30
0.0
 11
44.06771165
 21
90.5720279
 31
0.0
  0
LINE
  5
5FA
  8
0
 10
45.45801414
 20
90.07456596
 30
0.0
 11
37.80283628
 21
85.56609562
 31
0.0
  0
POLYLINE
  5
5FB
  8
0
 66
     1
 10
0.0
 20
0.0
 30
0.0
  0
VERTEX
  5
5FC
  8
0
 10
31.66019598
 20
86.8401584
 30
0.0
  0
VERTEX
  5
5FD
  8
0
 10
33.70774275
 20
86.41547081
 30
0.0
  0
VERTEX
  5
5FE
  8
0
 10
35.75528952
 20
85.99078322
 30
0.0
  0
VERTEX
  5
5FF
  8
0
 10
37.80283628
 20
85.56609562
 30
0.0
  0
SEQEND
  5
600
  8
0
  0
LINE
  5
601
  8
0
 10
31.90500027
 20
87.00594275
 30
0.0
 11
31.66019598
 21
86.8401584
 31
0.0
  0
LINE
  5
602
  8
0
 10
34.20015192
 20
92.57128827
 30
0.0
 11
34.21192193
 21
93.02765217
 31
0.0
  0
LINE
  5
603
  8
0
 10
34.20015192
 20
92.57128827
 30
0.0
 11
34.78945056
 21
92.44906013
 31
0.0
  0
LINE
  5
604
  8
0
 10
34.20015192
 20
92.57128827
 30
0.0
 11
35.35711442
 21
91.84089116
 31
0.0
  0
LINE
  5
605
  8
0
 10
34.71610186
 20
91.97384543
 30
0.0
 11
35.35711442
 21
91.84089116
 31
0.0
  0
LINE
  5
606
  8
0
 10
34.16326423
 20
92.08851108
 30
0.0
 11
34.20015192
 21
92.57128827
 31
0.0
  0
LINE
  5
607
  8
0
 10
34.16326423
 20
92.08851108
 30
0.0
 11
35.90407896
 21
91.21057532
 31
0.0
  0
LINE
  5
608
  8
0
 10
34.65213466
 20
91.47024471
 30
0.0
 11
35.90407896
 21
91.21057532
 31
0.0
  0
LINE
  5
609
  8
0
 10
34.09929703
 20
91.58491036
 30
0.0
 11
34.16326423
 21
92.08851108
 31
0.0
  0
LINE
  5
60A
  8
0
 10
34.09929703
 20
91.58491036
 30
0.0
 11
36.41893554
 21
90.56726519
 31
0.0
  0
LINE
  5
60B
  8
0
 10
34.55982778
 20
90.9528681
 30
0.0
 11
36.41893554
 21
90.56726519
 31
0.0
  0
LINE
  5
60C
  8
0
 10
34.55432227
 20
90.92673628
 30
0.0
 11
36.53194202
 21
90.418007
 31
0.0
  0
LINE
  5
60D
  8
0
 10
34.43880316
 20
90.43001746
 30
0.0
 11
36.88994599
 21
89.92161884
 31
0.0
  0
LINE
  5
60E
  8
0
 10
33.88596553
 20
90.54468311
 30
0.0
 11
37.30637504
 21
89.2851994
 31
0.0
  0
LINE
  5
60F
  8
0
 10
33.87004756
 20
90.48394702
 30
0.0
 11
37.30637504
 21
89.2851994
 31
0.0
  0
LINE
  5
610
  8
0
 10
33.87004756
 20
90.48394702
 30
0.0
 11
33.88596553
 21
90.54468311
 31
0.0
  0
LINE
  5
611
  8
0
 10
33.736857
 20
90.02556345
 30
0.0
 11
33.87004756
 21
90.48394702
 31
0.0
  0
LINE
  5
612
  8
0
 10
34.28969462
 20
89.9108978
 30
0.0
 11
37.30637504
 21
89.2851994
 31
0.0
  0
LINE
  5
613
  8
0
 10
33.736857
 20
90.02556345
 30
0.0
 11
37.65861936
 21
88.66998093
 31
0.0
  0
LINE
  5
614
  8
0
 10
34.11420181
 20
89.40513881
 30
0.0
 11
37.65861936
 21
88.66998093
 31
0.0
  0
LINE
  5
615
  8
0
 10
33.56136418
 20
89.51980446
 30
0.0
 11
33.736857
 21
90.02556345
 31
0.0
  0
LINE
  5
616
  8
0
 10
33.56136418
 20
89.51980446
 30
0.0
 11
37.93881485
 21
88.08765334
 31
0.0
  0
LINE
  5
617
  8
0
 10
33.91505147
 20
88.92223373
 30
0.0
 11
37.93881485
 21
88.08765334
 31
0.0
  0
LINE
  5
618
  8
0
 10
33.36221385
 20
89.03689938
 30
0.0
 11
33.56136418
 21
89.51980446
 31
0.0
  0
ENDBLK
  8
0
  0
BLOCK
  8
0
  2
1X_BL_10X7_143X72_000_S23E
 70
     0
 10
0.0
 20
0.0
 30
0.0
  0
INSERT
  5
61B
  8
0
  2
1X_BL_10X7_143X72_000_S23F
 10
-51.79434901
 20
133.06713575
 30
0.0
  0
ENDBLK
  8
0
  0
BLOCK
  8
0
  2
1X_BL_10X7_143X72_000_S23F
 70
     0
 10
-51.79434901
 20
133.06713575
 30
0.0
  0
POLYLINE
  5
61E
  8
0
 66
     1
 10
0.0
 20
0.0
 30
0.0
  0
VERTEX
  5
61F
  8
0
 10
-51.79434901
 20
133.06713575
 30
0.0
  0
VERTEX
  5
620
  8
0
 10
-51.79434901
 20
137.44874646
 30
0.0
  0
VERTEX
  5
621
  8
0
 10
-51.56937807
 20
137.6281011
 30
0.0
  0
VERTEX
  5
622
  8
0
 10
-51.72648525
 20
132.8509539
 30
0.0
  0
SEQEND
  5
623
  8
0
  0
LINE
  5
624
  8
0
 10
-51.79434901
 20
137.44874646
 30
0.0
 11
-51.90479865
 21
133.4614522
 31
0.0
  0
POLYLINE
  5
625
  8
0
 66
     1
 10
0.0
 20
0.0
 30
0.0
  0
VERTEX
  5
626
  8
0
 10
-51.79434901
 20
137.44874646
 30
0.0
  0
VERTEX
  5
627
  8
0
 10
-51.98332438
 20
137.19119219
 30
0.0
  0
VERTEX
  5
628
  8
0
 10
-51.98332438
 20
133.76725499
 30
0.0
  0
SEQEND
  5
629
  8
0
  0
LINE
  5
62A
  8
0
 10
-51.98332438
 20
137.19119219
 30
0.0
 11
-52.05142575
 21
134.04901668
 31
0.0
  0
POLYLINE
  5
62B
  8
0
 66
     1
 10
0.0
 20
0.0
 30
0.0
  0
VERTEX
  5
62C
  8
0
 10
-51.98332438
 20
137.19119219
 30
0.0
  0
VERTEX
  5
62D
  8
0
 10
-52.12932427
 20
136.85190774
 30
0.0
  0
VERTEX
  5
62E
  8
0
 10
-52.12932427
 20
134.45391067
 30
0.0
  0
SEQEND
  5
62F
  8
0
  0
LINE
  5
630
  8
0
 10
-52.12932427
 20
136.85190774
 30
0.0
 11
-52.16206092
 21
134.62406634
 31
0.0
  0
POLYLINE
  5
631
  8
0
 66
     1
 10
0.0
 20
0.0
 30
0.0
  0
VERTEX
  5
632
  8
0
 10
-52.12932427
 20
136.85190774
 30
0.0
  0
VERTEX
  5
633
  8
0
 10
-52.22598212
 20
136.42913887
 30
0.0
  0
VERTEX
  5
634
  8
0
 10
-52.22598212
 20
135.08455272
 30
0.0
  0
SEQEND
  5
635
  8
0
  0
LINE
  5
636
  8
0
 10
-52.22598212
 20
136.42913887
 30
0.0
 11
-52.23441996
 21
135.15604241
 31
0.0
  0
POLYLINE
  5
637
  8
0
 66
     1
 10
0.0
 20
0.0
 30
0.0
  0
VERTEX
  5
638
  8
0
 10
-52.22598212
 20
136.42913887
 30
0.0
  0
VERTEX
  5
639
  8
0
 10
-52.26801759
 20
135.92435431
 30
0.0
  0
VERTEX
  5
63A
  8
0
 10
-52.25168813
 20
135.34270908
 30
0.0
  0
VERTEX
  5
63B
  8
0
 10
-52.23524201
 20
135.15604786
 30
0.0
  0
SEQEND
  5
63C
  8
0
  0
LINE
  5
63D
  8
0
 10
-52.17515768
 20
134.69213951
 30
0.0
 11
-52.23524201
 21
135.15604786
 31
0.0
  0
LINE
  5
63E
  8
0
 10
-52.03872488
 20
133.98300118
 30
0.0
 11
-52.17515768
 21
134.69213951
 31
0.0
  0
LINE
  5
63F
  8
0
 10
-51.84486956
 20
133.22807033
 30
0.0
 11
-52.03872488
 21
133.98300118
 31
0.0
  0
LINE
  5
640
  8
0
 10
-51.59810438
 20
132.44199315
 30
0.0
 11
-51.84486956
 21
133.22807033
 31
0.0
  0
LINE
  5
641
  8
0
 10
-51.37617093
 20
131.82557939
 30
0.0
 11
-51.59810438
 21
132.44199315
 31
0.0
  0
LINE
  5
642
  8
0
 10
-51.3046496
 20
131.63972782
 30
0.0
 11
-51.37617093
 21
131.82557939
 31
0.0
  0
LINE
  5
643
  8
0
 10
-50.97197764
 20
130.83571558
 30
0.0
 11
-51.3046496
 21
131.63972782
 31
0.0
  0
LINE
  5
644
  8
0
 10
-50.60829082
 20
130.04373343
 30
0.0
 11
-50.97197764
 21
130.83571558
 31
0.0
  0
LINE
  5
645
  8
0
 10
-50.22199925
 20
129.27557892
 30
0.0
 11
-50.60829082
 21
130.04373343
 31
0.0
  0
LINE
  5
646
  8
0
 10
-50.06995447
 20
128.99689273
 30
0.0
 11
-50.22199925
 21
129.27557892
 31
0.0
  0
LINE
  5
647
  8
0
 10
-49.8212558
 20
128.54104753
 30
0.0
 11
-52.37298176
 21
127.03822409
 31
0.0
  0
LINE
  5
648
  8
0
 10
-52.90917801
 20
127.67078613
 30
0.0
 11
-52.37298176
 21
127.03822409
 31
0.0
  0
LINE
  5
649
  8
0
 10
-58.08754433
 20
132.39874503
 30
0.0
 11
-52.90917801
 21
127.67078613
 31
0.0
  0
LINE
  5
64A
  8
0
 10
-59.22455592
 20
133.11963077
 30
0.0
 11
-58.08754433
 21
132.39874503
 31
0.0
  0
LINE
  5
64B
  8
0
 10
-59.22455592
 20
133.11963077
 30
0.0
 11
-51.56937807
 21
137.6281011
 31
0.0
  0
POLYLINE
  5
64C
  8
0
 66
     1
 10
0.0
 20
0.0
 30
0.0
  0
VERTEX
  5
64D
  8
0
 10
-63.52440414
 20
134.01147471
 30
0.0
  0
VERTEX
  5
64E
  8
0
 10
-59.22455592
 20
133.11963077
 30
0.0
  0
VERTEX
  5
64F
  8
0
 10
-62.97840463
 20
133.4131725
 30
0.0
  0
SEQEND
  5
650
  8
0
  0
LINE
  5
651
  8
0
 10
-58.08754433
 20
132.39874503
 30
0.0
 11
-62.97840463
 21
133.4131725
 31
0.0
  0
LINE
  5
652
  8
0
 10
-61.10579752
 20
129.37087067
 30
0.0
 11
-62.97840463
 21
133.4131725
 31
0.0
  0
POLYLINE
  5
653
  8
0
 66
     1
 10
0.0
 20
0.0
 30
0.0
 70
     1
  0
VERTEX
  5
654
  8
0
 10
-61.10579752
 20
129.37087067
 30
0.0
  0
VERTEX
  5
655
  8
0
 10
-52.37298176
 20
127.03822409
 30
0.0
  0
VERTEX
  5
656
  8
0
 10
-60.97267818
 20
128.82191197
 30
0.0
  0
SEQEND
  5
657
  8
0
  0
LINE
  5
658
  8
0
 10
-52.90917801
 20
127.67078613
 30
0.0
 11
-61.10579752
 21
129.37087067
 31
0.0
  0
LINE
  5
659
  8
0
 10
-62.97840463
 20
133.4131725
 30
0.0
 11
-63.52440414
 21
134.01147471
 31
0.0
  0
LINE
  5
65A
  8
0
 10
-51.56937807
 20
135.39730571
 30
0.0
 11
-51.56937807
 21
137.6281011
 31
0.0
  0
LINE
  5
65B
  8
0
 10
-51.56937807
 20
133.16651032
 30
0.0
 11
-51.56937807
 21
135.39730571
 31
0.0
  0
LINE
  5
65C
  8
0
 10
-51.56937807
 20
132.36220664
 30
0.0
 11
-51.56937807
 21
133.16651032
 31
0.0
  0
POLYLINE
  5
65D
  8
0
 66
     1
 10
0.0
 20
0.0
 30
0.0
 70
     1
  0
VERTEX
  5
65E
  8
0
 10
-29.87024244
 20
143.69949417
 30
0.0
  0
VERTEX
  5
65F
  8
0
 10
-29.55695006
 20
150.39906864
 30
0.0
  0
VERTEX
  5
660
  8
0
 10
-29.55695006
 20
143.83450546
 30
0.0
  0
SEQEND
  5
661
  8
0
  0
LINE
  5
662
  8
0
 10
-29.87024244
 20
150.3608154
 30
0.0
 11
-29.87024244
 21
143.69949417
 31
0.0
  0
LINE
  5
663
  8
0
 10
-29.55695006
 20
150.39906864
 30
0.0
 11
-29.87024244
 21
150.3608154
 31
0.0
  0
POLYLINE
  5
664
  8
0
 66
     1
 10
0.0
 20
0.0
 30
0.0
  0
VERTEX
  5
665
  8
0
 10
-29.55695006
 20
150.39906864
 30
0.0
  0
VERTEX
  5
666
  8
0
 10
-29.19537118
 20
150.35871963
 30
0.0
  0
VERTEX
  5
667
  8
0
 10
-28.78762539
 20
150.2330162
 30
0.0
  0
VERTEX
  5
668
  8
0
 10
-28.33771892
 20
150.01795785
 30
0.0
  0
VERTEX
  5
669
  8
0
 10
-27.85153043
 20
149.71303323
 30
0.0
  0
VERTEX
  5
66A
  8
0
 10
-27.70098375
 20
149.60535037
 30
0.0
  0
VERTEX
  5
66B
  8
0
 10
-27.33662395
 20
149.32064255
 30
0.0
  0
VERTEX
  5
66C
  8
0
 10
-26.80189048
 20
148.84608097
 30
0.0
  0
VERTEX
  5
66D
  8
0
 10
-26.25704953
 20
148.29786098
 30
0.0
  0
VERTEX
  5
66E
  8
0
 10
-25.71206728
 20
147.68741693
 30
0.0
  0
VERTEX
  5
66F
  8
0
 10
-25.29888143
 20
147.18364159
 30
0.0
  0
VERTEX
  5
670
  8
0
 10
-25.17656325
 20
147.027705
 30
0.0
  0
VERTEX
  5
671
  8
0
 10
-24.65927753
 20
146.33241994
 30
0.0
  0
VERTEX
  5
672
  8
0
 10
-24.16765632
 20
145.61578397
 30
0.0
  0
VERTEX
  5
673
  8
0
 10
-23.70758936
 20
144.89107899
 30
0.0
  0
VERTEX
  5
674
  8
0
 10
-23.2833059
 20
144.17041137
 30
0.0
  0
VERTEX
  5
675
  8
0
 10
-20.73157995
 20
145.67323482
 30
0.0
  0
SEQEND
  5
676
  8
0
  0
POLYLINE
  5
677
  8
0
 66
     1
 10
0.0
 20
0.0
 30
0.0
  0
VERTEX
  5
678
  8
0
 10
-20.90303476
 20
146.17457231
 30
0.0
  0
VERTEX
  5
679
  8
0
 10
-21.00153753
 20
146.4625965
 30
0.0
  0
VERTEX
  5
67A
  8
0
 10
-22.43468963
 20
153.39627649
 30
0.0
  0
VERTEX
  5
67B
  8
0
 10
-22.47970221
 20
154.76028839
 30
0.0
  0
VERTEX
  5
67C
  8
0
 10
-30.13488006
 20
150.25181805
 30
0.0
  0
SEQEND
  5
67D
  8
0
  0
LINE
  5
67E
  8
0
 10
-29.87024244
 20
150.3608154
 30
0.0
 11
-30.13488006
 21
150.25181805
 31
0.0
  0
POLYLINE
  5
67F
  8
0
 66
     1
 10
0.0
 20
0.0
 30
0.0
  0
VERTEX
  5
680
  8
0
 10
-29.87024244
 20
150.3608154
 30
0.0
  0
VERTEX
  5
681
  8
0
 10
-30.13488006
 20
143.55943187
 30
0.0
  0
VERTEX
  5
682
  8
0
 10
-29.87024244
 20
143.69949417
 30
0.0
  0
SEQEND
  5
683
  8
0
  0
LINE
  5
684
  8
0
 10
-30.13488006
 20
145.79022726
 30
0.0
 11
-30.13488006
 21
143.55943187
 31
0.0
  0
LINE
  5
685
  8
0
 10
-30.13488006
 20
148.02102266
 30
0.0
 11
-30.13488006
 21
145.79022726
 31
0.0
  0
LINE
  5
686
  8
0
 10
-30.13488006
 20
150.25181805
 30
0.0
 11
-30.13488006
 21
148.02102266
 31
0.0
  0
POLYLINE
  5
687
  8
0
 66
     1
 10
0.0
 20
0.0
 30
0.0
  0
VERTEX
  5
688
  8
0
 10
-23.2833059
 20
144.17041137
 30
0.0
  0
VERTEX
  5
689
  8
0
 10
-23.70758936
 20
144.2490401
 30
0.0
  0
VERTEX
  5
68A
  8
0
 10
-24.16765632
 20
144.31508816
 30
0.0
  0
VERTEX
  5
68B
  8
0
 10
-24.65927753
 20
144.36611602
 30
0.0
  0
VERTEX
  5
68C
  8
0
 10
-25.17656325
 20
144.39989853
 30
0.0
  0
VERTEX
  5
68D
  8
0
 10
-25.71206728
 20
144.41459019
 30
0.0
  0
VERTEX
  5
68E
  8
0
 10
-25.77506241
 20
144.41499304
 30
0.0
  0
SEQEND
  5
68F
  8
0
  0
LINE
  5
690
  8
0
 10
-25.71206728
 20
147.68741693
 30
0.0
 11
-25.77506241
 21
144.41499304
 31
0.0
  0
POLYLINE
  5
691
  8
0
 66
     1
 10
0.0
 20
0.0
 30
0.0
  0
VERTEX
  5
692
  8
0
 10
-25.71206728
 20
147.68741693
 30
0.0
  0
VERTEX
  5
693
  8
0
 10
-26.25704953
 20
144.40888294
 30
0.0
  0
VERTEX
  5
694
  8
0
 10
-26.80189048
 20
144.38213508
 30
0.0
  0
VERTEX
  5
695
  8
0
 10
-27.33662395
 20
144.33445097
 30
0.0
  0
VERTEX
  5
696
  8
0
 10
-27.85153043
 20
144.26669735
 30
0.0
  0
VERTEX
  5
697
  8
0
 10
-28.28291961
 20
144.19136446
 30
0.0
  0
SEQEND
  5
698
  8
0
  0
LINE
  5
699
  8
0
 10
-27.85153043
 20
149.71303323
 30
0.0
 11
-28.28291961
 21
144.19136446
 31
0.0
  0
POLYLINE
  5
69A
  8
0
 66
     1
 10
0.0
 20
0.0
 30
0.0
  0
VERTEX
  5
69B
  8
0
 10
-27.85153043
 20
149.71303323
 30
0.0
  0
VERTEX
  5
69C
  8
0
 10
-28.33771892
 20
144.18045139
 30
0.0
  0
VERTEX
  5
69D
  8
0
 10
-28.78762539
 20
144.07788714
 30
0.0
  0
VERTEX
  5
69E
  8
0
 10
-29.19537118
 20
143.96161624
 30
0.0
  0
VERTEX
  5
69F
  8
0
 10
-29.55695006
 20
143.83450546
 30
0.0
  0
SEQEND
  5
6A0
  8
0
  0
LINE
  5
6A1
  8
0
 10
-29.19537118
 20
150.35871963
 30
0.0
 11
-29.55695006
 21
143.83450546
 31
0.0
  0
LINE
  5
6A2
  8
0
 10
-29.19537118
 20
150.35871963
 30
0.0
 11
-29.19537118
 21
143.96161624
 31
0.0
  0
LINE
  5
6A3
  8
0
 10
-28.78762539
 20
150.2330162
 30
0.0
 11
-29.19537118
 21
143.96161624
 31
0.0
  0
LINE
  5
6A4
  8
0
 10
-28.78762539
 20
150.2330162
 30
0.0
 11
-28.78762539
 21
144.07788714
 31
0.0
  0
LINE
  5
6A5
  8
0
 10
-28.33771892
 20
150.01795785
 30
0.0
 11
-28.78762539
 21
144.07788714
 31
0.0
  0
LINE
  5
6A6
  8
0
 10
-28.33771892
 20
150.01795785
 30
0.0
 11
-28.33771892
 21
144.18045139
 31
0.0
  0
LINE
  5
6A7
  8
0
 10
-28.28291961
 20
144.19136446
 30
0.0
 11
-28.33771892
 21
144.18045139
 31
0.0
  0
LINE
  5
6A8
  8
0
 10
-27.85153043
 20
149.71303323
 30
0.0
 11
-27.85153043
 21
144.26669735
 31
0.0
  0
LINE
  5
6A9
  8
0
 10
-27.70098375
 20
149.60535037
 30
0.0
 11
-27.85153043
 21
144.26669735
 31
0.0
  0
LINE
  5
6AA
  8
0
 10
-27.33662395
 20
149.32064255
 30
0.0
 11
-27.85153043
 21
144.26669735
 31
0.0
  0
LINE
  5
6AB
  8
0
 10
-27.33662395
 20
149.32064255
 30
0.0
 11
-27.33662395
 21
144.33445097
 31
0.0
  0
LINE
  5
6AC
  8
0
 10
-26.80189048
 20
148.84608097
 30
0.0
 11
-27.33662395
 21
144.33445097
 31
0.0
  0
LINE
  5
6AD
  8
0
 10
-26.80189048
 20
148.84608097
 30
0.0
 11
-26.80189048
 21
144.38213508
 31
0.0
  0
LINE
  5
6AE
  8
0
 10
-26.25704953
 20
148.29786098
 30
0.0
 11
-26.80189048
 21
144.38213508
 31
0.0
  0
LINE
  5
6AF
  8
0
 10
-26.25704953
 20
148.29786098
 30
0.0
 11
-26.25704953
 21
144.40888294
 31
0.0
  0
LINE
  5
6B0
  8
0
 10
-25.77506241
 20
144.41499304
 30
0.0
 11
-26.25704953
 21
144.40888294
 31
0.0
  0
LINE
  5
6B1
  8
0
 10
-25.71206728
 20
147.68741693
 30
0.0
 11
-25.71206728
 21
144.41459019
 31
0.0
  0
LINE
  5
6B2
  8
0
 10
-25.29888143
 20
147.18364159
 30
0.0
 11
-25.71206728
 21
144.41459019
 31
0.0
  0
LINE
  5
6B3
  8
0
 10
-25.17656325
 20
147.027705
 30
0.0
 11
-25.71206728
 21
144.41459019
 31
0.0
  0
LINE
  5
6B4
  8
0
 10
-25.17656325
 20
147.027705
 30
0.0
 11
-25.17656325
 21
144.39989853
 31
0.0
  0
LINE
  5
6B5
  8
0
 10
-24.65927753
 20
146.33241994
 30
0.0
 11
-25.17656325
 21
144.39989853
 31
0.0
  0
LINE
  5
6B6
  8
0
 10
-24.65927753
 20
146.33241994
 30
0.0
 11
-24.65927753
 21
144.36611602
 31
0.0
  0
LINE
  5
6B7
  8
0
 10
-24.16765632
 20
145.61578397
 30
0.0
 11
-24.65927753
 21
144.36611602
 31
0.0
  0
LINE
  5
6B8
  8
0
 10
-24.16765632
 20
145.61578397
 30
0.0
 11
-24.16765632
 21
144.31508816
 31
0.0
  0
LINE
  5
6B9
  8
0
 10
-23.70758936
 20
144.89107899
 30
0.0
 11
-24.16765632
 21
144.31508816
 31
0.0
  0
LINE
  5
6BA
  8
0
 10
-23.70758936
 20
144.89107899
 30
0.0
 11
-23.70758936
 21
144.2490401
 31
0.0
  0
ENDBLK
  8
0
  0
BLOCK
  8
0
  2
PLAAT_5MM_00103
 70
     0
 10
0.0
 20
0.0
 30
0.0
  0
INSERT
  5
6BD
  8
0
  2
SHEET_FLANGE_00104
 10
0.0
 20
0.0
 30
0.0
  0
INSERT
  5
6BE
  8
0
  2
BEND_ZONE_00106
 10
0.0
 20
0.0
 30
0.0
  0
INSERT
  5
6BF
  8
0
  2
SHEET_FLANGE_00108
 10
0.0
 20
0.0
 30
0.0
  0
INSERT
  5
6C0
  8
0
  2
BEND_ZONE_00110
 10
0.0
 20
0.0
 30
0.0
  0
INSERT
  5
6C1
  8
0
  2
SHEET_FLANGE_00112
 10
0.0
 20
0.0
 30
0.0
  0
INSERT
  5
6C2
  8
0
  2
BEND_ZONE_00114
 10
0.0
 20
0.0
 30
0.0
  0
INSERT
  5
6C3
  8
0
  2
SHEET_FLANGE_00116
 10
0.0
 20
0.0
 30
0.0
  0
INSERT
  5
6C4
  8
0
  2
BEND_ZONE_00118
 10
0.0
 20
0.0
 30
0.0
  0
INSERT
  5
6C5
  8
0
  2
SHEET_FLANGE_00120
 10
0.0
 20
0.0
 30
0.0
  0
INSERT
  5
6C6
  8
0
  2
BEND_ZONE_00122
 10
0.0
 20
0.0
 30
0.0
  0
INSERT
  5
6C7
  8
0
  2
SHEET_FLANGE_00124
 10
0.0
 20
0.0
 30
0.0
  0
ENDBLK
  8
0
  0
BLOCK
  8
0
  2
SHEET_FLANGE_00104
 70
     0
 10
0.0
 20
0.0
 30
0.0
  0
INSERT
  5
6CA
  8
0
  2
SHEET_FLANGE_00105
 10
4.41879745
 20
81.31391194
 30
0.0
  0
ENDBLK
  8
0
  0
BLOCK
  8
0
  2
SHEET_FLANGE_00105
 70
     0
 10
4.41879745
 20
81.31391194
 30
0.0
  0
POLYLINE
  5
6CD
  8
LE_ALL
 66
     1
 10
0.0
 20
0.0
 30
0.0
  0
VERTEX
  5
6CE
  8
LE_ALL
 10
4.41879745
 20
81.31391194
 30
0.0
  0
VERTEX
  5
6CF
  8
LE_ALL
 10
19.03828137
 20
78.28164254
 30
0.0
  0
SEQEND
  5
6D0
  8
LE_ALL
  0
POLYLINE
  5
6D1
  8
LE_ALL
 66
     1
 10
0.0
 20
0.0
 30
0.0
  0
VERTEX
  5
A1C
  8
LE_ALL
 10
19.0382813749708
 20
78.28164254012191
 30
0.0
  0
VERTEX
  5
A1D
  8
LE_ALL
 10
20.16277231543453
 20
78.0966941220484
 30
0.0
  0
VERTEX
  5
A1E
  8
LE_ALL
 10
21.36742207205712
 20
77.9899255875888
 30
0.0
  0
VERTEX
  5
A1F
  8
LE_ALL
 10
22.60819316892417
 20
77.96523999382575
 30
0.0
  0
VERTEX
  5
A20
  8
LE_ALL
 10
23.83972766942945
 20
78.02353975346034
 30
0.0
  0
VERTEX
  5
A21
  8
LE_ALL
 10
25.01700529227909
 20
78.16269364598921
 30
0.0
  0
VERTEX
  5
A22
  8
LE_ALL
 10
26.09698918408412
 20
78.37761472713085
 30
0.0
  0
VERTEX
  5
A23
  8
LE_ALL
 10
27.04019918526964
 20
78.6604462884252
 30
0.0
  0
VERTEX
  5
A24
  8
LE_ALL
 10
27.8121550766009
 20
79.00084906902084
 30
0.0
  0
VERTEX
  5
A25
  8
LE_ALL
 10
28.38463704664757
 20
79.38637922026444
 30
0.0
  0
VERTEX
  5
A26
  8
LE_ALL
 10
28.73671730222431
 20
79.80294320612502
 30
0.0
  0
VERTEX
  5
A27
  8
LE_ALL
 10
28.85552511
 20
80.23531301
 30
0.0
  0
SEQEND
  5
CE9
  8
LE_ALL
  0
POLYLINE
  5
6D2
  8
LE_ALL
 66
     1
 10
0.0
 20
0.0
 30
0.0
  0
VERTEX
  5
A28
  8
LE_ALL
 10
28.85552511
 20
80.23531301
 30
0.0
  0
VERTEX
  5
A29
  8
LE_ALL
 10
28.71670624559787
 20
80.70231583276072
 30
0.0
  0
VERTEX
  5
A2A
  8
LE_ALL
 10
28.30617909150345
 20
81.1493713319743
 30
0.0
  0
VERTEX
  5
A2B
  8
LE_ALL
 10
27.64147869797446
 20
81.55738420403286
 30
0.0
  0
VERTEX
  5
A2C
  8
LE_ALL
 10
26.75099674310241
 20
81.90892679245621
 30
0.0
  0
VERTEX
  5
A2D
  8
LE_ALL
 10
25.67276882496296
 20
82.1889834840401
 30
0.0
  0
SEQEND
  5
CEA
  8
LE_ALL
  0
POLYLINE
  5
6D3
  8
LE_ALL
 66
     1
 10
0.0
 20
0.0
 30
0.0
  0
VERTEX
  5
6D4
  8
LE_ALL
 10
25.67276885
 20
82.18898349
 30
0.0
  0
VERTEX
  5
6D5
  8
LE_ALL
 10
11.05328492
 20
85.2212529
 30
0.0
  0
SEQEND
  5
6D6
  8
LE_ALL
  0
POLYLINE
  5
6D7
  8
LE_ALL
 66
     1
 10
0.0
 20
0.0
 30
0.0
  0
VERTEX
  5
A2E
  8
LE_ALL
 10
11.05328489496296
 20
85.22125289404009
 30
0.0
  0
VERTEX
  5
A2F
  8
LE_ALL
 10
9.928793956593406
 20
85.40620131020253
 30
0.0
  0
VERTEX
  5
A30
  8
LE_ALL
 10
8.724144203266752
 20
85.51296984320011
 30
0.0
  0
VERTEX
  5
A31
  8
LE_ALL
 10
7.483373110477631
 20
85.53765543603015
 30
0.0
  0
VERTEX
  5
A32
  8
LE_ALL
 10
6.251838614374925
 20
85.47935567603179
 30
0.0
  0
VERTEX
  5
A33
  8
LE_ALL
 10
5.074560995785623
 20
85.34020178370722
 30
0.0
  0
VERTEX
  5
A34
  8
LE_ALL
 10
3.994577107650457
 20
85.12528070329589
 30
0.0
  0
VERTEX
  5
A35
  8
LE_ALL
 10
3.051367109141854
 20
84.84244914317777
 30
0.0
  0
VERTEX
  5
A36
  8
LE_ALL
 10
2.279411219162374
 20
84.50204636409104
 30
0.0
  0
VERTEX
  5
A37
  8
LE_ALL
 10
1.706929248901149
 20
84.11651621454929
 30
0.0
  0
VERTEX
  5
A38
  8
LE_ALL
 10
1.354848991409134
 20
83.6999522304255
 30
0.0
  0
VERTEX
  5
A39
  8
LE_ALL
 10
1.23604118
 20
83.26758242815525
 30
0.0
  0
SEQEND
  5
CEB
  8
LE_ALL
  0
POLYLINE
  5
6D8
  8
LE_ALL
 66
     1
 10
0.0
 20
0.0
 30
0.0
  0
VERTEX
  5
A3A
  8
LE_ALL
 10
1.23604118
 20
83.26758242815525
 30
0.0
  0
VERTEX
  5
A3B
  8
LE_ALL
 10
1.374860039605523
 20
82.80057960522036
 30
0.0
  0
VERTEX
  5
A3C
  8
LE_ALL
 10
1.785387189108219
 20
82.35352410549172
 30
0.0
  0
VERTEX
  5
A3D
  8
LE_ALL
 10
2.450087578446484
 20
81.94551123259919
 30
0.0
  0
VERTEX
  5
A3E
  8
LE_ALL
 10
3.340569529707828
 20
81.59396864305857
 30
0.0
  0
VERTEX
  5
A3F
  8
LE_ALL
 10
4.418797444970805
 20
81.3139119501219
 30
0.0
  0
SEQEND
  5
CEC
  8
LE_ALL
  0
POLYLINE
  5
6D9
  8
LE_ALL
 66
     1
 10
0.0
 20
0.0
 30
0.0
  0
VERTEX
  5
A40
  8
LE_ALL
 10
11.05328489496296
 20
80.5365825740401
 30
0.0
  0
VERTEX
  5
A41
  8
LE_ALL
 10
9.698416293748899
 20
80.74869672491195
 30
0.0
  0
VERTEX
  5
A42
  8
LE_ALL
 10
8.24117940375301
 20
80.84783162713309
 30
0.0
  0
VERTEX
  5
A43
  8
LE_ALL
 10
6.757591723227015
 20
80.82881585846734
 30
0.0
  0
SEQEND
  5
CED
  8
LE_ALL
  0
LINE
  5
6DA
  8
LE_ALL
 10
11.05328492
 20
80.53658258
 30
0.0
 11
11.05328492
 21
85.2212529
 31
0.0
  0
LINE
  5
6DB
  8
LE_ALL
 10
11.05328492
 20
80.53658258
 30
0.0
 11
23.33397458
 21
77.98940925
 31
0.0
  0
LINE
  5
6DC
  8
LE_ALL
 10
25.67276885
 20
78.28164254
 30
0.0
 11
25.67276885
 21
82.18898349
 31
0.0
  0
POLYLINE
  5
6DD
  8
LE_ALL
 66
     1
 10
0.0
 20
0.0
 30
0.0
  0
VERTEX
  5
A44
  8
LE_ALL
 10
-21.55315435
 20
87.99435533815526
 30
0.0
  0
VERTEX
  5
A45
  8
LE_ALL
 10
-21.42825867688866
 20
87.55115108704202
 30
0.0
  0
VERTEX
  5
A46
  8
LE_ALL
 10
-21.05837131913659
 20
87.12497892647265
 30
0.0
  0
VERTEX
  5
A47
  8
LE_ALL
 10
-20.45770684049937
 20
86.73221641361503
 30
0.0
  0
VERTEX
  5
A48
  8
LE_ALL
 10
-19.6493484400871
 20
86.38795719160892
 30
0.0
  0
VERTEX
  5
A49
  8
LE_ALL
 10
-18.66436087796576
 20
86.10543094932336
 30
0.0
  0
VERTEX
  5
A4A
  8
LE_ALL
 10
-17.54059667384652
 20
85.89549501183156
 30
0.0
  0
VERTEX
  5
A4B
  8
LE_ALL
 10
-16.32124145597782
 20
85.76621709949629
 30
0.0
  0
VERTEX
  5
A4C
  8
LE_ALL
 10
-15.05315436166683
 20
85.72256529
 30
0.0
  0
VERTEX
  5
A4D
  8
LE_ALL
 10
-13.78506726690749
 20
85.76621709790527
 30
0.0
  0
VERTEX
  5
A4E
  8
LE_ALL
 10
-12.56571204771098
 20
85.89549500871068
 30
0.0
  0
VERTEX
  5
A4F
  8
LE_ALL
 10
-11.44194784143547
 20
86.10543094479254
 30
0.0
  0
VERTEX
  5
A50
  8
LE_ALL
 10
-10.45696027641229
 20
86.38795718584228
 30
0.0
  0
VERTEX
  5
A51
  8
LE_ALL
 10
-9.64860187246411
 20
86.73221640683418
 30
0.0
  0
VERTEX
  5
A52
  8
LE_ALL
 10
-9.047937389792812
 20
87.12497891893817
 30
0.0
  0
VERTEX
  5
A53
  8
LE_ALL
 10
-8.678050027663513
 20
87.55115107904346
 30
0.0
  0
VERTEX
  5
A54
  8
LE_ALL
 10
-8.55315435
 20
87.99435533
 30
0.0
  0
SEQEND
  5
CEE
  8
LE_ALL
  0
POLYLINE
  5
6DE
  8
LE_ALL
 66
     1
 10
0.0
 20
0.0
 30
0.0
  0
VERTEX
  5
A55
  8
LE_ALL
 10
-8.55315435
 20
87.99435533
 30
0.0
  0
VERTEX
  5
A56
  8
LE_ALL
 10
-8.678050027094491
 20
88.43755957995673
 30
0.0
  0
VERTEX
  5
A57
  8
LE_ALL
 10
-9.04793738756046
 20
88.86373173917822
 30
0.0
  0
VERTEX
  5
A58
  8
LE_ALL
 10
-9.648601867602803
 20
89.256494250623
 30
0.0
  0
VERTEX
  5
A59
  8
LE_ALL
 10
-10.45696026816259
 20
89.6007534712744
 30
0.0
  0
VERTEX
  5
A5A
  8
LE_ALL
 10
-11.4419478293097
 20
89.88327971237571
 30
0.0
  0
VERTEX
  5
A5B
  8
LE_ALL
 10
-12.56571203154286
 20
90.09321564894867
 30
0.0
  0
VERTEX
  5
A5C
  8
LE_ALL
 10
-13.78506724688284
 20
90.2224935607026
 30
0.0
  0
VERTEX
  5
A5D
  8
LE_ALL
 10
-15.05315433833317
 20
90.26614537
 30
0.0
  0
VERTEX
  5
A5E
  8
LE_ALL
 10
-16.32124143023185
 20
90.22249356229362
 30
0.0
  0
VERTEX
  5
A5F
  8
LE_ALL
 10
-17.54059664689965
 20
90.09321565206956
 30
0.0
  0
VERTEX
  5
A60
  8
LE_ALL
 10
-18.66436085128908
 20
89.88327971690653
 30
0.0
  0
VERTEX
  5
A61
  8
LE_ALL
 10
-19.64934841533802
 20
89.60075347704104
 30
0.0
  0
VERTEX
  5
A62
  8
LE_ALL
 10
-20.45770681943371
 20
89.25649425740386
 30
0.0
  0
VERTEX
  5
A63
  8
LE_ALL
 10
-21.05837130351014
 20
88.86373174671269
 30
0.0
  0
VERTEX
  5
A64
  8
LE_ALL
 10
-21.42825866835334
 20
88.43755958795528
 30
0.0
  0
VERTEX
  5
A65
  8
LE_ALL
 10
-21.55315435
 20
87.99435533815526
 30
0.0
  0
SEQEND
  5
CEF
  8
LE_ALL
  0
POLYLINE
  5
6DF
  8
LE_ALL
 66
     1
 10
0.0
 20
0.0
 30
0.0
  0
VERTEX
  5
A66
  8
LE_ALL
 10
75.35416038
 20
74.81622913439129
 30
0.0
  0
VERTEX
  5
A67
  8
LE_ALL
 10
75.42141189629072
 20
74.57758069148416
 30
0.0
  0
VERTEX
  5
A68
  8
LE_ALL
 10
75.62058201200337
 20
74.34810337425449
 30
0.0
  0
VERTEX
  5
A69
  8
LE_ALL
 10
75.94401673126956
 20
74.13661586733116
 30
0.0
  0
VERTEX
  5
A6A
  8
LE_ALL
 10
76.37928663918386
 20
73.95124551702018
 30
0.0
  0
VERTEX
  5
A6B
  8
LE_ALL
 10
76.9096645572492
 20
73.79911600194335
 30
0.0
  0
VERTEX
  5
A6C
  8
LE_ALL
 10
77.51476835946725
 20
73.68607357406314
 30
0.0
  0
VERTEX
  5
A6D
  8
LE_ALL
 10
78.17134424601194
 20
73.61646239049799
 30
0.0
  0
VERTEX
  5
A6E
  8
LE_ALL
 10
78.85416037371786
 20
73.59295757
 30
0.0
  0
VERTEX
  5
A6F
  8
LE_ALL
 10
79.5369765016652
 20
73.6164623896413
 30
0.0
  0
VERTEX
  5
A70
  8
LE_ALL
 10
80.19355238892486
 20
73.68607357238267
 30
0.0
  0
VERTEX
  5
A71
  8
LE_ALL
 10
80.79865619230398
 20
73.79911599950367
 30
0.0
  0
VERTEX
  5
A72
  8
LE_ALL
 10
81.32903411193185
 20
73.95124551391507
 30
0.0
  0
VERTEX
  5
A73
  8
LE_ALL
 10
81.76430402175009
 20
74.13661586367994
 30
0.0
  0
VERTEX
  5
A74
  8
LE_ALL
 10
82.08773874318848
 20
74.34810337019746
 30
0.0
  0
VERTEX
  5
A75
  8
LE_ALL
 10
82.2869088612581
 20
74.57758068717725
 30
0.0
  0
VERTEX
  5
A76
  8
LE_ALL
 10
82.35416038
 20
74.81622913
 30
0.0
  0
SEQEND
  5
CF0
  8
LE_ALL
  0
POLYLINE
  5
6E0
  8
LE_ALL
 66
     1
 10
0.0
 20
0.0
 30
0.0
  0
VERTEX
  5
A77
  8
LE_ALL
 10
82.35416038
 20
74.81622913
 30
0.0
  0
VERTEX
  5
A78
  8
LE_ALL
 10
82.2869088615645
 20
75.05487757228438
 30
0.0
  0
VERTEX
  5
A79
  8
LE_ALL
 10
82.08773874439052
 20
75.28435488878827
 30
0.0
  0
VERTEX
  5
A7A
  8
LE_ALL
 10
81.76430402436772
 20
75.49584239495084
 30
0.0
  0
VERTEX
  5
A7B
  8
LE_ALL
 10
81.32903411637399
 20
75.68121274453236
 30
0.0
  0
VERTEX
  5
A7C
  8
LE_ALL
 10
80.79865619883323
 20
75.83334225897153
 30
0.0
  0
VERTEX
  5
A7D
  8
LE_ALL
 10
80.19355239763077
 20
75.94638468635696
 30
0.0
  0
VERTEX
  5
A7E
  8
LE_ALL
 10
79.5369765124477
 20
76.01599586960909
 30
0.0
  0
VERTEX
  5
A7F
  8
LE_ALL
 10
78.85416038628213
 20
76.03950069
 30
0.0
  0
VERTEX
  5
A80
  8
LE_ALL
 10
78.17134425987516
 20
76.01599587046579
 30
0.0
  0
VERTEX
  5
A81
  8
LE_ALL
 10
77.5147683739771
 20
75.94638468803744
 30
0.0
  0
VERTEX
  5
A82
  8
LE_ALL
 10
76.90966457161358
 20
75.8333422614112
 30
0.0
  0
VERTEX
  5
A83
  8
LE_ALL
 10
76.37928665251029
 20
75.68121274763747
 30
0.0
  0
VERTEX
  5
A84
  8
LE_ALL
 10
75.94401674261262
 20
75.49584239860206
 30
0.0
  0
VERTEX
  5
A85
  8
LE_ALL
 10
75.62058202041761
 20
75.28435489284529
 30
0.0
  0
VERTEX
  5
A86
  8
LE_ALL
 10
75.42141190088665
 20
75.0548775765913
 30
0.0
  0
VERTEX
  5
A87
  8
LE_ALL
 10
75.35416038
 20
74.81622913439129
 30
0.0
  0
SEQEND
  5
CF1
  8
LE_ALL
  0
POLYLINE
  5
6E1
  8
LE_ALL
 66
     1
 10
0.0
 20
0.0
 30
0.0
  0
VERTEX
  5
A88
  8
LE_ALL
 10
92.55355324
 20
71.2488533643913
 30
0.0
  0
VERTEX
  5
A89
  8
LE_ALL
 10
92.62080475629072
 20
71.01020492148416
 30
0.0
  0
VERTEX
  5
A8A
  8
LE_ALL
 10
92.81997487200337
 20
70.7807276042545
 30
0.0
  0
VERTEX
  5
A8B
  8
LE_ALL
 10
93.14340959126957
 20
70.56924009733116
 30
0.0
  0
VERTEX
  5
A8C
  8
LE_ALL
 10
93.57867949918386
 20
70.38386974702019
 30
0.0
  0
VERTEX
  5
A8D
  8
LE_ALL
 10
94.1090574172492
 20
70.23174023194335
 30
0.0
  0
VERTEX
  5
A8E
  8
LE_ALL
 10
94.71416121946726
 20
70.11869780406315
 30
0.0
  0
VERTEX
  5
A8F
  8
LE_ALL
 10
95.37073710601194
 20
70.04908662049799
 30
0.0
  0
VERTEX
  5
A90
  8
LE_ALL
 10
96.05355323371786
 20
70.0255818
 30
0.0
  0
VERTEX
  5
A91
  8
LE_ALL
 10
96.7363693616652
 20
70.0490866196413
 30
0.0
  0
VERTEX
  5
A92
  8
LE_ALL
 10
97.39294524892486
 20
70.11869780238267
 30
0.0
  0
VERTEX
  5
A93
  8
LE_ALL
 10
97.99804905230398
 20
70.23174022950367
 30
0.0
  0
VERTEX
  5
A94
  8
LE_ALL
 10
98.52842697193185
 20
70.38386974391507
 30
0.0
  0
VERTEX
  5
A95
  8
LE_ALL
 10
98.9636968817501
 20
70.56924009367994
 30
0.0
  0
VERTEX
  5
A96
  8
LE_ALL
 10
99.28713160318848
 20
70.78072760019747
 30
0.0
  0
VERTEX
  5
A97
  8
LE_ALL
 10
99.4863017212581
 20
71.01020491717725
 30
0.0
  0
VERTEX
  5
A98
  8
LE_ALL
 10
99.55355324
 20
71.24885336
 30
0.0
  0
SEQEND
  5
CF2
  8
LE_ALL
  0
POLYLINE
  5
6E2
  8
LE_ALL
 66
     1
 10
0.0
 20
0.0
 30
0.0
  0
VERTEX
  5
A99
  8
LE_ALL
 10
99.55355324
 20
71.24885336
 30
0.0
  0
VERTEX
  5
A9A
  8
LE_ALL
 10
99.4863017215645
 20
71.48750180228438
 30
0.0
  0
VERTEX
  5
A9B
  8
LE_ALL
 10
99.28713160439052
 20
71.71697911878827
 30
0.0
  0
VERTEX
  5
A9C
  8
LE_ALL
 10
98.96369688436772
 20
71.92846662495084
 30
0.0
  0
VERTEX
  5
A9D
  8
LE_ALL
 10
98.52842697637399
 20
72.11383697453236
 30
0.0
  0
VERTEX
  5
A9E
  8
LE_ALL
 10
97.99804905883323
 20
72.26596648897153
 30
0.0
  0
VERTEX
  5
A9F
  8
LE_ALL
 10
97.39294525763077
 20
72.37900891635697
 30
0.0
  0
VERTEX
  5
AA0
  8
LE_ALL
 10
96.7363693724477
 20
72.44862009960909
 30
0.0
  0
VERTEX
  5
AA1
  8
LE_ALL
 10
96.05355324628214
 20
72.47212492
 30
0.0
  0
VERTEX
  5
AA2
  8
LE_ALL
 10
95.37073711987516
 20
72.44862010046579
 30
0.0
  0
VERTEX
  5
AA3
  8
LE_ALL
 10
94.71416123397711
 20
72.37900891803744
 30
0.0
  0
VERTEX
  5
AA4
  8
LE_ALL
 10
94.10905743161358
 20
72.2659664914112
 30
0.0
  0
VERTEX
  5
AA5
  8
LE_ALL
 10
93.57867951251029
 20
72.11383697763748
 30
0.0
  0
VERTEX
  5
AA6
  8
LE_ALL
 10
93.14340960261262
 20
71.92846662860207
 30
0.0
  0
VERTEX
  5
AA7
  8
LE_ALL
 10
92.81997488041762
 20
71.71697912284529
 30
0.0
  0
VERTEX
  5
AA8
  8
LE_ALL
 10
92.62080476088667
 20
71.4875018065913
 30
0.0
  0
VERTEX
  5
AA9
  8
LE_ALL
 10
92.55355324
 20
71.2488533643913
 30
0.0
  0
SEQEND
  5
CF3
  8
LE_ALL
  0
POLYLINE
  5
6E3
  8
LE_ALL
 66
     1
 10
0.0
 20
0.0
 30
0.0
  0
VERTEX
  5
AAA
  8
LE_ALL
 10
93.93224519
 20
58.36397222439129
 30
0.0
  0
VERTEX
  5
AAB
  8
LE_ALL
 10
93.99949670629073
 20
58.12532378148416
 30
0.0
  0
VERTEX
  5
AAC
  8
LE_ALL
 10
94.19866682200337
 20
57.8958464642545
 30
0.0
  0
VERTEX
  5
AAD
  8
LE_ALL
 10
94.52210154126956
 20
57.68435895733117
 30
0.0
  0
VERTEX
  5
AAE
  8
LE_ALL
 10
94.95737144918387
 20
57.49898860702019
 30
0.0
  0
VERTEX
  5
AAF
  8
LE_ALL
 10
95.48774936724921
 20
57.34685909194334
 30
0.0
  0
VERTEX
  5
AB0
  8
LE_ALL
 10
96.09285316946726
 20
57.23381666406314
 30
0.0
  0
VERTEX
  5
AB1
  8
LE_ALL
 10
96.74942905601195
 20
57.164205480498
 30
0.0
  0
VERTEX
  5
AB2
  8
LE_ALL
 10
97.43224518371787
 20
57.14070066
 30
0.0
  0
VERTEX
  5
AB3
  8
LE_ALL
 10
98.1150613116652
 20
57.1642054796413
 30
0.0
  0
VERTEX
  5
AB4
  8
LE_ALL
 10
98.77163719892486
 20
57.23381666238267
 30
0.0
  0
VERTEX
  5
AB5
  8
LE_ALL
 10
99.37674100230399
 20
57.34685908950367
 30
0.0
  0
VERTEX
  5
AB6
  8
LE_ALL
 10
99.90711892193185
 20
57.49898860391507
 30
0.0
  0
VERTEX
  5
AB7
  8
LE_ALL
 10
100.3423888317501
 20
57.68435895367994
 30
0.0
  0
VERTEX
  5
AB8
  8
LE_ALL
 10
100.6658235531885
 20
57.89584646019748
 30
0.0
  0
VERTEX
  5
AB9
  8
LE_ALL
 10
100.8649936712581
 20
58.12532377717724
 30
0.0
  0
VERTEX
  5
ABA
  8
LE_ALL
 10
100.93224519
 20
58.36397222
 30
0.0
  0
SEQEND
  5
CF4
  8
LE_ALL
  0
POLYLINE
  5
6E4
  8
LE_ALL
 66
     1
 10
0.0
 20
0.0
 30
0.0
  0
VERTEX
  5
ABB
  8
LE_ALL
 10
100.93224519
 20
58.36397222
 30
0.0
  0
VERTEX
  5
ABC
  8
LE_ALL
 10
100.8649936715645
 20
58.60262066228439
 30
0.0
  0
VERTEX
  5
ABD
  8
LE_ALL
 10
100.6658235543905
 20
58.83209797878827
 30
0.0
  0
VERTEX
  5
ABE
  8
LE_ALL
 10
100.3423888343677
 20
59.04358548495085
 30
0.0
  0
VERTEX
  5
ABF
  8
LE_ALL
 10
99.907118926374
 20
59.22895583453237
 30
0.0
  0
VERTEX
  5
AC0
  8
LE_ALL
 10
99.37674100883324
 20
59.38108534897153
 30
0.0
  0
VERTEX
  5
AC1
  8
LE_ALL
 10
98.77163720763077
 20
59.49412777635698
 30
0.0
  0
VERTEX
  5
AC2
  8
LE_ALL
 10
98.1150613224477
 20
59.56373895960909
 30
0.0
  0
VERTEX
  5
AC3
  8
LE_ALL
 10
97.43224519628214
 20
59.58724378
 30
0.0
  0
VERTEX
  5
AC4
  8
LE_ALL
 10
96.74942906987516
 20
59.56373896046579
 30
0.0
  0
VERTEX
  5
AC5
  8
LE_ALL
 10
96.09285318397711
 20
59.49412777803745
 30
0.0
  0
VERTEX
  5
AC6
  8
LE_ALL
 10
95.48774938161358
 20
59.3810853514112
 30
0.0
  0
VERTEX
  5
AC7
  8
LE_ALL
 10
94.9573714625103
 20
59.22895583763748
 30
0.0
  0
VERTEX
  5
AC8
  8
LE_ALL
 10
94.52210155261263
 20
59.04358548860208
 30
0.0
  0
VERTEX
  5
AC9
  8
LE_ALL
 10
94.19866683041762
 20
58.8320979828453
 30
0.0
  0
VERTEX
  5
ACA
  8
LE_ALL
 10
93.99949671088666
 20
58.60262066659131
 30
0.0
  0
VERTEX
  5
ACB
  8
LE_ALL
 10
93.93224519
 20
58.36397222439129
 30
0.0
  0
SEQEND
  5
CF5
  8
LE_ALL
  0
POLYLINE
  5
6E5
  8
LE_ALL
 66
     1
 10
0.0
 20
0.0
 30
0.0
  0
VERTEX
  5
ACC
  8
LE_ALL
 10
59.53345948
 20
65.4987237743913
 30
0.0
  0
VERTEX
  5
ACD
  8
LE_ALL
 10
59.60071099629072
 20
65.26007533148416
 30
0.0
  0
VERTEX
  5
ACE
  8
LE_ALL
 10
59.79988111200337
 20
65.0305980142545
 30
0.0
  0
VERTEX
  5
ACF
  8
LE_ALL
 10
60.12331583126957
 20
64.81911050733116
 30
0.0
  0
VERTEX
  5
AD0
  8
LE_ALL
 10
60.55858573918387
 20
64.63374015702018
 30
0.0
  0
VERTEX
  5
AD1
  8
LE_ALL
 10
61.0889636572492
 20
64.48161064194335
 30
0.0
  0
VERTEX
  5
AD2
  8
LE_ALL
 10
61.69406745946726
 20
64.36856821406315
 30
0.0
  0
VERTEX
  5
AD3
  8
LE_ALL
 10
62.35064334601194
 20
64.29895703049799
 30
0.0
  0
VERTEX
  5
AD4
  8
LE_ALL
 10
63.03345947371786
 20
64.27545221
 30
0.0
  0
VERTEX
  5
AD5
  8
LE_ALL
 10
63.7162756016652
 20
64.2989570296413
 30
0.0
  0
VERTEX
  5
AD6
  8
LE_ALL
 10
64.37285148892485
 20
64.36856821238267
 30
0.0
  0
VERTEX
  5
AD7
  8
LE_ALL
 10
64.97795529230397
 20
64.48161063950367
 30
0.0
  0
VERTEX
  5
AD8
  8
LE_ALL
 10
65.50833321193184
 20
64.63374015391507
 30
0.0
  0
VERTEX
  5
AD9
  8
LE_ALL
 10
65.94360312175009
 20
64.81911050367994
 30
0.0
  0
VERTEX
  5
ADA
  8
LE_ALL
 10
66.26703784318849
 20
65.03059801019747
 30
0.0
  0
VERTEX
  5
ADB
  8
LE_ALL
 10
66.4662079612581
 20
65.26007532717725
 30
0.0
  0
VERTEX
  5
ADC
  8
LE_ALL
 10
66.53345948
 20
65.49872377
 30
0.0
  0
SEQEND
  5
CF6
  8
LE_ALL
  0
POLYLINE
  5
6E6
  8
LE_ALL
 66
     1
 10
0.0
 20
0.0
 30
0.0
  0
VERTEX
  5
ADD
  8
LE_ALL
 10
66.53345948
 20
65.49872377
 30
0.0
  0
VERTEX
  5
ADE
  8
LE_ALL
 10
66.4662079615645
 20
65.73737221228438
 30
0.0
  0
VERTEX
  5
ADF
  8
LE_ALL
 10
66.26703784439052
 20
65.96684952878827
 30
0.0
  0
VERTEX
  5
AE0
  8
LE_ALL
 10
65.94360312436771
 20
66.17833703495084
 30
0.0
  0
VERTEX
  5
AE1
  8
LE_ALL
 10
65.50833321637398
 20
66.36370738453236
 30
0.0
  0
VERTEX
  5
AE2
  8
LE_ALL
 10
64.97795529883324
 20
66.51583689897153
 30
0.0
  0
VERTEX
  5
AE3
  8
LE_ALL
 10
64.37285149763076
 20
66.62887932635697
 30
0.0
  0
VERTEX
  5
AE4
  8
LE_ALL
 10
63.7162756124477
 20
66.69849050960909
 30
0.0
  0
VERTEX
  5
AE5
  8
LE_ALL
 10
63.03345948628213
 20
66.72199533
 30
0.0
  0
VERTEX
  5
AE6
  8
LE_ALL
 10
62.35064335987516
 20
66.69849051046579
 30
0.0
  0
VERTEX
  5
AE7
  8
LE_ALL
 10
61.69406747397711
 20
66.62887932803744
 30
0.0
  0
VERTEX
  5
AE8
  8
LE_ALL
 10
61.08896367161358
 20
66.5158369014112
 30
0.0
  0
VERTEX
  5
AE9
  8
LE_ALL
 10
60.5585857525103
 20
66.36370738763748
 30
0.0
  0
VERTEX
  5
AEA
  8
LE_ALL
 10
60.12331584261261
 20
66.17833703860207
 30
0.0
  0
VERTEX
  5
AEB
  8
LE_ALL
 10
59.79988112041762
 20
65.96684953284529
 30
0.0
  0
VERTEX
  5
AEC
  8
LE_ALL
 10
59.60071100088666
 20
65.7373722165913
 30
0.0
  0
VERTEX
  5
AED
  8
LE_ALL
 10
59.53345948
 20
65.4987237743913
 30
0.0
  0
SEQEND
  5
CF7
  8
LE_ALL
  0
POLYLINE
  5
6E7
  8
LE_ALL
 66
     1
 10
0.0
 20
0.0
 30
0.0
  0
VERTEX
  5
AEE
  8
LE_ALL
 10
33.73437019
 20
70.8497874343913
 30
0.0
  0
VERTEX
  5
AEF
  8
LE_ALL
 10
33.80162170629072
 20
70.61113899148417
 30
0.0
  0
VERTEX
  5
AF0
  8
LE_ALL
 10
34.00079182200337
 20
70.3816616742545
 30
0.0
  0
VERTEX
  5
AF1
  8
LE_ALL
 10
34.32422654126957
 20
70.17017416733117
 30
0.0
  0
VERTEX
  5
AF2
  8
LE_ALL
 10
34.75949644918387
 20
69.9848038170202
 30
0.0
  0
VERTEX
  5
AF3
  8
LE_ALL
 10
35.2898743672492
 20
69.83267430194336
 30
0.0
  0
VERTEX
  5
AF4
  8
LE_ALL
 10
35.89497816946726
 20
69.71963187406315
 30
0.0
  0
VERTEX
  5
AF5
  8
LE_ALL
 10
36.55155405601194
 20
69.650020690498
 30
0.0
  0
VERTEX
  5
AF6
  8
LE_ALL
 10
37.23437018371786
 20
69.62651587
 30
0.0
  0
VERTEX
  5
AF7
  8
LE_ALL
 10
37.9171863116652
 20
69.65002068964131
 30
0.0
  0
VERTEX
  5
AF8
  8
LE_ALL
 10
38.57376219892486
 20
69.71963187238268
 30
0.0
  0
VERTEX
  5
AF9
  8
LE_ALL
 10
39.17886600230398
 20
69.83267429950368
 30
0.0
  0
VERTEX
  5
AFA
  8
LE_ALL
 10
39.70924392193184
 20
69.98480381391508
 30
0.0
  0
VERTEX
  5
AFB
  8
LE_ALL
 10
40.1445138317501
 20
70.17017416367995
 30
0.0
  0
VERTEX
  5
AFC
  8
LE_ALL
 10
40.46794855318849
 20
70.38166167019747
 30
0.0
  0
VERTEX
  5
AFD
  8
LE_ALL
 10
40.66711867125811
 20
70.61113898717726
 30
0.0
  0
VERTEX
  5
AFE
  8
LE_ALL
 10
40.73437019
 20
70.84978743
 30
0.0
  0
SEQEND
  5
CF8
  8
LE_ALL
  0
POLYLINE
  5
6E8
  8
LE_ALL
 66
     1
 10
0.0
 20
0.0
 30
0.0
  0
VERTEX
  5
AFF
  8
LE_ALL
 10
40.73437019
 20
70.84978743
 30
0.0
  0
VERTEX
  5
B00
  8
LE_ALL
 10
40.6671186715645
 20
71.08843587228439
 30
0.0
  0
VERTEX
  5
B01
  8
LE_ALL
 10
40.46794855439052
 20
71.31791318878828
 30
0.0
  0
VERTEX
  5
B02
  8
LE_ALL
 10
40.14451383436772
 20
71.52940069495085
 30
0.0
  0
VERTEX
  5
B03
  8
LE_ALL
 10
39.70924392637399
 20
71.71477104453237
 30
0.0
  0
VERTEX
  5
B04
  8
LE_ALL
 10
39.17886600883324
 20
71.86690055897154
 30
0.0
  0
VERTEX
  5
B05
  8
LE_ALL
 10
38.57376220763076
 20
71.97994298635697
 30
0.0
  0
VERTEX
  5
B06
  8
LE_ALL
 10
37.9171863224477
 20
72.0495541696091
 30
0.0
  0
VERTEX
  5
B07
  8
LE_ALL
 10
37.23437019628214
 20
72.07305899
 30
0.0
  0
VERTEX
  5
B08
  8
LE_ALL
 10
36.55155406987516
 20
72.0495541704658
 30
0.0
  0
VERTEX
  5
B09
  8
LE_ALL
 10
35.89497818397711
 20
71.97994298803745
 30
0.0
  0
VERTEX
  5
B0A
  8
LE_ALL
 10
35.28987438161358
 20
71.86690056141121
 30
0.0
  0
VERTEX
  5
B0B
  8
LE_ALL
 10
34.7594964625103
 20
71.71477104763748
 30
0.0
  0
VERTEX
  5
B0C
  8
LE_ALL
 10
34.32422655261261
 20
71.52940069860207
 30
0.0
  0
VERTEX
  5
B0D
  8
LE_ALL
 10
34.00079183041762
 20
71.3179131928453
 30
0.0
  0
VERTEX
  5
B0E
  8
LE_ALL
 10
33.80162171088666
 20
71.0884358765913
 30
0.0
  0
VERTEX
  5
B0F
  8
LE_ALL
 10
33.73437019
 20
70.8497874343913
 30
0.0
  0
SEQEND
  5
CF9
  8
LE_ALL
  0
POLYLINE
  5
6E9
  8
LE_ALL
 66
     1
 10
0.0
 20
0.0
 30
0.0
  0
VERTEX
  5
B10
  8
LE_ALL
 10
32.35567824
 20
83.73466857439129
 30
0.0
  0
VERTEX
  5
B11
  8
LE_ALL
 10
32.42292975629073
 20
83.49602013148416
 30
0.0
  0
VERTEX
  5
B12
  8
LE_ALL
 10
32.62209987200337
 20
83.26654281425449
 30
0.0
  0
VERTEX
  5
B13
  8
LE_ALL
 10
32.94553459126957
 20
83.05505530733116
 30
0.0
  0
VERTEX
  5
B14
  8
LE_ALL
 10
33.38080449918387
 20
82.86968495702018
 30
0.0
  0
VERTEX
  5
B15
  8
LE_ALL
 10
33.91118241724921
 20
82.71755544194335
 30
0.0
  0
VERTEX
  5
B16
  8
LE_ALL
 10
34.51628621946726
 20
82.60451301406314
 30
0.0
  0
VERTEX
  5
B17
  8
LE_ALL
 10
35.17286210601195
 20
82.53490183049799
 30
0.0
  0
VERTEX
  5
B18
  8
LE_ALL
 10
35.85567823371787
 20
82.51139701
 30
0.0
  0
VERTEX
  5
B19
  8
LE_ALL
 10
36.5384943616652
 20
82.5349018296413
 30
0.0
  0
VERTEX
  5
B1A
  8
LE_ALL
 10
37.19507024892486
 20
82.60451301238267
 30
0.0
  0
VERTEX
  5
B1B
  8
LE_ALL
 10
37.80017405230398
 20
82.71755543950367
 30
0.0
  0
VERTEX
  5
B1C
  8
LE_ALL
 10
38.33055197193185
 20
82.86968495391507
 30
0.0
  0
VERTEX
  5
B1D
  8
LE_ALL
 10
38.7658218817501
 20
83.05505530367994
 30
0.0
  0
VERTEX
  5
B1E
  8
LE_ALL
 10
39.08925660318849
 20
83.26654281019746
 30
0.0
  0
VERTEX
  5
B1F
  8
LE_ALL
 10
39.28842672125811
 20
83.49602012717725
 30
0.0
  0
VERTEX
  5
B20
  8
LE_ALL
 10
39.35567824
 20
83.73466857
 30
0.0
  0
SEQEND
  5
CFA
  8
LE_ALL
  0
POLYLINE
  5
6EA
  8
LE_ALL
 66
     1
 10
0.0
 20
0.0
 30
0.0
  0
VERTEX
  5
B21
  8
LE_ALL
 10
39.35567824
 20
83.73466857
 30
0.0
  0
VERTEX
  5
B22
  8
LE_ALL
 10
39.28842672156451
 20
83.97331701228438
 30
0.0
  0
VERTEX
  5
B23
  8
LE_ALL
 10
39.08925660439053
 20
84.20279432878827
 30
0.0
  0
VERTEX
  5
B24
  8
LE_ALL
 10
38.76582188436772
 20
84.41428183495084
 30
0.0
  0
VERTEX
  5
B25
  8
LE_ALL
 10
38.33055197637399
 20
84.59965218453236
 30
0.0
  0
VERTEX
  5
B26
  8
LE_ALL
 10
37.80017405883324
 20
84.75178169897153
 30
0.0
  0
VERTEX
  5
B27
  8
LE_ALL
 10
37.19507025763077
 20
84.86482412635696
 30
0.0
  0
VERTEX
  5
B28
  8
LE_ALL
 10
36.5384943724477
 20
84.93443530960909
 30
0.0
  0
VERTEX
  5
B29
  8
LE_ALL
 10
35.85567824628214
 20
84.95794013
 30
0.0
  0
VERTEX
  5
B2A
  8
LE_ALL
 10
35.17286211987516
 20
84.93443531046579
 30
0.0
  0
VERTEX
  5
B2B
  8
LE_ALL
 10
34.51628623397711
 20
84.86482412803744
 30
0.0
  0
VERTEX
  5
B2C
  8
LE_ALL
 10
33.91118243161358
 20
84.7517817014112
 30
0.0
  0
VERTEX
  5
B2D
  8
LE_ALL
 10
33.3808045125103
 20
84.59965218763747
 30
0.0
  0
VERTEX
  5
B2E
  8
LE_ALL
 10
32.94553460261262
 20
84.41428183860207
 30
0.0
  0
VERTEX
  5
B2F
  8
LE_ALL
 10
32.62209988041762
 20
84.20279433284529
 30
0.0
  0
VERTEX
  5
B30
  8
LE_ALL
 10
32.42292976088667
 20
83.9733170165913
 30
0.0
  0
VERTEX
  5
B31
  8
LE_ALL
 10
32.35567824
 20
83.73466857439129
 30
0.0
  0
SEQEND
  5
CFB
  8
LE_ALL
  0
POLYLINE
  5
6EB
  8
LE_ALL
 66
     1
 10
0.0
 20
0.0
 30
0.0
  0
VERTEX
  5
B32
  8
LE_ALL
 10
108.75294609
 20
67.68147758564595
 30
0.0
  0
VERTEX
  5
B33
  8
LE_ALL
 10
108.8394123252309
 20
67.37464387333678
 30
0.0
  0
VERTEX
  5
B34
  8
LE_ALL
 10
109.09548818829
 20
67.07960160832722
 30
0.0
  0
VERTEX
  5
B35
  8
LE_ALL
 10
109.5113328273466
 20
66.8076890994258
 30
0.0
  0
VERTEX
  5
B36
  8
LE_ALL
 10
110.0709655660935
 20
66.5693557918831
 30
0.0
  0
VERTEX
  5
B37
  8
LE_ALL
 10
110.7528800321775
 20
66.37376070107003
 30
0.0
  0
VERTEX
  5
B38
  8
LE_ALL
 10
111.5308706350293
 20
66.22842043665263
 30
0.0
  0
VERTEX
  5
B39
  8
LE_ALL
 10
112.3750396320153
 20
66.13892034349743
 30
0.0
  0
VERTEX
  5
B3A
  8
LE_ALL
 10
113.252946081923
 20
66.10869986
 30
0.0
  0
VERTEX
  5
B3B
  8
LE_ALL
 10
114.130852532141
 20
66.13892034239596
 30
0.0
  0
VERTEX
  5
B3C
  8
LE_ALL
 10
114.9750215300462
 20
66.22842043449201
 30
0.0
  0
VERTEX
  5
B3D
  8
LE_ALL
 10
115.7530121343908
 20
66.3737606979333
 30
0.0
  0
VERTEX
  5
B3E
  8
LE_ALL
 10
116.4349266024838
 20
66.56935578789081
 30
0.0
  0
VERTEX
  5
B3F
  8
LE_ALL
 10
116.9945593436787
 20
66.80768909473136
 30
0.0
  0
VERTEX
  5
B40
  8
LE_ALL
 10
117.410403985528
 20
67.07960160311104
 30
0.0
  0
VERTEX
  5
B41
  8
LE_ALL
 10
117.6664798516176
 20
67.37464386779932
 30
0.0
  0
VERTEX
  5
B42
  8
LE_ALL
 10
117.75294609
 20
67.68147758
 30
0.0
  0
SEQEND
  5
CFC
  8
LE_ALL
  0
POLYLINE
  5
6EC
  8
LE_ALL
 66
     1
 10
0.0
 20
0.0
 30
0.0
  0
VERTEX
  5
B43
  8
LE_ALL
 10
117.75294609
 20
67.68147758
 30
0.0
  0
VERTEX
  5
B44
  8
LE_ALL
 10
117.6664798520115
 20
67.98831129150851
 30
0.0
  0
VERTEX
  5
B45
  8
LE_ALL
 10
117.4104039870735
 20
68.28335355558492
 30
0.0
  0
VERTEX
  5
B46
  8
LE_ALL
 10
116.9945593470442
 20
68.55526606350824
 30
0.0
  0
VERTEX
  5
B47
  8
LE_ALL
 10
116.4349266081951
 20
68.79359937011306
 30
0.0
  0
VERTEX
  5
B48
  8
LE_ALL
 10
115.7530121427856
 20
68.98919446010626
 30
0.0
  0
VERTEX
  5
B49
  8
LE_ALL
 10
114.9750215412396
 20
69.13453472388754
 30
0.0
  0
VERTEX
  5
B4A
  8
LE_ALL
 10
114.1308525460042
 20
69.22403481664027
 30
0.0
  0
VERTEX
  5
B4B
  8
LE_ALL
 10
113.252946098077
 20
69.25425530000001
 30
0.0
  0
VERTEX
  5
B4C
  8
LE_ALL
 10
112.3750396498395
 20
69.22403481774174
 30
0.0
  0
VERTEX
  5
B4D
  8
LE_ALL
 10
111.5308706536848
 20
69.13453472604816
 30
0.0
  0
VERTEX
  5
B4E
  8
LE_ALL
 10
110.752880050646
 20
68.98919446324298
 30
0.0
  0
VERTEX
  5
B4F
  8
LE_ALL
 10
110.0709655832275
 20
68.79359937410534
 30
0.0
  0
VERTEX
  5
B50
  8
LE_ALL
 10
109.5113328419305
 20
68.55526606820267
 30
0.0
  0
VERTEX
  5
B51
  8
LE_ALL
 10
109.0954881991084
 20
68.2833535608011
 30
0.0
  0
VERTEX
  5
B52
  8
LE_ALL
 10
108.83941233114
 20
67.98831129704597
 30
0.0
  0
VERTEX
  5
B53
  8
LE_ALL
 10
108.75294609
 20
67.68147758564595
 30
0.0
  0
SEQEND
  5
CFD
  8
LE_ALL
  0
POLYLINE
  5
6ED
  8
LE_ALL
 66
     1
 10
0.0
 20
0.0
 30
0.0
  0
VERTEX
  5
B54
  8
LE_ALL
 10
75.73285233
 20
61.93134799564594
 30
0.0
  0
VERTEX
  5
B55
  8
LE_ALL
 10
75.81931856523093
 20
61.62451428333678
 30
0.0
  0
VERTEX
  5
B56
  8
LE_ALL
 10
76.07539442829005
 20
61.32947201832721
 30
0.0
  0
VERTEX
  5
B57
  8
LE_ALL
 10
76.49123906734658
 20
61.05755950942579
 30
0.0
  0
VERTEX
  5
B58
  8
LE_ALL
 10
77.05087180609355
 20
60.8192262018831
 30
0.0
  0
VERTEX
  5
B59
  8
LE_ALL
 10
77.73278627217755
 20
60.62363111107001
 30
0.0
  0
VERTEX
  5
B5A
  8
LE_ALL
 10
78.51077687502934
 20
60.47829084665261
 30
0.0
  0
VERTEX
  5
B5B
  8
LE_ALL
 10
79.35494587201535
 20
60.38879075349742
 30
0.0
  0
VERTEX
  5
B5C
  8
LE_ALL
 10
80.23285232192296
 20
60.35857027
 30
0.0
  0
VERTEX
  5
B5D
  8
LE_ALL
 10
81.11075877214097
 20
60.38879075239596
 30
0.0
  0
VERTEX
  5
B5E
  8
LE_ALL
 10
81.95492777004625
 20
60.478290844492
 30
0.0
  0
VERTEX
  5
B5F
  8
LE_ALL
 10
82.73291837439083
 20
60.62363110793329
 30
0.0
  0
VERTEX
  5
B60
  8
LE_ALL
 10
83.4148328424838
 20
60.81922619789081
 30
0.0
  0
VERTEX
  5
B61
  8
LE_ALL
 10
83.9744655836787
 20
61.05755950473135
 30
0.0
  0
VERTEX
  5
B62
  8
LE_ALL
 10
84.39031022552805
 20
61.32947201311104
 30
0.0
  0
VERTEX
  5
B63
  8
LE_ALL
 10
84.64638609161757
 20
61.62451427779931
 30
0.0
  0
VERTEX
  5
B64
  8
LE_ALL
 10
84.73285233
 20
61.93134799
 30
0.0
  0
SEQEND
  5
CFE
  8
LE_ALL
  0
POLYLINE
  5
6EE
  8
LE_ALL
 66
     1
 10
0.0
 20
0.0
 30
0.0
  0
VERTEX
  5
B65
  8
LE_ALL
 10
84.73285233
 20
61.93134799
 30
0.0
  0
VERTEX
  5
B66
  8
LE_ALL
 10
84.64638609201151
 20
62.2381817015085
 30
0.0
  0
VERTEX
  5
B67
  8
LE_ALL
 10
84.39031022707353
 20
62.53322396558492
 30
0.0
  0
VERTEX
  5
B68
  8
LE_ALL
 10
83.97446558704421
 20
62.80513647350823
 30
0.0
  0
VERTEX
  5
B69
  8
LE_ALL
 10
83.41483284819513
 20
63.04346978011304
 30
0.0
  0
VERTEX
  5
B6A
  8
LE_ALL
 10
82.73291838278558
 20
63.23906487010625
 30
0.0
  0
VERTEX
  5
B6B
  8
LE_ALL
 10
81.95492778123956
 20
63.38440513388754
 30
0.0
  0
VERTEX
  5
B6C
  8
LE_ALL
 10
81.11075878600418
 20
63.47390522664026
 30
0.0
  0
VERTEX
  5
B6D
  8
LE_ALL
 10
80.23285233807704
 20
63.50412571
 30
0.0
  0
VERTEX
  5
B6E
  8
LE_ALL
 10
79.35494588983948
 20
63.47390522774173
 30
0.0
  0
VERTEX
  5
B6F
  8
LE_ALL
 10
78.51077689368485
 20
63.38440513604814
 30
0.0
  0
VERTEX
  5
B70
  8
LE_ALL
 10
77.73278629064603
 20
63.23906487324297
 30
0.0
  0
VERTEX
  5
B71
  8
LE_ALL
 10
77.05087182322752
 20
63.04346978410533
 30
0.0
  0
VERTEX
  5
B72
  8
LE_ALL
 10
76.4912390819305
 20
62.80513647820266
 30
0.0
  0
VERTEX
  5
B73
  8
LE_ALL
 10
76.07539443910836
 20
62.53322397080109
 30
0.0
  0
VERTEX
  5
B74
  8
LE_ALL
 10
75.81931857114
 20
62.23818170704596
 30
0.0
  0
VERTEX
  5
B75
  8
LE_ALL
 10
75.73285233
 20
61.93134799564594
 30
0.0
  0
SEQEND
  5
CFF
  8
LE_ALL
  0
POLYLINE
  5
6EF
  8
LE_ALL
 66
     1
 10
0.0
 20
0.0
 30
0.0
  0
VERTEX
  5
B76
  8
LE_ALL
 10
48.5550711
 20
80.16729279564595
 30
0.0
  0
VERTEX
  5
B77
  8
LE_ALL
 10
48.64153733523093
 20
79.86045908333678
 30
0.0
  0
VERTEX
  5
B78
  8
LE_ALL
 10
48.89761319829005
 20
79.56541681832722
 30
0.0
  0
VERTEX
  5
B79
  8
LE_ALL
 10
49.31345783734659
 20
79.2935043094258
 30
0.0
  0
VERTEX
  5
B7A
  8
LE_ALL
 10
49.87309057609355
 20
79.0551710018831
 30
0.0
  0
VERTEX
  5
B7B
  8
LE_ALL
 10
50.55500504217755
 20
78.85957591107002
 30
0.0
  0
VERTEX
  5
B7C
  8
LE_ALL
 10
51.33299564502934
 20
78.71423564665263
 30
0.0
  0
VERTEX
  5
B7D
  8
LE_ALL
 10
52.17716464201536
 20
78.62473555349743
 30
0.0
  0
VERTEX
  5
B7E
  8
LE_ALL
 10
53.05507109192296
 20
78.59451507
 30
0.0
  0
VERTEX
  5
B7F
  8
LE_ALL
 10
53.93297754214097
 20
78.62473555239596
 30
0.0
  0
VERTEX
  5
B80
  8
LE_ALL
 10
54.77714654004625
 20
78.714235644492
 30
0.0
  0
VERTEX
  5
B81
  8
LE_ALL
 10
55.55513714439083
 20
78.8595759079333
 30
0.0
  0
VERTEX
  5
B82
  8
LE_ALL
 10
56.2370516124838
 20
79.05517099789081
 30
0.0
  0
VERTEX
  5
B83
  8
LE_ALL
 10
56.79668435367869
 20
79.29350430473136
 30
0.0
  0
VERTEX
  5
B84
  8
LE_ALL
 10
57.21252899552805
 20
79.56541681311104
 30
0.0
  0
VERTEX
  5
B85
  8
LE_ALL
 10
57.46860486161756
 20
79.86045907779932
 30
0.0
  0
VERTEX
  5
B86
  8
LE_ALL
 10
57.5550711
 20
80.16729279
 30
0.0
  0
SEQEND
  5
D00
  8
LE_ALL
  0
POLYLINE
  5
6F0
  8
LE_ALL
 66
     1
 10
0.0
 20
0.0
 30
0.0
  0
VERTEX
  5
B87
  8
LE_ALL
 10
57.5550711
 20
80.16729279
 30
0.0
  0
VERTEX
  5
B88
  8
LE_ALL
 10
57.4686048620115
 20
80.47412650150851
 30
0.0
  0
VERTEX
  5
B89
  8
LE_ALL
 10
57.21252899707353
 20
80.76916876558492
 30
0.0
  0
VERTEX
  5
B8A
  8
LE_ALL
 10
56.79668435704421
 20
81.04108127350824
 30
0.0
  0
VERTEX
  5
B8B
  8
LE_ALL
 10
56.23705161819512
 20
81.27941458011306
 30
0.0
  0
VERTEX
  5
B8C
  8
LE_ALL
 10
55.55513715278559
 20
81.47500967010626
 30
0.0
  0
VERTEX
  5
B8D
  8
LE_ALL
 10
54.77714655123956
 20
81.62034993388754
 30
0.0
  0
VERTEX
  5
B8E
  8
LE_ALL
 10
53.93297755600418
 20
81.70985002664027
 30
0.0
  0
VERTEX
  5
B8F
  8
LE_ALL
 10
53.05507110807704
 20
81.74007051000001
 30
0.0
  0
VERTEX
  5
B90
  8
LE_ALL
 10
52.17716465983949
 20
81.70985002774174
 30
0.0
  0
VERTEX
  5
B91
  8
LE_ALL
 10
51.33299566368486
 20
81.62034993604816
 30
0.0
  0
VERTEX
  5
B92
  8
LE_ALL
 10
50.55500506064602
 20
81.47500967324298
 30
0.0
  0
VERTEX
  5
B93
  8
LE_ALL
 10
49.87309059322752
 20
81.27941458410534
 30
0.0
  0
VERTEX
  5
B94
  8
LE_ALL
 10
49.31345785193051
 20
81.04108127820267
 30
0.0
  0
VERTEX
  5
B95
  8
LE_ALL
 10
48.89761320910836
 20
80.7691687708011
 30
0.0
  0
VERTEX
  5
B96
  8
LE_ALL
 10
48.64153734113999
 20
80.47412650704597
 30
0.0
  0
VERTEX
  5
B97
  8
LE_ALL
 10
48.5550711
 20
80.16729279564595
 30
0.0
  0
SEQEND
  5
D01
  8
LE_ALL
  0
POLYLINE
  5
6F1
  8
LE_ALL
 66
     1
 10
0.0
 20
0.0
 30
0.0
  0
VERTEX
  5
B98
  8
LE_ALL
 10
15.53497734
 20
74.41716321564594
 30
0.0
  0
VERTEX
  5
B99
  8
LE_ALL
 10
15.62144357523093
 20
74.11032950333677
 30
0.0
  0
VERTEX
  5
B9A
  8
LE_ALL
 10
15.87751943829005
 20
73.81528723832722
 30
0.0
  0
VERTEX
  5
B9B
  8
LE_ALL
 10
16.29336407734659
 20
73.54337472942579
 30
0.0
  0
VERTEX
  5
B9C
  8
LE_ALL
 10
16.85299681609355
 20
73.30504142188309
 30
0.0
  0
VERTEX
  5
B9D
  8
LE_ALL
 10
17.53491128217755
 20
73.10944633107002
 30
0.0
  0
VERTEX
  5
B9E
  8
LE_ALL
 10
18.31290188502934
 20
72.96410606665262
 30
0.0
  0
VERTEX
  5
B9F
  8
LE_ALL
 10
19.15707088201536
 20
72.87460597349742
 30
0.0
  0
VERTEX
  5
BA0
  8
LE_ALL
 10
20.03497733192297
 20
72.84438549
 30
0.0
  0
VERTEX
  5
BA1
  8
LE_ALL
 10
20.91288378214097
 20
72.87460597239595
 30
0.0
  0
VERTEX
  5
BA2
  8
LE_ALL
 10
21.75705278004625
 20
72.964106064492
 30
0.0
  0
VERTEX
  5
BA3
  8
LE_ALL
 10
22.53504338439083
 20
73.1094463279333
 30
0.0
  0
VERTEX
  5
BA4
  8
LE_ALL
 10
23.2169578524838
 20
73.3050414178908
 30
0.0
  0
VERTEX
  5
BA5
  8
LE_ALL
 10
23.77659059367869
 20
73.54337472473135
 30
0.0
  0
VERTEX
  5
BA6
  8
LE_ALL
 10
24.19243523552805
 20
73.81528723311104
 30
0.0
  0
VERTEX
  5
BA7
  8
LE_ALL
 10
24.44851110161757
 20
74.11032949779931
 30
0.0
  0
VERTEX
  5
BA8
  8
LE_ALL
 10
24.53497734
 20
74.41716321
 30
0.0
  0
SEQEND
  5
D02
  8
LE_ALL
  0
POLYLINE
  5
6F2
  8
LE_ALL
 66
     1
 10
0.0
 20
0.0
 30
0.0
  0
VERTEX
  5
BA9
  8
LE_ALL
 10
24.53497734
 20
74.41716321
 30
0.0
  0
VERTEX
  5
BAA
  8
LE_ALL
 10
24.44851110201151
 20
74.7239969215085
 30
0.0
  0
VERTEX
  5
BAB
  8
LE_ALL
 10
24.19243523707353
 20
75.01903918558492
 30
0.0
  0
VERTEX
  5
BAC
  8
LE_ALL
 10
23.77659059704422
 20
75.29095169350823
 30
0.0
  0
VERTEX
  5
BAD
  8
LE_ALL
 10
23.21695785819513
 20
75.52928500011305
 30
0.0
  0
VERTEX
  5
BAE
  8
LE_ALL
 10
22.53504339278559
 20
75.72488009010625
 30
0.0
  0
VERTEX
  5
BAF
  8
LE_ALL
 10
21.75705279123956
 20
75.87022035388753
 30
0.0
  0
VERTEX
  5
BB0
  8
LE_ALL
 10
20.91288379600418
 20
75.95972044664026
 30
0.0
  0
VERTEX
  5
BB1
  8
LE_ALL
 10
20.03497734807704
 20
75.98994093
 30
0.0
  0
VERTEX
  5
BB2
  8
LE_ALL
 10
19.15707089983949
 20
75.95972044774173
 30
0.0
  0
VERTEX
  5
BB3
  8
LE_ALL
 10
18.31290190368486
 20
75.87022035604815
 30
0.0
  0
VERTEX
  5
BB4
  8
LE_ALL
 10
17.53491130064603
 20
75.72488009324297
 30
0.0
  0
VERTEX
  5
BB5
  8
LE_ALL
 10
16.85299683322753
 20
75.52928500410533
 30
0.0
  0
VERTEX
  5
BB6
  8
LE_ALL
 10
16.29336409193051
 20
75.29095169820266
 30
0.0
  0
VERTEX
  5
BB7
  8
LE_ALL
 10
15.87751944910837
 20
75.0190391908011
 30
0.0
  0
VERTEX
  5
BB8
  8
LE_ALL
 10
15.62144358114
 20
74.72399692704596
 30
0.0
  0
VERTEX
  5
BB9
  8
LE_ALL
 10
15.53497734
 20
74.41716321564594
 30
0.0
  0
SEQEND
  5
D03
  8
LE_ALL
  0
POLYLINE
  5
6F3
  8
LE_ALL
 66
     1
 10
0.0
 20
0.0
 30
0.0
  0
VERTEX
  5
6F4
  8
LE_ALL
 10
94.47034027
 20
67.91948039
 30
0.0
  0
VERTEX
  5
6F5
  8
LE_ALL
 10
79.85085635
 20
70.9517498
 30
0.0
  0
SEQEND
  5
6F6
  8
LE_ALL
  0
POLYLINE
  5
6F7
  8
LE_ALL
 66
     1
 10
0.0
 20
0.0
 30
0.0
  0
VERTEX
  5
BBA
  8
LE_ALL
 10
79.85085632496296
 20
70.9517497940401
 30
0.0
  0
VERTEX
  5
BBB
  8
LE_ALL
 10
78.72636538659341
 20
71.13669821020254
 30
0.0
  0
VERTEX
  5
BBC
  8
LE_ALL
 10
77.52171563326675
 20
71.24346674320012
 30
0.0
  0
VERTEX
  5
BBD
  8
LE_ALL
 10
76.28094454047763
 20
71.26815233603016
 30
0.0
  0
VERTEX
  5
BBE
  8
LE_ALL
 10
75.04941004437494
 20
71.20985257603179
 30
0.0
  0
VERTEX
  5
BBF
  8
LE_ALL
 10
73.87213242578562
 20
71.07069868370722
 30
0.0
  0
VERTEX
  5
BC0
  8
LE_ALL
 10
72.79214853765046
 20
70.85577760329589
 30
0.0
  0
VERTEX
  5
BC1
  8
LE_ALL
 10
71.84893853914186
 20
70.57294604317778
 30
0.0
  0
VERTEX
  5
BC2
  8
LE_ALL
 10
71.07698264916237
 20
70.23254326409105
 30
0.0
  0
VERTEX
  5
BC3
  8
LE_ALL
 10
70.50450067890115
 20
69.8470131145493
 30
0.0
  0
VERTEX
  5
BC4
  8
LE_ALL
 10
70.15242042140915
 20
69.4304491304255
 30
0.0
  0
VERTEX
  5
BC5
  8
LE_ALL
 10
70.03361261
 20
68.99807932815526
 30
0.0
  0
SEQEND
  5
D04
  8
LE_ALL
  0
POLYLINE
  5
6F8
  8
LE_ALL
 66
     1
 10
0.0
 20
0.0
 30
0.0
  0
VERTEX
  5
BC6
  8
LE_ALL
 10
70.03361261
 20
68.99807932815526
 30
0.0
  0
VERTEX
  5
BC7
  8
LE_ALL
 10
70.17243146960553
 20
68.53107650522037
 30
0.0
  0
VERTEX
  5
BC8
  8
LE_ALL
 10
70.58295861910823
 20
68.08402100549172
 30
0.0
  0
VERTEX
  5
BC9
  8
LE_ALL
 10
71.24765900844649
 20
67.6760081325992
 30
0.0
  0
VERTEX
  5
BCA
  8
LE_ALL
 10
72.13814095970784
 20
67.32446554305858
 30
0.0
  0
VERTEX
  5
BCB
  8
LE_ALL
 10
73.21636887497081
 20
67.04440885012191
 30
0.0
  0
SEQEND
  5
D05
  8
LE_ALL
  0
POLYLINE
  5
6F9
  8
LE_ALL
 66
     1
 10
0.0
 20
0.0
 30
0.0
  0
VERTEX
  5
6FA
  8
LE_ALL
 10
73.21636887
 20
67.04440884
 30
0.0
  0
VERTEX
  5
6FB
  8
LE_ALL
 10
87.8358528
 20
64.01213943
 30
0.0
  0
SEQEND
  5
6FC
  8
LE_ALL
  0
POLYLINE
  5
6FD
  8
LE_ALL
 66
     1
 10
0.0
 20
0.0
 30
0.0
  0
VERTEX
  5
BCC
  8
LE_ALL
 10
87.83585280497081
 20
64.01213944012191
 30
0.0
  0
VERTEX
  5
BCD
  8
LE_ALL
 10
88.96034374543454
 20
63.82719102204841
 30
0.0
  0
VERTEX
  5
BCE
  8
LE_ALL
 10
90.16499350205713
 20
63.72042248758881
 30
0.0
  0
VERTEX
  5
BCF
  8
LE_ALL
 10
91.40576459892418
 20
63.69573689382575
 30
0.0
  0
VERTEX
  5
BD0
  8
LE_ALL
 10
92.63729909942947
 20
63.75403665346035
 30
0.0
  0
VERTEX
  5
BD1
  8
LE_ALL
 10
93.8145767222791
 20
63.89319054598921
 30
0.0
  0
VERTEX
  5
BD2
  8
LE_ALL
 10
94.89456061408413
 20
64.10811162713085
 30
0.0
  0
VERTEX
  5
BD3
  8
LE_ALL
 10
95.83777061526965
 20
64.39094318842521
 30
0.0
  0
VERTEX
  5
BD4
  8
LE_ALL
 10
96.60972650660091
 20
64.73134596902085
 30
0.0
  0
VERTEX
  5
BD5
  8
LE_ALL
 10
97.18220847664757
 20
65.11687612026445
 30
0.0
  0
VERTEX
  5
BD6
  8
LE_ALL
 10
97.53428873222433
 20
65.53344010612503
 30
0.0
  0
VERTEX
  5
BD7
  8
LE_ALL
 10
97.65309654
 20
65.96580991
 30
0.0
  0
SEQEND
  5
D06
  8
LE_ALL
  0
POLYLINE
  5
6FE
  8
LE_ALL
 66
     1
 10
0.0
 20
0.0
 30
0.0
  0
VERTEX
  5
BD8
  8
LE_ALL
 10
97.65309654
 20
65.96580991
 30
0.0
  0
VERTEX
  5
BD9
  8
LE_ALL
 10
97.51427767559788
 20
66.43281273276072
 30
0.0
  0
VERTEX
  5
BDA
  8
LE_ALL
 10
97.10375052150346
 20
66.8798682319743
 30
0.0
  0
VERTEX
  5
BDB
  8
LE_ALL
 10
96.43905012797447
 20
67.28788110403286
 30
0.0
  0
VERTEX
  5
BDC
  8
LE_ALL
 10
95.54856817310242
 20
67.63942369245622
 30
0.0
  0
VERTEX
  5
BDD
  8
LE_ALL
 10
94.47034025496296
 20
67.9194803840401
 30
0.0
  0
SEQEND
  5
D07
  8
LE_ALL
  0
LINE
  5
6FF
  8
LE_ALL
 10
94.47034027
 20
64.01213943
 30
0.0
 11
94.47034027
 21
67.91948039
 31
0.0
  0
LINE
  5
700
  8
LE_ALL
 10
79.85085635
 20
66.26707948
 30
0.0
 11
92.13154601
 21
63.71990614
 31
0.0
  0
LINE
  5
701
  8
LE_ALL
 10
79.85085635
 20
66.26707948
 30
0.0
 11
79.85085635
 21
70.9517498
 31
0.0
  0
POLYLINE
  5
702
  8
LE_ALL
 66
     1
 10
0.0
 20
0.0
 30
0.0
  0
VERTEX
  5
BDE
  8
LE_ALL
 10
79.85085632496296
 20
66.26707947404009
 30
0.0
  0
VERTEX
  5
BDF
  8
LE_ALL
 10
78.49598772374891
 20
66.47919362491194
 30
0.0
  0
VERTEX
  5
BE0
  8
LE_ALL
 10
77.03875083375301
 20
66.57832852713308
 30
0.0
  0
VERTEX
  5
BE1
  8
LE_ALL
 10
75.55516315322701
 20
66.55931275846733
 30
0.0
  0
SEQEND
  5
D08
  8
LE_ALL
  0
LINE
  5
703
  8
LE_ALL
 10
136.61456714
 20
71.16752188
 30
0.0
 11
135.08353157
 21
70.26582781
 31
0.0
  0
LINE
  5
704
  8
LE_ALL
 10
136.61456714
 20
69.9482713
 30
0.0
 11
136.61456714
 21
71.16752188
 31
0.0
  0
LINE
  5
705
  8
LE_ALL
 10
45.45801414
 20
90.07456596
 30
0.0
 11
136.61456714
 21
71.16752188
 31
0.0
  0
LINE
  5
706
  8
LE_ALL
 10
37.80283628
 20
85.56609562
 30
0.0
 11
45.45801414
 21
90.07456596
 31
0.0
  0
LINE
  5
707
  8
LE_ALL
 10
-25.83503185
 20
98.76540976
 30
0.0
 11
37.80283628
 21
85.56609562
 31
0.0
  0
LINE
  5
708
  8
LE_ALL
 10
-43.93862837
 20
88.10340693
 30
0.0
 11
-25.83503185
 21
98.76540976
 31
0.0
  0
LINE
  5
709
  8
LE_ALL
 10
16.36833828
 20
72.94237868
 30
0.0
 11
12.57240306
 21
73.72970457
 31
0.0
  0
LINE
  5
70A
  8
LE_ALL
 10
8.71316043
 20
68.43390834
 30
0.0
 11
16.36833828
 21
72.94237868
 31
0.0
  0
LINE
  5
70B
  8
LE_ALL
 10
8.71316043
 20
68.43390834
 30
0.0
 11
99.86971343
 21
49.52686426
 31
0.0
  0
LINE
  5
70C
  8
LE_ALL
 10
101.400749
 20
50.42855832
 30
0.0
 11
99.86971343
 21
49.52686426
 31
0.0
  0
LINE
  5
70D
  8
LE_ALL
 10
106.56056685
 20
49.35834559
 30
0.0
 11
101.400749
 21
50.42855832
 31
0.0
  0
LINE
  5
70E
  8
LE_ALL
 10
114.59355214
 20
51.34995264
 30
0.0
 11
106.56056685
 21
49.35834559
 31
0.0
  0
LINE
  5
70F
  8
LE_ALL
 10
139.09012128
 20
65.77705772
 30
0.0
 11
114.59355214
 21
51.34995264
 31
0.0
  0
LINE
  5
710
  8
LE_ALL
 10
140.24334943
 20
69.19561508
 30
0.0
 11
139.09012128
 21
65.77705772
 31
0.0
  0
LINE
  5
711
  8
LE_ALL
 10
135.08353157
 20
70.26582781
 30
0.0
 11
140.24334943
 21
69.19561508
 31
0.0
  0
LINE
  5
712
  8
LE_ALL
 10
140.24334943
 20
64.51094475
 30
0.0
 11
140.24334943
 21
69.19561508
 31
0.0
  0
LINE
  5
713
  8
LE_ALL
 10
139.09012128
 20
61.09238739
 30
0.0
 11
140.24334943
 21
64.51094475
 31
0.0
  0
LINE
  5
714
  8
LE_ALL
 10
114.59355214
 20
46.66528231
 30
0.0
 11
139.09012128
 21
61.09238739
 31
0.0
  0
LINE
  5
715
  8
LE_ALL
 10
106.56056685
 20
44.67367527
 30
0.0
 11
114.59355214
 21
46.66528231
 31
0.0
  0
LINE
  5
716
  8
LE_ALL
 10
101.400749
 20
45.743888
 30
0.0
 11
106.56056685
 21
44.67367527
 31
0.0
  0
LINE
  5
717
  8
LE_ALL
 10
99.86971343
 20
44.84219393
 30
0.0
 11
101.400749
 21
45.743888
 31
0.0
  0
POLYLINE
  5
718
  8
LE_ALL
 66
     1
 10
0.0
 20
0.0
 30
0.0
  0
VERTEX
  5
719
  8
LE_ALL
 10
99.86971343
 20
44.84219393
 30
0.0
  0
VERTEX
  5
71A
  8
LE_ALL
 10
8.71316043
 20
63.74923801
 30
0.0
  0
VERTEX
  5
71B
  8
LE_ALL
 10
8.71316043
 20
68.43390834
 30
0.0
  0
SEQEND
  5
71C
  8
LE_ALL
  0
LINE
  5
71D
  8
LE_ALL
 10
99.86971343
 20
44.84219393
 30
0.0
 11
99.86971343
 21
49.52686426
 31
0.0
  0
LINE
  5
71E
  8
LE_ALL
 10
101.400749
 20
45.743888
 30
0.0
 11
101.400749
 21
50.42855832
 31
0.0
  0
LINE
  5
71F
  8
LE_ALL
 10
106.56056685
 20
44.67367527
 30
0.0
 11
106.56056685
 21
49.35834559
 31
0.0
  0
LINE
  5
720
  8
LE_ALL
 10
114.59355214
 20
46.66528231
 30
0.0
 11
114.59355214
 21
51.34995264
 31
0.0
  0
LINE
  5
721
  8
LE_ALL
 10
139.09012128
 20
61.09238739
 30
0.0
 11
139.09012128
 21
65.77705772
 31
0.0
  0
ENDBLK
  8
0
  0
BLOCK
  8
0
  2
BEND_ZONE_00106
 70
     0
 10
0.0
 20
0.0
 30
0.0
  0
INSERT
  5
724
  8
0
  2
BEND_ZONE_00107
 10
-49.8212558
 20
92.74775303
 30
0.0
  0
ENDBLK
  8
0
  0
BLOCK
  8
0
  2
BEND_ZONE_00107
 70
     0
 10
-49.8212558
 20
92.74775303
 30
0.0
  0
POLYLINE
  5
727
  8
LE_ALL
 66
     1
 10
0.0
 20
0.0
 30
0.0
  0
VERTEX
  5
728
  8
LE_ALL
 10
-49.8212558
 20
92.74775303
 30
0.0
  0
VERTEX
  5
729
  8
LE_ALL
 10
-30.13488006
 20
104.34192403
 30
0.0
  0
SEQEND
  5
72A
  8
LE_ALL
  0
POLYLINE
  5
72B
  8
LE_ALL
 66
     1
 10
0.0
 20
0.0
 30
0.0
  0
VERTEX
  5
BE2
  8
LE_ALL
 10
-30.13488005098949
 20
104.3419240453185
 30
0.0
  0
VERTEX
  5
BE3
  8
LE_ALL
 10
-30.05225967396233
 20
103.4108536710293
 30
0.0
  0
VERTEX
  5
BE4
  8
LE_ALL
 10
-29.80757359604965
 20
102.4812907456446
 30
0.0
  0
VERTEX
  5
BE5
  8
LE_ALL
 10
-29.41022496604238
 20
101.5889578512273
 30
0.0
  0
VERTEX
  5
BE6
  8
LE_ALL
 10
-28.87548366901811
 20
100.7681468406232
 30
0.0
  0
VERTEX
  5
BE7
  8
LE_ALL
 10
-28.22389951321872
 20
100.0504010207822
 30
0.0
  0
VERTEX
  5
BE8
  8
LE_ALL
 10
-27.48051251244082
 20
99.46330296115634
 30
0.0
  0
VERTEX
  5
BE9
  8
LE_ALL
 10
-26.67389061234429
 20
99.02941451102053
 30
0.0
  0
VERTEX
  5
BEA
  8
LE_ALL
 10
-25.83503184031714
 20
98.76540976025382
 30
0.0
  0
SEQEND
  5
D09
  8
LE_ALL
  0
LINE
  5
72C
  8
LE_ALL
 10
-43.93862837
 20
88.10340693
 30
0.0
 11
-25.83503185
 21
98.76540976
 31
0.0
  0
ENDBLK
  8
0
  0
BLOCK
  8
0
  2
SHEET_FLANGE_00108
 70
     0
 10
0.0
 20
0.0
 30
0.0
  0
INSERT
  5
72F
  8
0
  2
SHEET_FLANGE_00109
 10
-33.65259502
 20
121.74830066
 30
0.0
  0
ENDBLK
  8
0
  0
BLOCK
  8
0
  2
SHEET_FLANGE_00109
 70
     0
 10
-33.65259502
 20
121.74830066
 30
0.0
  0
POLYLINE
  5
732
  8
LE_ALL
 66
     1
 10
0.0
 20
0.0
 30
0.0
  0
VERTEX
  5
BEB
  8
LE_ALL
 10
-33.65259501537824
 20
121.7483006590414
 30
0.0
  0
VERTEX
  5
BEC
  8
LE_ALL
 10
-33.31924582494887
 20
121.7478426122435
 30
0.0
  0
VERTEX
  5
BED
  8
LE_ALL
 10
-32.97139078119409
 20
121.879102160158
 30
0.0
  0
VERTEX
  5
BEE
  8
LE_ALL
 10
-32.62239775831164
 20
122.1370350719902
 30
0.0
  0
VERTEX
  5
BEF
  8
LE_ALL
 10
-32.2856783623988
 20
122.5117291306292
 30
0.0
  0
VERTEX
  5
BF0
  8
LE_ALL
 10
-31.97417253095345
 20
122.9887850535908
 30
0.0
  0
VERTEX
  5
BF1
  8
LE_ALL
 10
-31.69985125833486
 20
123.5498698493663
 30
0.0
  0
VERTEX
  5
BF2
  8
LE_ALL
 10
-31.47325655716575
 20
124.1734213440018
 30
0.0
  0
VERTEX
  5
BF3
  8
LE_ALL
 10
-31.30309633470084
 20
124.8354768033475
 30
0.0
  0
VERTEX
  5
BF4
  8
LE_ALL
 10
-31.1959097528359
 20
125.5105938074893
 30
0.0
  0
VERTEX
  5
BF5
  8
LE_ALL
 10
-31.15581593178434
 20
126.1728279886735
 30
0.0
  0
VERTEX
  5
BF6
  8
LE_ALL
 10
-31.184355654598
 20
126.7967300588059
 30
0.0
  0
VERTEX
  5
BF7
  8
LE_ALL
 10
-31.2804321557389
 20
127.3583238113173
 30
0.0
  0
VERTEX
  5
BF8
  8
LE_ALL
 10
-31.44035326916352
 20
127.8360275133317
 30
0.0
  0
VERTEX
  5
BF9
  8
LE_ALL
 10
-31.65797331619275
 20
128.2114832795548
 30
0.0
  0
VERTEX
  5
BFA
  8
LE_ALL
 10
-31.924929280496
 20
128.4702625555073
 30
0.0
  0
VERTEX
  5
BFB
  8
LE_ALL
 10
-32.23096219411747
 20
128.6024205987799
 30
0.0
  0
SEQEND
  5
D0A
  8
LE_ALL
  0
POLYLINE
  5
733
  8
LE_ALL
 66
     1
 10
0.0
 20
0.0
 30
0.0
  0
VERTEX
  5
BFC
  8
LE_ALL
 10
-32.23096219411747
 20
128.6024205987799
 30
0.0
  0
VERTEX
  5
BFD
  8
LE_ALL
 10
-32.56431138525867
 20
128.6028786496368
 30
0.0
  0
VERTEX
  5
BFE
  8
LE_ALL
 10
-32.91216643021963
 20
128.4716191046374
 30
0.0
  0
VERTEX
  5
BFF
  8
LE_ALL
 10
-33.26115945464746
 20
128.2136861945056
 30
0.0
  0
VERTEX
  5
C00
  8
LE_ALL
 10
-33.59787885227642
 20
127.8389921363674
 30
0.0
  0
VERTEX
  5
C01
  8
LE_ALL
 10
-33.90938468543738
 20
127.361936212805
 30
0.0
  0
VERTEX
  5
C02
  8
LE_ALL
 10
-34.18370595960777
 20
126.8008514154992
 30
0.0
  0
VERTEX
  5
C03
  8
LE_ALL
 10
-34.41030066201947
 20
126.1772999186384
 30
0.0
  0
VERTEX
  5
C04
  8
LE_ALL
 10
-34.58046088529916
 20
125.5152444566525
 30
0.0
  0
VERTEX
  5
C05
  8
LE_ALL
 10
-34.68764746746655
 20
124.8401274497643
 30
0.0
  0
VERTEX
  5
C06
  8
LE_ALL
 10
-34.72774128826312
 20
124.1778932660441
 30
0.0
  0
VERTEX
  5
C07
  8
LE_ALL
 10
-34.69920156463426
 20
123.5539911938905
 30
0.0
  0
VERTEX
  5
C08
  8
LE_ALL
 10
-34.60312506215823
 20
122.9923974401455
 30
0.0
  0
VERTEX
  5
C09
  8
LE_ALL
 10
-34.44320394695988
 20
122.514693737908
 30
0.0
  0
VERTEX
  5
C0A
  8
LE_ALL
 10
-34.22558389783649
 20
122.1392379726304
 30
0.0
  0
VERTEX
  5
C0B
  8
LE_ALL
 10
-33.95862793126716
 20
121.8804586988729
 30
0.0
  0
VERTEX
  5
C0C
  8
LE_ALL
 10
-33.65259501537824
 20
121.7483006590414
 30
0.0
  0
SEQEND
  5
D0B
  8
LE_ALL
  0
POLYLINE
  5
734
  8
LE_ALL
 66
     1
 10
0.0
 20
0.0
 30
0.0
  0
VERTEX
  5
C0D
  8
LE_ALL
 10
-33.85568542405773
 20
103.9043274887675
 30
0.0
  0
VERTEX
  5
C0E
  8
LE_ALL
 10
-33.42709360778743
 20
103.9037385707622
 30
0.0
  0
VERTEX
  5
C0F
  8
LE_ALL
 10
-32.9798514083958
 20
104.0725008459303
 30
0.0
  0
VERTEX
  5
C10
  8
LE_ALL
 10
-32.53114609271925
 20
104.4041288747063
 30
0.0
  0
VERTEX
  5
C11
  8
LE_ALL
 10
-32.09822115433223
 20
104.8858783779754
 30
0.0
  0
VERTEX
  5
C12
  8
LE_ALL
 10
-31.69771365576219
 20
105.4992359925706
 30
0.0
  0
VERTEX
  5
C13
  8
LE_ALL
 10
-31.34501487550937
 20
106.2206307294337
 30
0.0
  0
VERTEX
  5
C14
  8
LE_ALL
 10
-31.053678829848
 20
107.0223397935026
 30
0.0
  0
VERTEX
  5
C15
  8
LE_ALL
 10
-30.83490139958417
 20
107.8735539551742
 30
0.0
  0
VERTEX
  5
C16
  8
LE_ALL
 10
-30.6970900786369
 20
108.7415615317148
 30
0.0
  0
VERTEX
  5
C17
  8
LE_ALL
 10
-30.64554087876321
 20
109.5930054788781
 30
0.0
  0
VERTEX
  5
C18
  8
LE_ALL
 10
-30.68223480679704
 20
110.3951652834027
 30
0.0
  0
VERTEX
  5
C19
  8
LE_ALL
 10
-30.80576173566797
 20
111.1172143939827
 30
0.0
  0
VERTEX
  5
C1A
  8
LE_ALL
 10
-31.01137459479352
 20
111.7314048683411
 30
0.0
  0
VERTEX
  5
C1B
  8
LE_ALL
 10
-31.29117179733865
 20
112.2141337110864
 30
0.0
  0
VERTEX
  5
C1C
  8
LE_ALL
 10
-31.63440089376536
 20
112.5468499235848
 30
0.0
  0
VERTEX
  5
C1D
  8
LE_ALL
 10
-32.02787178243675
 20
112.7167674084313
 30
0.0
  0
SEQEND
  5
D0C
  8
LE_ALL
  0
POLYLINE
  5
735
  8
LE_ALL
 66
     1
 10
0.0
 20
0.0
 30
0.0
  0
VERTEX
  5
C1E
  8
LE_ALL
 10
-32.02787178243675
 20
112.7167674084313
 30
0.0
  0
VERTEX
  5
C1F
  8
LE_ALL
 10
-32.45646359962227
 20
112.7173563316553
 30
0.0
  0
VERTEX
  5
C20
  8
LE_ALL
 10
-32.90370580056468
 20
112.5485940602353
 30
0.0
  0
VERTEX
  5
C21
  8
LE_ALL
 10
-33.35241111822817
 20
112.2169660336455
 30
0.0
  0
VERTEX
  5
C22
  8
LE_ALL
 10
-33.78533605882162
 20
111.7352165310202
 30
0.0
  0
VERTEX
  5
C23
  8
LE_ALL
 10
-34.18584355959746
 20
111.1218589156526
 30
0.0
  0
VERTEX
  5
C24
  8
LE_ALL
 10
-34.53854234184545
 20
110.400464176822
 30
0.0
  0
VERTEX
  5
C25
  8
LE_ALL
 10
-34.82987838910443
 20
109.5987551098918
 30
0.0
  0
VERTEX
  5
C26
  8
LE_ALL
 10
-35.04865582041584
 20
108.7475409448258
 30
0.0
  0
VERTEX
  5
C27
  8
LE_ALL
 10
-35.18646714175197
 20
107.8795333647541
 30
0.0
  0
VERTEX
  5
C28
  8
LE_ALL
 10
-35.2380163412978
 20
107.0280894143303
 30
0.0
  0
VERTEX
  5
C29
  8
LE_ALL
 10
-35.20132241221587
 20
106.2259296072069
 30
0.0
  0
VERTEX
  5
C2A
  8
LE_ALL
 10
-35.07779548162833
 20
105.5038804950409
 30
0.0
  0
VERTEX
  5
C2B
  8
LE_ALL
 10
-34.87218262022227
 20
104.8896900203957
 30
0.0
  0
VERTEX
  5
C2C
  8
LE_ALL
 10
-34.59238541498465
 20
104.406961178866
 30
0.0
  0
VERTEX
  5
C2D
  8
LE_ALL
 10
-34.2491563156444
 20
104.0742449691897
 30
0.0
  0
VERTEX
  5
C2E
  8
LE_ALL
 10
-33.85568542405773
 20
103.9043274887675
 30
0.0
  0
SEQEND
  5
D0D
  8
LE_ALL
  0
POLYLINE
  5
736
  8
LE_ALL
 66
     1
 10
0.0
 20
0.0
 30
0.0
  0
VERTEX
  5
C2F
  8
LE_ALL
 10
-49.67638634
 20
111.4516353
 30
0.0
  0
VERTEX
  5
C30
  8
LE_ALL
 10
-49.24779452372269
 20
111.4510463796225
 30
0.0
  0
VERTEX
  5
C31
  8
LE_ALL
 10
-48.80055232406259
 20
111.6198086527653
 30
0.0
  0
VERTEX
  5
C32
  8
LE_ALL
 10
-48.35184700789718
 20
111.9514366799292
 30
0.0
  0
VERTEX
  5
C33
  8
LE_ALL
 10
-47.91892206885056
 20
112.4331861820385
 30
0.0
  0
VERTEX
  5
C34
  8
LE_ALL
 10
-47.5184145695053
 20
113.0465437959375
 30
0.0
  0
VERTEX
  5
C35
  8
LE_ALL
 10
-47.16571578841899
 20
113.7679385325526
 30
0.0
  0
VERTEX
  5
C36
  8
LE_ALL
 10
-46.87437974192213
 20
114.5696475967818
 30
0.0
  0
VERTEX
  5
C37
  8
LE_ALL
 10
-46.65560231087296
 20
115.4208617589605
 30
0.0
  0
VERTEX
  5
C38
  8
LE_ALL
 10
-46.51779098923576
 20
116.2888693362771
 30
0.0
  0
VERTEX
  5
C39
  8
LE_ALL
 10
-46.46624178880348
 20
117.1403132843957
 30
0.0
  0
VERTEX
  5
C3A
  8
LE_ALL
 10
-46.50293571643512
 20
117.9424730899597
 30
0.0
  0
VERTEX
  5
C3B
  8
LE_ALL
 10
-46.62646264507318
 20
118.664522201568
 30
0.0
  0
VERTEX
  5
C3C
  8
LE_ALL
 10
-46.83207550413564
 20
119.2787126768545
 30
0.0
  0
VERTEX
  5
C3D
  8
LE_ALL
 10
-47.11187270677572
 20
119.7614415203496
 30
0.0
  0
VERTEX
  5
C3E
  8
LE_ALL
 10
-47.45510180343255
 20
120.0941577333577
 30
0.0
  0
VERTEX
  5
C3F
  8
LE_ALL
 10
-47.84857269243675
 20
120.2640752184313
 30
0.0
  0
SEQEND
  5
D0E
  8
LE_ALL
  0
LINE
  5
737
  8
LE_ALL
 10
-49.82125580040406
 20
111.4928982175759
 30
0.0
 11
-49.67638634
 21
111.4516353
 31
0.0
  0
POLYLINE
  5
738
  8
LE_ALL
 66
     1
 10
0.0
 20
0.0
 30
0.0
  0
VERTEX
  5
C40
  8
LE_ALL
 10
-47.84857269243675
 20
120.2640752184313
 30
0.0
  0
VERTEX
  5
C41
  8
LE_ALL
 10
-48.23535844025654
 20
120.271940311946
 30
0.0
  0
VERTEX
  5
C42
  8
LE_ALL
 10
-48.6387429478432
 20
120.1408082372893
 30
0.0
  0
VERTEX
  5
C43
  8
LE_ALL
 10
-49.04602385364751
 20
119.8748082730818
 30
0.0
  0
VERTEX
  5
C44
  8
LE_ALL
 10
-49.44437610063257
 20
119.4823166153694
 30
0.0
  0
VERTEX
  5
C45
  8
LE_ALL
 10
-49.82125579043348
 20
118.9756926157075
 30
0.0
  0
SEQEND
  5
D0F
  8
LE_ALL
  0
POLYLINE
  5
739
  8
LE_ALL
 66
     1
 10
0.0
 20
0.0
 30
0.0
  0
VERTEX
  5
C46
  8
LE_ALL
 10
-49.47329593
 20
95.56598211
 30
0.0
  0
VERTEX
  5
C47
  8
LE_ALL
 10
-49.1399467395652
 20
95.56552406135714
 30
0.0
  0
VERTEX
  5
C48
  8
LE_ALL
 10
-48.7920916956016
 20
95.69678360769642
 30
0.0
  0
VERTEX
  5
C49
  8
LE_ALL
 10
-48.44309867233892
 20
95.95471651827471
 30
0.0
  0
VERTEX
  5
C4A
  8
LE_ALL
 10
-48.10637927591306
 20
96.32941057601153
 30
0.0
  0
VERTEX
  5
C4B
  8
LE_ALL
 10
-47.79487344386476
 20
96.80646649843169
 30
0.0
  0
VERTEX
  5
C4C
  8
LE_ALL
 10
-47.5205521705979
 20
97.36755129401439
 30
0.0
  0
VERTEX
  5
C4D
  8
LE_ALL
 10
-47.29395746877896
 20
97.99110278877447
 30
0.0
  0
VERTEX
  5
C4E
  8
LE_ALL
 10
-47.12379724570324
 20
98.65315824851463
 30
0.0
  0
VERTEX
  5
C4F
  8
LE_ALL
 10
-47.01661066330168
 20
99.32827525325995
 30
0.0
  0
VERTEX
  5
C50
  8
LE_ALL
 10
-46.97651684181566
 20
99.99050943518718
 30
0.0
  0
VERTEX
  5
C51
  8
LE_ALL
 10
-47.00505656431651
 20
100.614411506128
 30
0.0
  0
VERTEX
  5
C52
  8
LE_ALL
 10
-47.10113306527628
 20
101.1760052594392
 30
0.0
  0
VERTEX
  5
C53
  8
LE_ALL
 10
-47.26105417865183
 20
101.6537089621754
 30
0.0
  0
VERTEX
  5
C54
  8
LE_ALL
 10
-47.47867422575491
 20
102.0291647289817
 30
0.0
  0
VERTEX
  5
C55
  8
LE_ALL
 10
-47.74563019023714
 20
102.2879440053307
 30
0.0
  0
VERTEX
  5
C56
  8
LE_ALL
 10
-48.05166310411747
 20
102.4201020487799
 30
0.0
  0
SEQEND
  5
D10
  8
LE_ALL
  0
LINE
  5
73A
  8
LE_ALL
 10
-49.8212558042387
 20
95.72840491144417
 30
0.0
 11
-49.47329593
 21
95.56598211
 31
0.0
  0
POLYLINE
  5
73B
  8
LE_ALL
 66
     1
 10
0.0
 20
0.0
 30
0.0
  0
VERTEX
  5
C57
  8
LE_ALL
 10
-48.05166310411747
 20
102.4201020487799
 30
0.0
  0
VERTEX
  5
C58
  8
LE_ALL
 10
-48.40668967844986
 20
102.4161397794002
 30
0.0
  0
VERTEX
  5
C59
  8
LE_ALL
 10
-48.77716407604367
 20
102.2635521079109
 30
0.0
  0
VERTEX
  5
C5A
  8
LE_ALL
 10
-49.1470008938082
 20
101.9689641458407
 30
0.0
  0
VERTEX
  5
C5B
  8
LE_ALL
 10
-49.50014241134451
 20
101.5451664291788
 30
0.0
  0
VERTEX
  5
C5C
  8
LE_ALL
 10
-49.82125579136473
 20
101.0105595738537
 30
0.0
  0
SEQEND
  5
D11
  8
LE_ALL
  0
POLYLINE
  5
73C
  8
LE_ALL
 66
     1
 10
0.0
 20
0.0
 30
0.0
  0
VERTEX
  5
C5D
  8
LE_ALL
 10
-42.17221668000001
 20
112.7466669
 30
0.0
  0
VERTEX
  5
C5E
  8
LE_ALL
 10
-41.54776319811571
 20
112.7468571537977
 30
0.0
  0
VERTEX
  5
C5F
  8
LE_ALL
 10
-40.89612501940366
 20
112.9957599236228
 30
0.0
  0
VERTEX
  5
C60
  8
LE_ALL
 10
-40.24276752193984
 20
113.4836483344319
 30
0.0
  0
VERTEX
  5
C61
  8
LE_ALL
 10
-39.61322327308329
 20
114.1914561877639
 30
0.0
  0
VERTEX
  5
C62
  8
LE_ALL
 10
-39.03209424189666
 20
115.0915230499932
 30
0.0
  0
VERTEX
  5
C63
  8
LE_ALL
 10
-38.52209037843127
 20
116.1486751948263
 30
0.0
  0
VERTEX
  5
C64
  8
LE_ALL
 10
-38.10314213125142
 20
117.3216001578751
 30
0.0
  0
VERTEX
  5
C65
  8
LE_ALL
 10
-37.79162158513859
 20
118.5644611870668
 30
0.0
  0
VERTEX
  5
C66
  8
LE_ALL
 10
-37.59970265614673
 20
119.8286884977597
 30
0.0
  0
VERTEX
  5
C67
  8
LE_ALL
 10
-37.53488534695582
 20
121.0648773320798
 30
0.0
  0
SEQEND
  5
D12
  8
LE_ALL
  0
POLYLINE
  5
73D
  8
LE_ALL
 66
     1
 10
0.0
 20
0.0
 30
0.0
  0
VERTEX
  5
73E
  8
LE_ALL
 10
-37.53488533
 20
121.06487732
 30
0.0
  0
VERTEX
  5
73F
  8
LE_ALL
 10
-37.53488533
 20
136.99275644
 30
0.0
  0
SEQEND
  5
740
  8
LE_ALL
  0
POLYLINE
  5
741
  8
LE_ALL
 66
     1
 10
0.0
 20
0.0
 30
0.0
  0
VERTEX
  5
C68
  8
LE_ALL
 10
-37.53488534695582
 20
136.9927564520798
 30
0.0
  0
VERTEX
  5
C69
  8
LE_ALL
 10
-37.59684946008419
 20
138.1278680092646
 30
0.0
  0
VERTEX
  5
C6A
  8
LE_ALL
 10
-37.78042689681004
 20
139.1475863907329
 30
0.0
  0
VERTEX
  5
C6B
  8
LE_ALL
 10
-38.07875942528799
 20
140.0138161464021
 30
0.0
  0
VERTEX
  5
C6C
  8
LE_ALL
 10
-38.48070170171214
 20
140.6941959763123
 30
0.0
  0
VERTEX
  5
C6D
  8
LE_ALL
 10
-38.97123764693168
 20
141.1633077098012
 30
0.0
  0
VERTEX
  5
C6E
  8
LE_ALL
 10
-39.5320414290753
 20
141.4036258977341
 30
0.0
  0
SEQEND
  5
D13
  8
LE_ALL
  0
POLYLINE
  5
742
  8
LE_ALL
 66
     1
 10
0.0
 20
0.0
 30
0.0
  0
VERTEX
  5
C6F
  8
LE_ALL
 10
-39.5320414290753
 20
141.4036258977341
 30
0.0
  0
VERTEX
  5
C70
  8
LE_ALL
 10
-40.15649491024086
 20
141.403435648475
 30
0.0
  0
VERTEX
  5
C71
  8
LE_ALL
 10
-40.80813308868917
 20
141.1545328830999
 30
0.0
  0
VERTEX
  5
C72
  8
LE_ALL
 10
-41.46149058635459
 20
140.666644476478
 30
0.0
  0
VERTEX
  5
C73
  8
LE_ALL
 10
-42.09103483587016
 20
139.9588366269068
 30
0.0
  0
VERTEX
  5
C74
  8
LE_ALL
 10
-42.67216386814753
 20
139.058769767865
 30
0.0
  0
VERTEX
  5
C75
  8
LE_ALL
 10
-43.18216773309271
 20
138.0016176255216
 30
0.0
  0
VERTEX
  5
C76
  8
LE_ALL
 10
-43.60111598208357
 20
136.8286926641672
 30
0.0
  0
VERTEX
  5
C77
  8
LE_ALL
 10
-43.91263653026789
 20
135.5858316358087
 30
0.0
  0
VERTEX
  5
C78
  8
LE_ALL
 10
-44.10455546151074
 20
134.3216043250548
 30
0.0
  0
VERTEX
  5
C79
  8
LE_ALL
 10
-44.16937277304419
 20
133.0854154897823
 30
0.0
  0
SEQEND
  5
D14
  8
LE_ALL
  0
POLYLINE
  5
743
  8
LE_ALL
 66
     1
 10
0.0
 20
0.0
 30
0.0
  0
VERTEX
  5
744
  8
LE_ALL
 10
-44.1693728
 20
133.08541548
 30
0.0
  0
VERTEX
  5
745
  8
LE_ALL
 10
-44.1693728
 20
117.15753637
 30
0.0
  0
SEQEND
  5
746
  8
LE_ALL
  0
POLYLINE
  5
747
  8
LE_ALL
 66
     1
 10
0.0
 20
0.0
 30
0.0
  0
VERTEX
  5
C7A
  8
LE_ALL
 10
-44.16937277304419
 20
117.1575363697823
 30
0.0
  0
VERTEX
  5
C7B
  8
LE_ALL
 10
-44.1074086611431
 20
116.0224248015058
 30
0.0
  0
VERTEX
  5
C7C
  8
LE_ALL
 10
-43.92383122351118
 20
115.0027064105241
 30
0.0
  0
VERTEX
  5
C7D
  8
LE_ALL
 10
-43.62549869214539
 20
114.1364766479293
 30
0.0
  0
VERTEX
  5
C7E
  8
LE_ALL
 10
-43.22355641115083
 20
113.4560968144953
 30
0.0
  0
VERTEX
  5
C7F
  8
LE_ALL
 10
-42.73302046010679
 20
112.9869850814525
 30
0.0
  0
VERTEX
  5
C80
  8
LE_ALL
 10
-42.17221667141673
 20
112.7466668982197
 30
0.0
  0
SEQEND
  5
D15
  8
LE_ALL
  0
POLYLINE
  5
748
  8
LE_ALL
 66
     1
 10
0.0
 20
0.0
 30
0.0
  0
VERTEX
  5
C81
  8
LE_ALL
 10
-43.93635880477257
 20
115.0525600759734
 30
0.0
  0
VERTEX
  5
C82
  8
LE_ALL
 10
-43.3494419910367
 20
115.9521216440595
 30
0.0
  0
VERTEX
  5
C83
  8
LE_ALL
 10
-42.83386240121492
 20
117.0120029802598
 30
0.0
  0
VERTEX
  5
C84
  8
LE_ALL
 10
-42.41002463812968
 20
118.1902581694702
 30
0.0
  0
VERTEX
  5
C85
  8
LE_ALL
 10
-42.09470252562428
 20
119.4402565272456
 30
0.0
  0
VERTEX
  5
C86
  8
LE_ALL
 10
-41.90037526689801
 20
120.7125280580266
 30
0.0
  0
VERTEX
  5
C87
  8
LE_ALL
 10
-41.83473356695581
 20
121.9567212820798
 30
0.0
  0
SEQEND
  5
D16
  8
LE_ALL
  0
LINE
  5
749
  8
LE_ALL
 10
-41.83473354
 20
121.95672127
 30
0.0
 11
-37.53488533
 21
121.06487732
 31
0.0
  0
LINE
  5
74A
  8
LE_ALL
 10
-41.83473354
 20
137.88460038
 30
0.0
 11
-41.83473354
 21
121.95672127
 31
0.0
  0
LINE
  5
74B
  8
LE_ALL
 10
-41.83473354
 20
137.88460038
 30
0.0
 11
-37.53488533
 21
136.99275644
 31
0.0
  0
POLYLINE
  5
74C
  8
LE_ALL
 66
     1
 10
0.0
 20
0.0
 30
0.0
  0
VERTEX
  5
C88
  8
LE_ALL
 10
-41.83473356695581
 20
137.8846003920798
 30
0.0
  0
VERTEX
  5
C89
  8
LE_ALL
 10
-41.89350774174972
 20
138.991311704281
 30
0.0
  0
VERTEX
  5
C8A
  8
LE_ALL
 10
-42.06774757288912
 20
139.989576707701
 30
0.0
  0
SEQEND
  5
D17
  8
LE_ALL
  0
LINE
  5
74D
  8
LE_ALL
 10
-28.6037935
 20
166.14440398
 30
0.0
 11
-53.10046463
 21
151.71723884
 31
0.0
  0
LINE
  5
74E
  8
LE_ALL
 10
-57.40031284
 20
152.60908278
 30
0.0
 11
-53.10046463
 21
151.71723884
 31
0.0
  0
POLYLINE
  5
74F
  8
LE_ALL
 66
     1
 10
0.0
 20
0.0
 30
0.0
  0
VERTEX
  5
750
  8
LE_ALL
 10
-57.40031284
 20
152.60908278
 30
0.0
  0
VERTEX
  5
751
  8
LE_ALL
 10
-32.90364171
 20
167.03624792
 30
0.0
  0
VERTEX
  5
752
  8
LE_ALL
 10
-28.6037935
 20
166.14440398
 30
0.0
  0
VERTEX
  5
753
  8
LE_ALL
 10
-24.01073778
 20
165.1018031
 30
0.0
  0
VERTEX
  5
754
  8
LE_ALL
 10
-24.01073778
 20
159.48019871
 30
0.0
  0
VERTEX
  5
755
  8
LE_ALL
 10
-22.47970221
 20
160.38189278
 30
0.0
  0
VERTEX
  5
756
  8
LE_ALL
 10
-22.47970221
 20
154.76028839
 30
0.0
  0
VERTEX
  5
757
  8
LE_ALL
 10
-30.13488006
 20
150.25181805
 30
0.0
  0
VERTEX
  5
758
  8
LE_ALL
 10
-30.13488006
 20
104.34192403
 30
0.0
  0
SEQEND
  5
759
  8
LE_ALL
  0
LINE
  5
75A
  8
LE_ALL
 10
-49.8212558
 20
92.74775303
 30
0.0
 11
-30.13488006
 21
104.34192403
 31
0.0
  0
POLYLINE
  5
75B
  8
LE_ALL
 66
     1
 10
0.0
 20
0.0
 30
0.0
  0
VERTEX
  5
75C
  8
LE_ALL
 10
-51.56937807
 20
132.36220664
 30
0.0
  0
VERTEX
  5
75D
  8
LE_ALL
 10
-51.56937807
 20
137.6281011
 30
0.0
  0
VERTEX
  5
75E
  8
LE_ALL
 10
-59.22455592
 20
133.11963077
 30
0.0
  0
VERTEX
  5
75F
  8
LE_ALL
 10
-59.22455592
 20
138.74123516
 30
0.0
  0
VERTEX
  5
760
  8
LE_ALL
 10
-57.69352035
 20
139.64292923
 30
0.0
  0
VERTEX
  5
761
  8
LE_ALL
 10
-57.69352035
 20
145.26453362
 30
0.0
  0
VERTEX
  5
762
  8
LE_ALL
 10
-53.10046463
 20
151.71723884
 30
0.0
  0
SEQEND
  5
763
  8
LE_ALL
  0
LINE
  5
764
  8
LE_ALL
 10
-61.99336857
 20
146.15637756
 30
0.0
 11
-57.69352035
 21
145.26453362
 31
0.0
  0
POLYLINE
  5
765
  8
LE_ALL
 66
     1
 10
0.0
 20
0.0
 30
0.0
  0
VERTEX
  5
766
  8
LE_ALL
 10
-57.40031284
 20
152.60908278
 30
0.0
  0
VERTEX
  5
767
  8
LE_ALL
 10
-61.99336857
 20
146.15637756
 30
0.0
  0
VERTEX
  5
768
  8
LE_ALL
 10
-61.99336857
 20
140.53477317
 30
0.0
  0
VERTEX
  5
769
  8
LE_ALL
 10
-57.69352035
 20
139.64292923
 30
0.0
  0
SEQEND
  5
76A
  8
LE_ALL
  0
POLYLINE
  5
76B
  8
LE_ALL
 66
     1
 10
0.0
 20
0.0
 30
0.0
  0
VERTEX
  5
76C
  8
LE_ALL
 10
-61.99336857
 20
140.53477317
 30
0.0
  0
VERTEX
  5
76D
  8
LE_ALL
 10
-63.52440414
 20
139.6330791
 30
0.0
  0
VERTEX
  5
76E
  8
LE_ALL
 10
-59.22455592
 20
138.74123516
 30
0.0
  0
SEQEND
  5
76F
  8
LE_ALL
  0
POLYLINE
  5
770
  8
LE_ALL
 66
     1
 10
0.0
 20
0.0
 30
0.0
  0
VERTEX
  5
771
  8
LE_ALL
 10
-63.52440414
 20
139.6330791
 30
0.0
  0
VERTEX
  5
772
  8
LE_ALL
 10
-63.52440414
 20
134.01147471
 30
0.0
  0
VERTEX
  5
773
  8
LE_ALL
 10
-59.22455592
 20
133.11963077
 30
0.0
  0
SEQEND
  5
774
  8
LE_ALL
  0
LINE
  5
775
  8
LE_ALL
 10
-24.01073778
 20
160.69944929
 30
0.0
 11
-22.47970221
 21
160.38189278
 31
0.0
  0
ENDBLK
  8
0
  0
BLOCK
  8
0
  2
BEND_ZONE_00110
 70
     0
 10
0.0
 20
0.0
 30
0.0
  0
INSERT
  5
778
  8
0
  2
BEND_ZONE_00111
 10
5.6750837
 20
75.78079924
 30
0.0
  0
ENDBLK
  8
0
  0
BLOCK
  8
0
  2
BEND_ZONE_00111
 70
     0
 10
5.6750837
 20
75.78079924
 30
0.0
  0
LINE
  5
77B
  8
LE_ALL
 10
5.6750837
 20
75.78079924
 30
0.0
 11
-52.37298176
 21
87.82071624
 31
0.0
  0
LINE
  5
77C
  8
LE_ALL
 10
-49.8212558
 20
89.32353969
 30
0.0
 11
-52.37298176
 21
87.82071624
 31
0.0
  0
LINE
  5
77D
  8
LE_ALL
 10
8.22680965
 20
77.28362269
 30
0.0
 11
-49.8212558
 21
89.32353969
 31
0.0
  0
LINE
  5
77E
  8
LE_ALL
 10
5.6750837
 20
75.78079924
 30
0.0
 11
8.22680965
 21
77.28362269
 31
0.0
  0
POLYLINE
  5
77F
  8
LE_ALL
 66
     1
 10
0.0
 20
0.0
 30
0.0
  0
VERTEX
  5
C8B
  8
LE_ALL
 10
5.675083743071974
 20
75.78079925148617
 30
0.0
  0
VERTEX
  5
C8C
  8
LE_ALL
 10
5.770413145768647
 20
74.03447376552457
 30
0.0
  0
VERTEX
  5
C8D
  8
LE_ALL
 10
6.052839971795702
 20
72.46567624368132
 30
0.0
  0
VERTEX
  5
C8E
  8
LE_ALL
 10
6.511813095096135
 20
71.13301507186563
 30
0.0
  0
VERTEX
  5
C8F
  8
LE_ALL
 10
7.130185832584469
 20
70.08627686635931
 30
0.0
  0
VERTEX
  5
C90
  8
LE_ALL
 10
7.884856523574863
 20
69.36456650579711
 30
0.0
  0
VERTEX
  5
C91
  8
LE_ALL
 10
8.747631579999998
 20
68.99484622
 30
0.0
  0
SEQEND
  5
D18
  8
LE_ALL
  0
POLYLINE
  5
780
  8
LE_ALL
 66
     1
 10
0.0
 20
0.0
 30
0.0
  0
VERTEX
  5
781
  8
LE_ALL
 10
5.12224607
 20
69.7467979
 30
0.0
  0
VERTEX
  5
782
  8
LE_ALL
 10
-49.30043388
 20
81.03476323
 30
0.0
  0
SEQEND
  5
783
  8
LE_ALL
  0
POLYLINE
  5
784
  8
LE_ALL
 66
     1
 10
0.0
 20
0.0
 30
0.0
  0
VERTEX
  5
C92
  8
LE_ALL
 10
-52.37298171692802
 20
87.82071626148617
 30
0.0
  0
VERTEX
  5
C93
  8
LE_ALL
 10
-52.27765231423135
 20
86.07439077552455
 30
0.0
  0
VERTEX
  5
C94
  8
LE_ALL
 10
-51.99522548820429
 20
84.50559325368131
 30
0.0
  0
VERTEX
  5
C95
  8
LE_ALL
 10
-51.53625236490387
 20
83.17293208186562
 30
0.0
  0
VERTEX
  5
C96
  8
LE_ALL
 10
-50.91787962741553
 20
82.12619387635931
 30
0.0
  0
VERTEX
  5
C97
  8
LE_ALL
 10
-50.16320893642514
 20
81.40448351579711
 30
0.0
  0
VERTEX
  5
C98
  8
LE_ALL
 10
-49.30043388
 20
81.03476323
 30
0.0
  0
SEQEND
  5
D19
  8
LE_ALL
  0
POLYLINE
  5
785
  8
LE_ALL
 66
     1
 10
0.0
 20
0.0
 30
0.0
  0
VERTEX
  5
C99
  8
LE_ALL
 10
8.226809672352914
 20
77.2836226909467
 30
0.0
  0
VERTEX
  5
C9A
  8
LE_ALL
 10
8.274474373310724
 20
76.4104599448715
 30
0.0
  0
VERTEX
  5
C9B
  8
LE_ALL
 10
8.41568778655748
 20
75.62606118139325
 30
0.0
  0
VERTEX
  5
C9C
  8
LE_ALL
 10
8.64517434903043
 20
74.95973059370387
 30
0.0
  0
VERTEX
  5
C9D
  8
LE_ALL
 10
8.954360719114595
 20
74.43636149013135
 30
0.0
  0
VERTEX
  5
C9E
  8
LE_ALL
 10
9.331696066361067
 20
74.07550631011833
 30
0.0
  0
VERTEX
  5
C9F
  8
LE_ALL
 10
9.763083596602518
 20
73.89064616863055
 30
0.0
  0
SEQEND
  5
D1A
  8
LE_ALL
  0
ENDBLK
  8
0
  0
BLOCK
  8
0
  2
SHEET_FLANGE_00112
 70
     0
 10
0.0
 20
0.0
 30
0.0
  0
INSERT
  5
788
  8
0
  2
SHEET_FLANGE_00113
 10
-52.37298176
 20
87.82071624
 30
0.0
  0
ENDBLK
  8
0
  0
BLOCK
  8
0
  2
SHEET_FLANGE_00113
 70
     0
 10
-52.37298176
 20
87.82071624
 30
0.0
  0
LINE
  5
78B
  8
LE_ALL
 10
-52.37298176
 20
87.82071624
 30
0.0
 11
-49.8212558
 21
89.32353969
 31
0.0
  0
LINE
  5
78C
  8
LE_ALL
 10
8.22680965
 20
77.28362269
 30
0.0
 11
-49.8212558
 21
89.32353969
 31
0.0
  0
LINE
  5
78D
  8
LE_ALL
 10
5.6750837
 20
75.78079924
 30
0.0
 11
8.22680965
 21
77.28362269
 31
0.0
  0
LINE
  5
78E
  8
LE_ALL
 10
-52.37298176
 20
87.82071624
 30
0.0
 11
5.6750837
 21
75.78079924
 31
0.0
  0
ENDBLK
  8
0
  0
BLOCK
  8
0
  2
BEND_ZONE_00114
 70
     0
 10
0.0
 20
0.0
 30
0.0
  0
INSERT
  5
791
  8
0
  2
BEND_ZONE_00115
 10
-20.73157995
 20
106.45572697
 30
0.0
  0
ENDBLK
  8
0
  0
BLOCK
  8
0
  2
BEND_ZONE_00115
 70
     0
 10
-20.73157995
 20
106.45572697
 30
0.0
  0
LINE
  5
794
  8
LE_ALL
 10
-20.73157995
 20
106.45572697
 30
0.0
 11
37.31648551
 21
94.41580997
 31
0.0
  0
LINE
  5
795
  8
LE_ALL
 10
34.76475956
 20
92.91298652
 30
0.0
 11
37.31648551
 21
94.41580997
 31
0.0
  0
LINE
  5
796
  8
LE_ALL
 10
-23.2833059
 20
104.95290353
 30
0.0
 11
34.76475956
 21
92.91298652
 31
0.0
  0
POLYLINE
  5
797
  8
LE_ALL
 66
     1
 10
0.0
 20
0.0
 30
0.0
  0
VERTEX
  5
798
  8
LE_ALL
 10
-20.73157995
 20
106.45572697
 30
0.0
  0
VERTEX
  5
799
  8
LE_ALL
 10
-23.2833059
 20
104.95290353
 30
0.0
  0
SEQEND
  5
79A
  8
LE_ALL
  0
POLYLINE
  5
79B
  8
LE_ALL
 66
     1
 10
0.0
 20
0.0
 30
0.0
  0
VERTEX
  5
CA0
  8
LE_ALL
 10
-25.83503186513479
 20
98.76540974693383
 30
0.0
  0
VERTEX
  5
CA1
  8
LE_ALL
 10
-25.33721482896883
 20
99.14861068375355
 30
0.0
  0
VERTEX
  5
CA2
  8
LE_ALL
 10
-24.85852862181991
 20
99.6971146778516
 30
0.0
  0
VERTEX
  5
CA3
  8
LE_ALL
 10
-24.41736888625329
 20
100.3898430282537
 30
0.0
  0
VERTEX
  5
CA4
  8
LE_ALL
 10
-24.03068914357051
 20
101.200174572832
 30
0.0
  0
VERTEX
  5
CA5
  8
LE_ALL
 10
-23.71334927949082
 20
102.0969687246409
 30
0.0
  0
VERTEX
  5
CA6
  8
LE_ALL
 10
-23.47754448707418
 20
103.0457621872143
 30
0.0
  0
VERTEX
  5
CA7
  8
LE_ALL
 10
-23.33233661228915
 20
104.0100933597265
 30
0.0
  0
VERTEX
  5
CA8
  8
LE_ALL
 10
-23.28330591235292
 20
104.9529035358703
 30
0.0
  0
SEQEND
  5
D1B
  8
LE_ALL
  0
POLYLINE
  5
79C
  8
LE_ALL
 66
     1
 10
0.0
 20
0.0
 30
0.0
  0
VERTEX
  5
79D
  8
LE_ALL
 10
-25.83503185
 20
98.76540976
 30
0.0
  0
VERTEX
  5
79E
  8
LE_ALL
 10
32.21303361
 20
86.72549275
 30
0.0
  0
SEQEND
  5
79F
  8
LE_ALL
  0
POLYLINE
  5
7A0
  8
LE_ALL
 66
     1
 10
0.0
 20
0.0
 30
0.0
  0
VERTEX
  5
CA9
  8
LE_ALL
 10
32.2130335948652
 20
86.72549274693382
 30
0.0
  0
VERTEX
  5
CAA
  8
LE_ALL
 10
32.71085063103116
 20
87.10869368375354
 30
0.0
  0
VERTEX
  5
CAB
  8
LE_ALL
 10
33.18953683818008
 20
87.6571976778516
 30
0.0
  0
VERTEX
  5
CAC
  8
LE_ALL
 10
33.63069657374671
 20
88.34992602825365
 30
0.0
  0
VERTEX
  5
CAD
  8
LE_ALL
 10
34.01737631642949
 20
89.16025757283197
 30
0.0
  0
VERTEX
  5
CAE
  8
LE_ALL
 10
34.33471618050918
 20
90.05705172464091
 30
0.0
  0
VERTEX
  5
CAF
  8
LE_ALL
 10
34.57052097292583
 20
91.00584518721426
 30
0.0
  0
VERTEX
  5
CB0
  8
LE_ALL
 10
34.71572884771085
 20
91.97017635972647
 30
0.0
  0
VERTEX
  5
CB1
  8
LE_ALL
 10
34.76475954764708
 20
92.9129865358703
 30
0.0
  0
SEQEND
  5
D1C
  8
LE_ALL
  0
ENDBLK
  8
0
  0
BLOCK
  8
0
  2
SHEET_FLANGE_00116
 70
     0
 10
0.0
 20
0.0
 30
0.0
  0
INSERT
  5
7A3
  8
0
  2
SHEET_FLANGE_00117
 10
-20.73157995
 20
106.45572697
 30
0.0
  0
ENDBLK
  8
0
  0
BLOCK
  8
0
  2
SHEET_FLANGE_00117
 70
     0
 10
-20.73157995
 20
106.45572697
 30
0.0
  0
POLYLINE
  5
7A6
  8
LE_ALL
 66
     1
 10
0.0
 20
0.0
 30
0.0
 70
     1
  0
VERTEX
  5
7A7
  8
LE_ALL
 10
-20.73157995
 20
106.45572697
 30
0.0
  0
VERTEX
  5
7A8
  8
LE_ALL
 10
-23.2833059
 20
104.95290353
 30
0.0
  0
VERTEX
  5
7A9
  8
LE_ALL
 10
34.76475956
 20
92.91298652
 30
0.0
  0
VERTEX
  5
7AA
  8
LE_ALL
 10
37.31648551
 20
94.41580997
 30
0.0
  0
SEQEND
  5
7AB
  8
LE_ALL
  0
ENDBLK
  8
0
  0
BLOCK
  8
0
  2
BEND_ZONE_00118
 70
     0
 10
0.0
 20
0.0
 30
0.0
  0
INSERT
  5
7AE
  8
0
  2
BEND_ZONE_00119
 10
-52.37298176
 20
127.03809024
 30
0.0
  0
ENDBLK
  8
0
  0
BLOCK
  8
0
  2
BEND_ZONE_00119
 70
     0
 10
-52.37298176
 20
127.03809024
 30
0.0
  0
LINE
  5
7B1
  8
LE_ALL
 10
-52.37298176
 20
127.03809024
 30
0.0
 11
-49.8212558
 21
128.54091369
 31
0.0
  0
LINE
  5
7B2
  8
LE_ALL
 10
-57.26952985
 20
90.82636314
 30
0.0
 11
-57.26952985
 21
128.05383128
 31
0.0
  0
POLYLINE
  5
7B3
  8
LE_ALL
 66
     1
 10
0.0
 20
0.0
 30
0.0
  0
VERTEX
  5
CB2
  8
LE_ALL
 10
-57.26952985
 20
90.82636315254655
 30
0.0
  0
VERTEX
  5
CB3
  8
LE_ALL
 10
-57.05596237368381
 20
90.10789727110824
 30
0.0
  0
VERTEX
  5
CB4
  8
LE_ALL
 10
-56.42438214367967
 20
89.42011957921802
 30
0.0
  0
VERTEX
  5
CB5
  8
LE_ALL
 10
-55.40176616008233
 20
88.79240746707568
 30
0.0
  0
VERTEX
  5
CB6
  8
LE_ALL
 10
-54.03179392737257
 20
88.25157271393627
 30
0.0
  0
VERTEX
  5
CB7
  8
LE_ALL
 10
-52.37298175004491
 20
87.82071626326446
 30
0.0
  0
SEQEND
  5
D1D
  8
LE_ALL
  0
LINE
  5
7B4
  8
LE_ALL
 10
-52.37298176
 20
87.82071624
 30
0.0
 11
-52.37298176
 21
127.03809024
 31
0.0
  0
POLYLINE
  5
7B5
  8
LE_ALL
 66
     1
 10
0.0
 20
0.0
 30
0.0
  0
VERTEX
  5
7B6
  8
LE_ALL
 10
-52.37298176
 20
87.82071624
 30
0.0
  0
VERTEX
  5
7B7
  8
LE_ALL
 10
-49.8212558
 20
89.32353969
 30
0.0
  0
VERTEX
  5
7B8
  8
LE_ALL
 10
-49.8212558
 20
128.54091369
 30
0.0
  0
SEQEND
  5
7B9
  8
LE_ALL
  0
ENDBLK
  8
0
  0
BLOCK
  8
0
  2
SHEET_FLANGE_00120
 70
     0
 10
0.0
 20
0.0
 30
0.0
  0
INSERT
  5
7BC
  8
0
  2
SHEET_FLANGE_00121
 10
-52.37298176
 20
87.82071624
 30
0.0
  0
ENDBLK
  8
0
  0
BLOCK
  8
0
  2
SHEET_FLANGE_00121
 70
     0
 10
-52.37298176
 20
87.82071624
 30
0.0
  0
POLYLINE
  5
7BF
  8
LE_ALL
 66
     1
 10
0.0
 20
0.0
 30
0.0
 70
     1
  0
VERTEX
  5
7C0
  8
LE_ALL
 10
-52.37298176
 20
87.82071624
 30
0.0
  0
VERTEX
  5
7C1
  8
LE_ALL
 10
-49.8212558
 20
89.32353969
 30
0.0
  0
VERTEX
  5
7C2
  8
LE_ALL
 10
-49.8212558
 20
129.14336229
 30
0.0
  0
VERTEX
  5
7C3
  8
LE_ALL
 10
-52.37298176
 20
127.64053884
 30
0.0
  0
SEQEND
  5
7C4
  8
LE_ALL
  0
ENDBLK
  8
0
  0
BLOCK
  8
0
  2
BEND_ZONE_00122
 70
     0
 10
0.0
 20
0.0
 30
0.0
  0
INSERT
  5
7C7
  8
0
  2
BEND_ZONE_00123
 10
-23.2833059
 20
144.17027752
 30
0.0
  0
ENDBLK
  8
0
  0
BLOCK
  8
0
  2
BEND_ZONE_00123
 70
     0
 10
-23.2833059
 20
144.17027752
 30
0.0
  0
LINE
  5
7CA
  8
LE_ALL
 10
-23.2833059
 20
144.17027752
 30
0.0
 11
-23.2833059
 21
104.95290353
 31
0.0
  0
POLYLINE
  5
7CB
  8
LE_ALL
 66
     1
 10
0.0
 20
0.0
 30
0.0
  0
VERTEX
  5
CB8
  8
LE_ALL
 10
-23.28330591541311
 20
104.9529035215693
 30
0.0
  0
VERTEX
  5
CB9
  8
LE_ALL
 10
-24.17119538449056
 20
105.0980173100744
 30
0.0
  0
VERTEX
  5
CBA
  8
LE_ALL
 10
-25.1230251552959
 20
105.1798017955477
 30
0.0
  0
VERTEX
  5
CBB
  8
LE_ALL
 10
-26.1022169438448
 20
105.1951140461048
 30
0.0
  0
VERTEX
  5
CBC
  8
LE_ALL
 10
-27.07114095916491
 20
105.1433656205492
 30
0.0
  0
VERTEX
  5
CBD
  8
LE_ALL
 10
-27.99256199504745
 20
105.0265451818369
 30
0.0
  0
VERTEX
  5
CBE
  8
LE_ALL
 10
-28.83107035812768
 20
104.8491420738753
 30
0.0
  0
VERTEX
  5
CBF
  8
LE_ALL
 10
-29.5544426425312
 20
104.6179737985557
 30
0.0
  0
VERTEX
  5
CC0
  8
LE_ALL
 10
-30.13488005727999
 20
104.3419240229814
 30
0.0
  0
SEQEND
  5
D1E
  8
LE_ALL
  0
LINE
  5
7CC
  8
LE_ALL
 10
-30.13488006
 20
143.55929802
 30
0.0
 11
-30.13488006
 21
104.34192403
 31
0.0
  0
LINE
  5
7CD
  8
LE_ALL
 10
-29.86734809006237
 20
143.7007414671628
 30
0.0
 11
-29.87285984217991
 21
143.6981088778396
 31
0.0
  0
LINE
  5
7CE
  8
LE_ALL
 10
-29.55339548427247
 20
143.8357550437454
 30
0.0
 11
-29.56021912950387
 21
143.8330966707103
 31
0.0
  0
LINE
  5
7CF
  8
LE_ALL
 10
-29.19114793288592
 20
143.9628205164703
 30
0.0
 11
-29.19930870403478
 21
143.9602320232302
 31
0.0
  0
LINE
  5
7D0
  8
LE_ALL
 10
-28.78274934406848
 20
144.0789987187402
 30
0.0
 11
-28.79222379595033
 21
144.0765758757308
 31
0.0
  0
LINE
  5
7D1
  8
LE_ALL
 10
-28.2766289164116
 20
144.1924629939035
 30
0.0
 11
-28.34294542299254
 21
144.1792599133844
 31
0.0
  0
LINE
  5
7D2
  8
LE_ALL
 10
-27.84549559458697
 20
144.2674914303294
 30
0.0
 11
-27.85812753029149
 21
144.2655452991254
 31
0.0
  0
LINE
  5
7D3
  8
LE_ALL
 10
-27.33012895201077
 20
144.3350301483703
 30
0.0
 11
-27.34291138343012
 21
144.3336236389848
 31
0.0
  0
LINE
  5
7D4
  8
LE_ALL
 10
-26.79503997490841
 20
144.3824713838934
 30
0.0
 11
-26.80856895352293
 21
144.3815395285158
 31
0.0
  0
LINE
  5
7D5
  8
LE_ALL
 10
-26.24900783041114
 20
144.4089848790545
 30
0.0
 11
-26.26400555472251
 21
144.4085414431778
 31
0.0
  0
LINE
  5
7D6
  8
LE_ALL
 10
-25.70486547348536
 20
144.4143926013636
 30
0.0
 11
-25.78313184805987
 21
144.4148907341282
 31
0.0
  0
LINE
  5
7D7
  8
LE_ALL
 10
-25.16937372419582
 20
144.3994289997924
 30
0.0
 11
-25.18370529155654
 21
144.4000944706821
 31
0.0
  0
LINE
  5
7D8
  8
LE_ALL
 10
-24.65222125650625
 20
144.3653836065541
 30
0.0
 11
-24.66632874612127
 21
144.3665765084588
 31
0.0
  0
LINE
  5
7D9
  8
LE_ALL
 10
-24.16084450651821
 20
144.3141102353412
 30
0.0
 11
-24.17450353907742
 21
144.3157988590225
 31
0.0
  0
LINE
  5
7DA
  8
LE_ALL
 10
-23.70111950284641
 20
144.2478410964136
 30
0.0
 11
-23.71413197427518
 21
144.2499793672148
 31
0.0
  0
POLYLINE
  5
7DB
  8
LE_ALL
 66
     1
 10
0.0
 20
0.0
 30
0.0
  0
VERTEX
  5
7DC
  8
LE_ALL
 10
-23.2833059
 20
144.17027752
 30
0.0
  0
VERTEX
  5
7DD
  8
LE_ALL
 10
-20.73157995
 20
145.67310097
 30
0.0
  0
VERTEX
  5
7DE
  8
LE_ALL
 10
-20.73157995
 20
106.45572697
 30
0.0
  0
SEQEND
  5
7DF
  8
LE_ALL
  0
LINE
  5
7E0
  8
LE_ALL
 10
-23.2833059
 20
104.95290353
 30
0.0
 11
-20.73157995
 21
106.45572697
 31
0.0
  0
ENDBLK
  8
0
  0
BLOCK
  8
0
  2
SHEET_FLANGE_00124
 70
     0
 10
0.0
 20
0.0
 30
0.0
  0
INSERT
  5
7E3
  8
0
  2
SHEET_FLANGE_00125
 10
-20.73157995
 20
106.45572697
 30
0.0
  0
ENDBLK
  8
0
  0
BLOCK
  8
0
  2
SHEET_FLANGE_00125
 70
     0
 10
-20.73157995
 20
106.45572697
 30
0.0
  0
LINE
  5
7E6
  8
LE_ALL
 10
-20.73157995
 20
106.45572697
 30
0.0
 11
-23.2833059
 21
104.95290353
 31
0.0
  0
LINE
  5
7E7
  8
LE_ALL
 10
-23.2833059
 20
144.77272613
 30
0.0
 11
-23.2833059
 21
104.95290353
 31
0.0
  0
LINE
  5
7E8
  8
LE_ALL
 10
-20.73157995
 20
146.27554957
 30
0.0
 11
-23.2833059
 21
144.77272613
 31
0.0
  0
LINE
  5
7E9
  8
LE_ALL
 10
-20.73157995
 20
106.45572697
 30
0.0
 11
-20.73157995
 21
146.27554957
 31
0.0
  0
ENDBLK
  8
0
  0
BLOCK
  8
0
  2
SPHERE_2_00126
 70
     0
 10
0.0
 20
0.0
 30
0.0
  0
INSERT
  5
7EC
  8
0
  2
SPHERE_2_00127
 10
-49.8212558
 20
89.32353969
 30
0.0
  0
ENDBLK
  8
0
  0
BLOCK
  8
0
  2
SPHERE_2_00127
 70
     0
 10
-49.8212558
 20
89.32353969
 30
0.0
  0
POLYLINE
  5
7EF
  8
0
 66
     1
 10
0.0
 20
0.0
 30
0.0
  0
VERTEX
  5
7F0
  8
0
 10
-49.8212558
 20
89.32353969
 30
0.0
  0
VERTEX
  5
7F1
  8
0
 10
-52.37298176
 20
87.82071624
 30
0.0
  0
SEQEND
  5
7F2
  8
0
  0
POLYLINE
  5
7F3
  8
0
 66
     1
 10
0.0
 20
0.0
 30
0.0
  0
VERTEX
  5
CC1
  8
0
 10
-52.37298171692802
 20
87.82071626148617
 30
0.0
  0
VERTEX
  5
CC2
  8
0
 10
-52.27765231423135
 20
86.07439077552455
 30
0.0
  0
VERTEX
  5
CC3
  8
0
 10
-51.99522548820429
 20
84.50559325368131
 30
0.0
  0
VERTEX
  5
CC4
  8
0
 10
-51.53625236490387
 20
83.17293208186562
 30
0.0
  0
VERTEX
  5
CC5
  8
0
 10
-50.91787962741553
 20
82.12619387635931
 30
0.0
  0
VERTEX
  5
CC6
  8
0
 10
-50.16320893642514
 20
81.40448351579711
 30
0.0
  0
VERTEX
  5
CC7
  8
0
 10
-49.30043388
 20
81.03476323
 30
0.0
  0
SEQEND
  5
D1F
  8
0
  0
POLYLINE
  5
7F4
  8
0
 66
     1
 10
0.0
 20
0.0
 30
0.0
  0
VERTEX
  5
CC8
  8
0
 10
-57.26952985
 20
90.82636315254655
 30
0.0
  0
VERTEX
  5
CC9
  8
0
 10
-57.05596237368381
 20
90.10789727110824
 30
0.0
  0
VERTEX
  5
CCA
  8
0
 10
-56.42438214367967
 20
89.42011957921802
 30
0.0
  0
VERTEX
  5
CCB
  8
0
 10
-55.40176616008233
 20
88.79240746707568
 30
0.0
  0
VERTEX
  5
CCC
  8
0
 10
-54.03179392737257
 20
88.25157271393627
 30
0.0
  0
VERTEX
  5
CCD
  8
0
 10
-52.37298175004491
 20
87.82071626326446
 30
0.0
  0
SEQEND
  5
D20
  8
0
  0
ARC
  5
7F5
  8
0
 10
-47.26952985
 20
90.82636314
 30
0.0
 40
10.0
 50
-179.845019295
 51
-101.952904953
  0
ENDBLK
  8
0
  0
BLOCK
  8
0
  2
SPHERE_2_00128
 70
     0
 10
0.0
 20
0.0
 30
0.0
  0
INSERT
  5
7F8
  8
0
  2
SPHERE_2_00129
 10
-30.13488006
 20
104.34192403
 30
0.0
  0
ENDBLK
  8
0
  0
BLOCK
  8
0
  2
SPHERE_2_00129
 70
     0
 10
-30.13488006
 20
104.34192403
 30
0.0
  0
POLYLINE
  5
7FB
  8
0
 66
     1
 10
0.0
 20
0.0
 30
0.0
  0
VERTEX
  5
CCE
  8
0
 10
-30.13488005098949
 20
104.3419240453185
 30
0.0
  0
VERTEX
  5
CCF
  8
0
 10
-30.05225967396233
 20
103.4108536710293
 30
0.0
  0
VERTEX
  5
CD0
  8
0
 10
-29.80757359604965
 20
102.4812907456446
 30
0.0
  0
VERTEX
  5
CD1
  8
0
 10
-29.41022496604238
 20
101.5889578512273
 30
0.0
  0
VERTEX
  5
CD2
  8
0
 10
-28.87548366901811
 20
100.7681468406232
 30
0.0
  0
VERTEX
  5
CD3
  8
0
 10
-28.22389951321872
 20
100.0504010207822
 30
0.0
  0
VERTEX
  5
CD4
  8
0
 10
-27.48051251244082
 20
99.46330296115634
 30
0.0
  0
VERTEX
  5
CD5
  8
0
 10
-26.67389061234429
 20
99.02941451102053
 30
0.0
  0
VERTEX
  5
CD6
  8
0
 10
-25.83503184031714
 20
98.76540976025382
 30
0.0
  0
SEQEND
  5
D21
  8
0
  0
POLYLINE
  5
7FC
  8
0
 66
     1
 10
0.0
 20
0.0
 30
0.0
  0
VERTEX
  5
CD7
  8
0
 10
-23.28330591541311
 20
104.9529035215693
 30
0.0
  0
VERTEX
  5
CD8
  8
0
 10
-24.17119538449056
 20
105.0980173100744
 30
0.0
  0
VERTEX
  5
CD9
  8
0
 10
-25.1230251552959
 20
105.1798017955477
 30
0.0
  0
VERTEX
  5
CDA
  8
0
 10
-26.1022169438448
 20
105.1951140461048
 30
0.0
  0
VERTEX
  5
CDB
  8
0
 10
-27.07114095916491
 20
105.1433656205492
 30
0.0
  0
VERTEX
  5
CDC
  8
0
 10
-27.99256199504745
 20
105.0265451818369
 30
0.0
  0
VERTEX
  5
CDD
  8
0
 10
-28.83107035812768
 20
104.8491420738753
 30
0.0
  0
VERTEX
  5
CDE
  8
0
 10
-29.5544426425312
 20
104.6179737985557
 30
0.0
  0
VERTEX
  5
CDF
  8
0
 10
-30.13488005727999
 20
104.3419240229814
 30
0.0
  0
SEQEND
  5
D22
  8
0
  0
LINE
  5
7FD
  8
0
 10
-20.73157995
 20
106.45572697
 30
0.0
 11
-23.2833059
 21
104.95290353
 31
0.0
  0
POLYLINE
  5
7FE
  8
0
 66
     1
 10
0.0
 20
0.0
 30
0.0
  0
VERTEX
  5
CE0
  8
0
 10
-25.83503186513479
 20
98.76540974693383
 30
0.0
  0
VERTEX
  5
CE1
  8
0
 10
-25.33721482896883
 20
99.14861068375355
 30
0.0
  0
VERTEX
  5
CE2
  8
0
 10
-24.85852862181991
 20
99.6971146778516
 30
0.0
  0
VERTEX
  5
CE3
  8
0
 10
-24.41736888625329
 20
100.3898430282537
 30
0.0
  0
VERTEX
  5
CE4
  8
0
 10
-24.03068914357051
 20
101.200174572832
 30
0.0
  0
VERTEX
  5
CE5
  8
0
 10
-23.71334927949082
 20
102.0969687246409
 30
0.0
  0
VERTEX
  5
CE6
  8
0
 10
-23.47754448707418
 20
103.0457621872143
 30
0.0
  0
VERTEX
  5
CE7
  8
0
 10
-23.33233661228915
 20
104.0100933597265
 30
0.0
  0
VERTEX
  5
CE8
  8
0
 10
-23.28330591235292
 20
104.9529035358703
 30
0.0
  0
SEQEND
  5
D23
  8
0
  0
ENDBLK
  8
0
  0
BLOCK
  8
0
  2
DVI_FIGURE_00130
 70
     0
 10
0.0
 20
0.0
 30
0.0
  0
INSERT
  5
801
  8
0
  2
VIEW_2_00131
 10
0.0
 20
0.0
 30
0.0
  0
INSERT
  5
802
  8
0
  2
VIEW_3_00136
 10
0.0
 20
0.0
 30
0.0
  0
INSERT
  5
803
  8
0
  2
VIEW_4_00161
 10
0.0
 20
0.0
 30
0.0
  0
ENDBLK
  8
0
  0
BLOCK
  8
0
  2
VIEW_2_00131
 70
     0
 10
0.0
 20
0.0
 30
0.0
  0
INSERT
  5
806
  8
0
  2
PART_0_00132
 10
0.0
 20
0.0
 30
0.0
  0
ENDBLK
  8
0
  0
BLOCK
  8
0
  2
PART_0_00132
 70
     0
 10
0.0
 20
0.0
 30
0.0
  0
INSERT
  5
809
  8
0
  2
_D1
 10
222.83096963
 20
197.62835984
 30
0.0
  0
INSERT
  5
80A
  8
0
  2
_D2
 10
117.19354366
 20
240.61680362
 30
0.0
  0
INSERT
  5
80B
  8
0
  2
_D3
 10
127.25087163
 20
285.75489839
 30
0.0
  0
ENDBLK
  8
0
  0
BLOCK
  8
0
  2
VIEW_3_00136
 70
     0
 10
0.0
 20
0.0
 30
0.0
  0
INSERT
  5
826
  8
0
  2
PART_0_00137
 10
0.0
 20
0.0
 30
0.0
  0
INSERT
  5
827
  8
0
  2
PART_0_00139
 10
0.0
 20
0.0
 30
0.0
  0
INSERT
  5
828
  8
0
  2
PART_0_00156
 10
0.0
 20
0.0
 30
0.0
  0
ENDBLK
  8
0
  0
BLOCK
  8
0
  2
PART_0_00137
 70
     0
 10
0.0
 20
0.0
 30
0.0
  0
INSERT
  5
82B
  8
0
  2
_D4
 10
147.45975215
 20
129.13214198
 30
0.0
  0
ENDBLK
  8
0
  0
BLOCK
  8
0
  2
PART_0_00139
 70
     0
 10
0.0
 20
0.0
 30
0.0
  0
INSERT
  5
834
  8
0
  2
_D5
 10
301.96104605
 20
173.54303142
 30
0.0
  0
INSERT
  5
835
  8
0
  2
_D6
 10
281.14041276
 20
173.54303142
 30
0.0
  0
INSERT
  5
836
  8
0
  2
_D7
 10
261.96104605
 20
173.54303142
 30
0.0
  0
INSERT
  5
837
  8
0
  2
_D8
 10
231.96104605
 20
173.54303142
 30
0.0
  0
INSERT
  5
838
  8
0
  2
_D9
 10
211.96104605
 20
173.54303142
 30
0.0
  0
INSERT
  5
839
  8
0
  2
_D10
 10
326.96104605
 20
173.54303142
 30
0.0
  0
INSERT
  5
83A
  8
0
  2
_D11
 10
311.2912106
 20
173.54303142
 30
0.0
  0
INSERT
  5
83B
  8
0
  2
_D12
 10
288.7912106
 20
173.54303142
 30
0.0
  0
INSERT
  5
83C
  8
0
  2
_D13
 10
268.7912106
 20
173.54303142
 30
0.0
  0
INSERT
  5
83D
  8
0
  2
_D14
 10
243.7912106
 20
173.54303142
 30
0.0
  0
INSERT
  5
83E
  8
0
  2
_D15
 10
218.7912106
 20
173.54303142
 30
0.0
  0
INSERT
  5
83F
  8
0
  2
_D16
 10
298.7912106
 20
141.76705703
 30
0.0
  0
INSERT
  5
840
  8
0
  2
_D17
 10
233.7912106
 20
141.76705703
 30
0.0
  0
INSERT
  5
841
  8
0
  2
_D18
 10
176.2912106
 20
141.76705703
 30
0.0
  0
INSERT
  5
842
  8
0
  2
_D19
 10
331.463759
 20
129.13214198
 30
0.0
  0
INSERT
  5
843
  8
0
  2
_D20
 10
249.6812568
 20
129.13214198
 30
0.0
  0
ENDBLK
  8
0
  0
BLOCK
  8
0
  2
PART_0_00156
 70
     0
 10
0.0
 20
0.0
 30
0.0
  0
INSERT
  5
8D6
  8
0
  2
SHAPE_00157
 10
210.71104605
 20
115.55197743
 30
0.0
  0
INSERT
  5
8D7
  8
0
  2
SHAPE_00158
 10
160.71104605
 20
124.55197743
 30
0.0
  0
INSERT
  5
8D8
  8
0
  2
SHAPE_00159
 10
260.71104605
 20
112.05197743
 30
0.0
  0
INSERT
  5
8D9
  8
0
  2
SHAPE_00160
 10
290.71104605
 20
131.05197743
 30
0.0
  0
ENDBLK
  8
0
  0
BLOCK
  8
0
  2
SHAPE_00157
 70
     0
 10
210.71104605
 20
115.55197743
 30
0.0
  0
LINE
  5
8DC
  8
DIM49
 62
     5
 10
210.71104605
 20
115.55197743
 30
0.0
 11
215.9437048
 21
124.91201254
 31
0.0
  0
TEXT
  5
8DD
  8
TXT_DIM49
 10
215.9437048
 20
123.66201254
 30
0.0
 40
2.5
  1
Ø9
  7
ARIAL
  0
ENDBLK
  8
0
  0
BLOCK
  8
0
  2
SHAPE_00158
 70
     0
 10
160.71104605
 20
124.55197743
 30
0.0
  0
LINE
  5
8E0
  8
DIM49
 62
     5
 10
160.71104605
 20
124.55197743
 30
0.0
 11
162.5405635
 21
119.72068453
 31
0.0
  0
TEXT
  5
8E1
  8
TXT_DIM49
 10
162.5405635
 20
118.47068453
 30
0.0
 40
2.5
  1
Ø13
  7
ARIAL
  0
ENDBLK
  8
0
  0
BLOCK
  8
0
  2
SHAPE_00159
 70
     0
 10
260.71104605
 20
112.05197743
 30
0.0
  0
LINE
  5
8E4
  8
DIM49
 62
     5
 10
260.71104605
 20
112.05197743
 30
0.0
 11
263.1989844
 21
106.80878802
 31
0.0
  0
TEXT
  5
8E5
  8
TXT_DIM49
 10
263.1989844
 20
105.55878802
 30
0.0
 40
2.5
  1
Ø7
  7
ARIAL
  0
ENDBLK
  8
0
  0
BLOCK
  8
0
  2
SHAPE_00160
 70
     0
 10
290.71104605
 20
131.05197743
 30
0.0
  0
LINE
  5
8E8
  8
DIM49
 62
     5
 10
290.71104605
 20
131.05197743
 30
0.0
 11
294.6128138
 21
134.38749603
 31
0.0
  0
TEXT
  5
8E9
  8
TXT_DIM49
 10
294.6128138
 20
133.13749603
 30
0.0
 40
2.5
  1
Slobgat 13x30
  7
ARIAL
  0
ENDBLK
  8
0
  0
BLOCK
  8
0
  2
VIEW_4_00161
 70
     0
 10
0.0
 20
0.0
 30
0.0
  0
INSERT
  5
8EC
  8
0
  2
PART_0_00162
 10
0.0
 20
0.0
 30
0.0
  0
INSERT
  5
8ED
  8
0
  2
PART_0_00170
 10
0.0
 20
0.0
 30
0.0
  0
ENDBLK
  8
0
  0
BLOCK
  8
0
  2
PART_0_00162
 70
     0
 10
0.0
 20
0.0
 30
0.0
  0
INSERT
  5
8F0
  8
0
  2
_D21
 10
-17.87793067
 20
261.11708673
 30
0.0
  0
INSERT
  5
8F1
  8
0
  2
_D22
 10
-17.87793067
 20
223.61706453
 30
0.0
  0
INSERT
  5
8F2
  8
0
  2
_D23
 10
36.47876041
 20
288.53696659
 30
0.0
  0
INSERT
  5
8F3
  8
0
  2
_D24
 10
36.47876041
 20
210.8057777
 30
0.0
  0
INSERT
  5
8F4
  8
0
  2
_D25
 10
79.12196942
 20
211.11706453
 30
0.0
  0
INSERT
  5
8F5
  8
0
  2
_D26
 10
79.12196942
 20
228.11713114
 30
0.0
  0
INSERT
  5
8F6
  8
0
  2
_D27
 10
79.12196942
 20
257.61708673
 30
0.0
  0
ENDBLK
  8
0
  0
BLOCK
  8
0
  2
PART_0_00170
 70
     0
 10
0.0
 20
0.0
 30
0.0
  0
INSERT
  5
931
  8
0
  2
SHAPE_00171
 10
38.34548628
 20
260.78607007
 30
0.0
  0
INSERT
  5
932
  8
0
  2
SHAPE_00172
 10
22.89859586
 20
235.53696659
 30
0.0
  0
INSERT
  5
933
  8
0
  2
SHAPE_00173
 10
53.89859586
 20
243.53696659
 30
0.0
  0
ENDBLK
  8
0
  0
BLOCK
  8
0
  2
SHAPE_00171
 70
     0
 10
38.34548628
 20
260.78607007
 30
0.0
  0
LINE
  5
936
  8
DIM49
 62
     5
 10
38.34548628
 20
260.78607007
 30
0.0
 11
34.631594
 21
269.60804617
 31
0.0
  0
TEXT
  5
937
  8
TXT_DIM49
 10
12.55938526
 20
268.35804617
 30
0.0
 40
2.5
  1
Slobgat 13x30
  7
ARIAL
  0
ENDBLK
  8
0
  0
BLOCK
  8
0
  2
SHAPE_00172
 70
     0
 10
22.89859586
 20
235.53696659
 30
0.0
  0
LINE
  5
93A
  8
DIM49
 62
     5
 10
22.89859586
 20
235.53696659
 30
0.0
 11
25.79730808
 21
230.8017197
 31
0.0
  0
TEXT
  5
93B
  8
TXT_DIM49
 10
25.79730808
 20
229.5517197
 30
0.0
 40
2.5
  1
Ø7
  7
ARIAL
  0
ENDBLK
  8
0
  0
BLOCK
  8
0
  2
SHAPE_00173
 70
     0
 10
53.89859586
 20
243.53696659
 30
0.0
  0
LINE
  5
93E
  8
DIM49
 62
     5
 10
53.89859586
 20
243.53696659
 30
0.0
 11
52.02567316
 21
249.05331485
 31
0.0
  0
TEXT
  5
93F
  8
TXT_DIM49
 10
47.42076485
 20
247.80331485
 30
0.0
 40
2.5
  1
Ø9
  7
ARIAL
  0
ENDBLK
  8
0
  0
ENDSEC
  0
SECTION
  2
ENTITIES
  0
INSERT
  5
941
  8
0
  2
_ZBL0001_00001
 10
0.0
 20
0.0
 30
0.0
  0
INSERT
  5
942
  8
0
  2
_ANS0002_00016
 10
0.0
 20
0.0
 30
0.0
  0
INSERT
  5
943
  8
0
  2
_ANS0003_00036
 10
0.0
 20
0.0
 30
0.0
  0
INSERT
  5
944
  8
0
  2
_ANS0004_00066
 10
0.0
 20
0.0
 30
0.0
  0
INSERT
  5
945
  8
0
  2
_ANS0005_00096
 10
0.0
 20
0.0
 30
0.0
  0
INSERT
  5
946
  8
0
  2
DVI_FIGURE_00130
 10
0.0
 20
0.0
 30
0.0
  0
ENDSEC
  0
EOF
