  0
SECTION
  2
HEADER
  9
$ACADVER
  1
AC1006
  9
$DWGCODEPAGE
  3
ansi_1252
  9
$INSBASE
 10
0.0
 20
0.0
 30
0.0
  9
$EXTMIN
 10
-170.32889162
 20
59.6000218
  9
$EXTMAX
 10
488.56250602
 20
469.88860655
  9
$LIMMIN
 10
-170.32889162
 20
59.6000218
  9
$LIMMAX
 10
488.56250602
 20
469.88860655
  9
$ORTHOMODE
 70
     0
  9
$REGENMODE
 70
     1
  9
$FILLMODE
 70
     1
  9
$QTEXTMODE
 70
     0
  9
$MIRRTEXT
 70
     1
  9
$DRAGMODE
 70
     2
  9
$LTSCALE
 40
1.0
  9
$OSMODE
 70
    37
  9
$ATTMODE
 70
     1
  9
$TEXTSIZE
 40
1.0
  9
$TRACEWID
 40
0.05
  9
$TEXTSTYLE
  7
STANDARD
  9
$CLAYER
  8
0
  9
$CELTYPE
  6
BYBLOCK
  9
$CECOLOR
 62
   256
  9
$DIMSCALE
 40
1.0
  9
$DIMASZ
 40
0.18
  9
$DIMEXO
 40
0.0625
  9
$DIMDLI
 40
0.38
  9
$DIMRND
 40
0.0
  9
$DIMDLE
 40
0.0
  9
$DIMEXE
 40
0.18
  9
$DIMTP
 40
0.0
  9
$DIMTM
 40
0.0
  9
$DIMTXT
 40
0.18
  9
$DIMCEN
 40
0.09
  9
$DIMTSZ
 40
0.0
  9
$DIMTOL
 70
     0
  9
$DIMLIM
 70
     0
  9
$DIMTIH
 70
     1
  9
$DIMTOH
 70
     1
  9
$DIMSE1
 70
     0
  9
$DIMSE2
 70
     0
  9
$DIMTAD
 70
     0
  9
$DIMZIN
 70
     0
  9
$DIMBLK
  1

  9
$DIMASO
 70
     1
  9
$DIMSHO
 70
     1
  9
$DIMPOST
  1

  9
$DIMAPOST
  1

  9
$DIMALT
 70
     0
  9
$DIMALTD
 70
     2
  9
$DIMALTF
 40
25.4
  9
$DIMLFAC
 40
1.0
  9
$DIMTOFL
 70
     0
  9
$DIMTVP
 40
0.0
  9
$DIMTIX
 70
     0
  9
$DIMSOXD
 70
     0
  9
$DIMSAH
 70
     0
  9
$DIMBLK1
  1

  9
$DIMBLK2
  1

  9
$LUNITS
 70
     2
  9
$LUPREC
 70
     4
  9
$SKETCHINC
 40
0.1
  9
$FILLETRAD
 40
0.5
  9
$AUNITS
 70
     0
  9
$AUPREC
 70
     0
  9
$MENU
  1
.
  9
$ELEVATION
 40
0.0
  9
$THICKNESS
 40
0.0
  9
$LIMCHECK
 70
     0
  9
$CHAMFERA
 40
0.0
  9
$CHAMFERB
 40
0.0
  9
$SKPOLY
 70
     0
  9
$TDCREATE
 40
2447893.125
  9
$TDUPDATE
 40
2460791.470921933
  9
$TDINDWG
 40
0.0
  9
$TDUSRTIMER
 40
0.0
  9
$USRTIMER
 70
     1
  9
$ANGBASE
 50
0.0
  9
$ANGDIR
 70
     0
  9
$PDMODE
 70
     0
  9
$PDSIZE
 40
0.0
  9
$PLINEWID
 40
0.0
  9
$COORDS
 70
     1
  9
$SPLFRAME
 70
     0
  9
$SPLINETYPE
 70
     6
  9
$SPLINESEGS
 70
     8
  9
$ATTDIA
 70
     0
  9
$ATTREQ
 70
     1
  9
$HANDLING
 70
     1
  9
$HANDSEED
  5
B85
  9
$SURFTAB1
 70
     6
  9
$SURFTAB2
 70
     6
  9
$SURFTYPE
 70
     6
  9
$SURFU
 70
     6
  9
$SURFV
 70
     6
  9
$UCSNAME
  2

  9
$UCSORG
 10
0.0
 20
0.0
 30
0.0
  9
$UCSXDIR
 10
1.0
 20
0.0
 30
0.0
  9
$UCSYDIR
 10
0.0
 20
1.0
 30
0.0
  9
$USERI1
 70
     0
  9
$USERI2
 70
     0
  9
$USERI3
 70
     0
  9
$USERI4
 70
     0
  9
$USERI5
 70
     0
  9
$USERR1
 40
0.0
  9
$USERR2
 40
0.0
  9
$USERR3
 40
0.0
  9
$USERR4
 40
0.0
  9
$USERR5
 40
0.0
  9
$WORLDVIEW
 70
     1
  0
ENDSEC
  0
SECTION
  2
TABLES
  0
TABLE
  2
VPORT
 70
     1
  0
VPORT
  2
*ACTIVE
 70
     0
 10
0.0
 20
0.0
 11
1.0
 21
1.0
 12
159.1168072
 22
264.74431417
 13
0.0
 23
0.0
 14
1.0
 24
1.0
 15
0.0
 25
0.0
 16
0.0
 26
0.0
 36
1.0
 17
0.0
 27
0.0
 37
0.0
 40
410.288584752
 41
1.605921837
 42
50.0
 43
0.0
 44
0.0
 50
0.0
 51
0.0
 71
     0
 72
   100
 73
     1
 74
     1
 75
     0
 76
     0
 77
     0
 78
     0
  0
ENDTAB
  0
TABLE
  2
LTYPE
 70
    19
  0
LTYPE
  2
CONTINUOUS
 70
     0
  3
Solid line
 72
    65
 73
     0
 40
0.0
  0
LTYPE
  2
DOT
 70
     0
  3
..............
 72
    65
 73
     2
 40
2.0
 49
0.5
 49
-1.5
  0
LTYPE
  2
HIDDEN
 70
     0
  3
-- -- -- -- --
 72
    65
 73
     2
 40
7.0
 49
4.0
 49
-3.0
  0
LTYPE
  2
DASHDOT
 70
     0
  3
--.--.--.--.--
 72
    65
 73
     4
 40
8.5
 49
4.0
 49
-2.0
 49
0.5
 49
-2.0
  0
LTYPE
  2
STRICHPUNKT2
 70
     0
  3
--.--.--.--.--
 72
    65
 73
     4
 40
18.5
 49
10.0
 49
-4.0
 49
0.5
 49
-4.0
  0
LTYPE
  2
STRICHPUNKT3
 70
     0
  3
--.--.--.--.--
 72
    65
 73
     4
 40
35.5
 49
25.0
 49
-5.0
 49
0.5
 49
-5.0
  0
LTYPE
  2
PHANTOM
 70
     0
  3
--..--..--..--
 72
    65
 73
     6
 40
23.0
 49
10.0
 49
-4.0
 49
0.5
 49
-4.0
 49
0.5
 49
-4.0
  0
LTYPE
  2
PHANTOM2
 70
     0
  3
--..--..--..--
 72
    65
 73
     6
 40
33.0
 49
20.0
 49
-4.0
 49
0.5
 49
-4.0
 49
0.5
 49
-4.0
  0
LTYPE
  2
PHANTOM3
 70
     0
  3
--..--..--..--
 72
    65
 73
     6
 40
50.0
 49
37.0
 49
-4.0
 49
0.5
 49
-4.0
 49
0.5
 49
-4.0
  0
LTYPE
  2
STR3PKT
 70
     0
  3
--...--...--...
 72
    65
 73
     8
 40
31.5
 49
20.0
 49
-2.5
 49
0.5
 49
-2.5
 49
0.5
 49
-2.5
 49
0.5
 49
-2.5
  0
LTYPE
  2
2STRPKT
 70
     0
  3
--.--.--.--.--
 72
    65
 73
     6
 40
28.0
 49
10.0
 49
-2.5
 49
10.0
 49
-2.5
 49
0.5
 49
-2.5
  0
LTYPE
  2
GESTRICHELT2
 70
     0
  3
-- -- -- -- --
 72
    65
 73
     2
 40
25.0
 49
10.0
 49
-15.0
  0
LTYPE
  2
2STR2PKT
 70
     0
  3
--..--..--..--
 72
    65
 73
     8
 40
31.0
 49
10.0
 49
-2.5
 49
10.0
 49
-2.5
 49
0.5
 49
-2.5
 49
0.5
 49
-2.5
  0
LTYPE
  2
STR3PKT2
 70
     0
  3
--...--...--...
 72
    65
 73
     8
 40
21.0
 49
10.0
 49
-2.5
 49
0.5
 49
-2.5
 49
0.5
 49
-2.5
 49
0.5
 49
-2.0
  0
LTYPE
  2
2STR3PKT
 70
     0
  3
--...--...--...
 72
    65
 73
    10
 40
34.0
 49
10.0
 49
-2.5
 49
10.0
 49
-2.5
 49
0.5
 49
-2.5
 49
0.5
 49
-2.5
 49
0.5
 49
-2.5
  0
LTYPE
  2
STRKSTR
 70
     0
  3
-- - -- - -- -
 72
    65
 73
     4
 40
30.0
 49
20.0
 49
-2.5
 49
5.0
 49
-2.5
  0
LTYPE
  2
STRKSTR2
 70
     0
  3
-- - -- - -- -
 72
    65
 73
     6
 40
37.5
 49
20.0
 49
-2.5
 49
5.0
 49
-2.5
 49
5.0
 49
-2.5
  0
LTYPE
  2
STRKSTR3
 70
     0
  3
-- - -- - -- -
 72
    65
 73
     8
 40
45.0
 49
20.0
 49
-2.5
 49
5.0
 49
-2.5
 49
5.0
 49
-2.5
 49
5.0
 49
-2.5
  0
LTYPE
  2
PUNKT2
 70
     0
  3
..............
 72
    65
 73
     2
 40
3.5
 49
0.5
 49
-3.0
  0
ENDTAB
  0
TABLE
  2
LAYER
 70
    15
  0
LAYER
  2
0
 70
     0
 62
     7
  6
CONTINUOUS
  0
LAYER
  2
LE_GREEN
 70
     0
 62
     3
  6
CONTINUOUS
  0
LAYER
  2
LE_RED
 70
     0
 62
     1
  6
CONTINUOUS
  0
LAYER
  2
LE_ALL
 70
     0
 62
     7
  6
CONTINUOUS
  0
LAYER
  2
LE_HIDDEN1
 70
     0
 62
     3
  6
HIDDEN
  0
LAYER
  2
LE_HIDDEN
 70
     0
 62
     7
  6
CONTINUOUS
  0
LAYER
  2
LE_MIDDLE
 70
     0
 62
     7
  6
CONTINUOUS
  0
LAYER
  2
TXT_YELLOW
 70
     0
 62
     2
  6
CONTINUOUS
  0
LAYER
  2
TXT_DIM49
 70
     0
 62
     2
  6
CONTINUOUS
  0
LAYER
  2
TXT_ALL
 70
     0
 62
     7
  6
CONTINUOUS
  0
LAYER
  2
DIM49
 70
     0
 62
     4
  6
CONTINUOUS
  0
LAYER
  2
HATCH
 70
     0
 62
     3
  6
CONTINUOUS
  0
LAYER
  2
APPLE
 70
     0
 62
     7
  6
CONTINUOUS
  0
LAYER
  2
10
 70
     0
 62
     7
  6
CONTINUOUS
  0
LAYER
  2
49
 70
     0
 62
     7
  6
CONTINUOUS
  0
ENDTAB
  0
TABLE
  2
STYLE
 70
     5
  0
STYLE
  2
MONOTXT
 70
     0
 40
0.0
 41
1.0
 50
0.0
 71
     0
 42
1.0
  3
monotxt.shx
  4

  0
STYLE
  2
STANDARD
 70
     0
 40
0.0
 41
1.0
 50
0.0
 71
     0
 42
1.0
  3
txt
  4

  0
STYLE
  2
ARIAL
 70
     0
 40
0.0
 41
1.0
 50
0.0
 71
     0
 42
1.0
  3
arial.ttf
  4

  0
STYLE
  2
ARIAL_NARROW
 70
     0
 40
0.0
 41
1.0
 50
0.0
 71
     0
 42
1.0
  3
ArialN.ttf
  4

  0
STYLE
  2
ISOCPEUR
 70
     0
 40
0.0
 41
1.0
 50
0.0
 71
     0
 42
1.0
  3
ISOCPEUR.ttf
  4

  0
ENDTAB
  0
TABLE
  2
VIEW
 70
     0
  0
ENDTAB
  0
TABLE
  2
UCS
 70
     0
  0
ENDTAB
  0
ENDSEC
  0
SECTION
  2
BLOCKS
  0
BLOCK
  8
0
  2
_D1
 70
     0
 10
139.51485568
 20
317.8015204
 30
0.0
  0
TEXT
  5
9C6
  8
TXT_DIM49
 10
139.51485568
 20
317.8015204
 30
0.0
 40
2.5
  1
100
 50
90.00020741
  7
ARIAL
  0
LINE
  5
9C7
  8
DIM49
 10
142.01485568
 20
369.66584243
 30
0.0
 11
140.01485568
 21
371.66584243
 31
0.0
  0
LINE
  5
9C8
  8
DIM49
 10
140.26485568
 20
271.44670459
 30
0.0
 11
141.76485568
 21
269.94670459
 31
0.0
  0
LINE
  5
9C9
  8
DIM49
 10
141.01485568
 20
370.66584243
 30
0.0
 11
141.01485568
 21
270.69670459
 31
0.0
  0
LINE
  5
9CA
  8
DIM49
 10
143.01485568
 20
370.66584243
 30
0.0
 11
139.01485568
 21
370.66584243
 31
0.0
  0
LINE
  5
9CB
  8
DIM49
 10
143.01485568
 20
270.69670459
 30
0.0
 11
139.01485568
 21
270.69670459
 31
0.0
  0
ENDBLK
  8
0
  0
BLOCK
  8
0
  2
_D2
 70
     0
 10
220.63510257
 20
309.61537267
 30
0.0
  0
TEXT
  5
9CE
  8
TXT_DIM49
 10
220.63510257
 20
309.61537267
 30
0.0
 40
2.5
  1
150
  7
ARIAL
  0
LINE
  5
9CF
  8
DIM49
 10
149.51485568
 20
309.11537267
 30
0.0
 11
147.51485568
 21
307.11537267
 31
0.0
  0
LINE
  5
9D0
  8
DIM49
 10
297.76485568
 20
307.36537267
 30
0.0
 11
299.26485568
 21
308.86537267
 31
0.0
  0
LINE
  5
9D1
  8
DIM49
 10
148.51485568
 20
308.11537267
 30
0.0
 11
298.51485568
 21
308.11537267
 31
0.0
  0
LINE
  5
9D2
  8
DIM49
 10
148.51485568
 20
310.11537267
 30
0.0
 11
148.51485568
 21
306.11537267
 31
0.0
  0
LINE
  5
9D3
  8
DIM49
 10
298.51485568
 20
306.11537267
 30
0.0
 11
298.51485568
 21
310.11537267
 31
0.0
  0
ENDBLK
  8
0
  0
BLOCK
  8
0
  2
_D3
 70
     0
 10
306.28697456
 20
272.20592471
 30
0.0
  0
TEXT
  5
9D6
  8
TXT_DIM49
 10
306.28697456
 20
272.20592471
 30
0.0
 40
2.5
  1
5
 50
90.00020741
  7
ARIAL
  0
LINE
  5
9D7
  8
DIM49
 10
308.78697456
 20
274.66584243
 30
0.0
 11
306.78697456
 21
276.66584243
 31
0.0
  0
LINE
  5
9D8
  8
DIM49
 10
307.03697456
 20
271.41584243
 30
0.0
 11
308.53697456
 21
269.91584243
 31
0.0
  0
LINE
  5
9D9
  8
DIM49
 10
307.78697456
 20
275.66584243
 30
0.0
 11
307.78697456
 21
270.66584243
 31
0.0
  0
LINE
  5
9DA
  8
DIM49
 10
305.78697456
 20
275.66584243
 30
0.0
 11
309.78697456
 21
275.66584243
 31
0.0
  0
LINE
  5
9DB
  8
DIM49
 10
305.78697456
 20
270.66584243
 30
0.0
 11
309.78697456
 21
270.66584243
 31
0.0
  0
ENDBLK
  8
0
  0
BLOCK
  8
0
  2
_D4
 70
     0
 10
170.83573254
 20
209.94923222
 30
0.0
  0
TEXT
  5
9F2
  8
TXT_DIM49
 10
170.83573254
 20
209.94923222
 30
0.0
 40
2.5
  1
31
 50
90.00020741
  7
ARIAL
  0
LINE
  5
9F3
  8
DIM49
 10
173.33573254
 20
226.36906767
 30
0.0
 11
171.33573254
 21
228.36906767
 31
0.0
  0
LINE
  5
9F4
  8
DIM49
 10
171.58573254
 20
197.11906767
 30
0.0
 11
173.08573254
 21
195.61906767
 31
0.0
  0
LINE
  5
9F5
  8
DIM49
 10
172.33573254
 20
227.36906767
 30
0.0
 11
172.33573254
 21
196.36906767
 31
0.0
  0
LINE
  5
9F6
  8
DIM49
 10
174.33573254
 20
227.36906767
 30
0.0
 11
170.33573254
 21
227.36906767
 31
0.0
  0
LINE
  5
9F7
  8
DIM49
 10
174.33573254
 20
196.36906767
 30
0.0
 11
170.33573254
 21
196.36906767
 31
0.0
  0
ENDBLK
  8
0
  0
BLOCK
  8
0
  2
_D5
 70
     0
 10
284.09502024
 20
255.13395692
 30
0.0
  0
TEXT
  5
9FA
  8
TXT_DIM49
 10
284.09502024
 20
255.13395692
 30
0.0
 40
2.5
  1
25
  7
ARIAL
  0
LINE
  5
9FB
  8
DIM49
 10
297.51485568
 20
252.63395692
 30
0.0
 11
299.51485568
 21
254.63395692
 31
0.0
  0
LINE
  5
9FC
  8
DIM49
 10
274.26485568
 20
254.38395692
 30
0.0
 11
272.76485568
 21
252.88395692
 31
0.0
  0
LINE
  5
9FD
  8
DIM49
 10
298.51485568
 20
253.63395692
 30
0.0
 11
273.51485568
 21
253.63395692
 31
0.0
  0
LINE
  5
9FE
  8
DIM49
 10
298.51485568
 20
251.63395692
 30
0.0
 11
298.51485568
 21
255.63395692
 31
0.0
  0
LINE
  5
9FF
  8
DIM49
 10
273.51485568
 20
251.63395692
 30
0.0
 11
273.51485568
 21
255.63395692
 31
0.0
  0
ENDBLK
  8
0
  0
BLOCK
  8
0
  2
_D6
 70
     0
 10
261.59502024
 20
255.13395692
 30
0.0
  0
TEXT
  5
A02
  8
TXT_DIM49
 10
261.59502024
 20
255.13395692
 30
0.0
 40
2.5
  1
20
  7
ARIAL
  0
LINE
  5
A03
  8
DIM49
 10
272.51485568
 20
252.63395692
 30
0.0
 11
274.51485568
 21
254.63395692
 31
0.0
  0
LINE
  5
A04
  8
DIM49
 10
254.26485568
 20
254.38395692
 30
0.0
 11
252.76485568
 21
252.88395692
 31
0.0
  0
LINE
  5
A05
  8
DIM49
 10
273.51485568
 20
253.63395692
 30
0.0
 11
253.51485568
 21
253.63395692
 31
0.0
  0
LINE
  5
A06
  8
DIM49
 10
273.51485568
 20
251.63395692
 30
0.0
 11
273.51485568
 21
255.63395692
 31
0.0
  0
LINE
  5
A07
  8
DIM49
 10
253.51485568
 20
251.63395692
 30
0.0
 11
253.51485568
 21
255.63395692
 31
0.0
  0
ENDBLK
  8
0
  0
BLOCK
  8
0
  2
_D7
 70
     0
 10
241.59502024
 20
255.13395692
 30
0.0
  0
TEXT
  5
A0A
  8
TXT_DIM49
 10
241.59502024
 20
255.13395692
 30
0.0
 40
2.5
  1
20
  7
ARIAL
  0
LINE
  5
A0B
  8
DIM49
 10
252.51485568
 20
252.63395692
 30
0.0
 11
254.51485568
 21
254.63395692
 31
0.0
  0
LINE
  5
A0C
  8
DIM49
 10
234.26485568
 20
254.38395692
 30
0.0
 11
232.76485568
 21
252.88395692
 31
0.0
  0
LINE
  5
A0D
  8
DIM49
 10
253.51485568
 20
253.63395692
 30
0.0
 11
233.51485568
 21
253.63395692
 31
0.0
  0
LINE
  5
A0E
  8
DIM49
 10
253.51485568
 20
251.63395692
 30
0.0
 11
253.51485568
 21
255.63395692
 31
0.0
  0
LINE
  5
A0F
  8
DIM49
 10
233.51485568
 20
251.63395692
 30
0.0
 11
233.51485568
 21
255.63395692
 31
0.0
  0
ENDBLK
  8
0
  0
BLOCK
  8
0
  2
_D8
 70
     0
 10
216.59502024
 20
255.13395692
 30
0.0
  0
TEXT
  5
A12
  8
TXT_DIM49
 10
216.59502024
 20
255.13395692
 30
0.0
 40
2.5
  1
30
  7
ARIAL
  0
LINE
  5
A13
  8
DIM49
 10
232.51485568
 20
252.63395692
 30
0.0
 11
234.51485568
 21
254.63395692
 31
0.0
  0
LINE
  5
A14
  8
DIM49
 10
204.26485568
 20
254.38395692
 30
0.0
 11
202.76485568
 21
252.88395692
 31
0.0
  0
LINE
  5
A15
  8
DIM49
 10
233.51485568
 20
253.63395692
 30
0.0
 11
203.51485568
 21
253.63395692
 31
0.0
  0
LINE
  5
A16
  8
DIM49
 10
233.51485568
 20
251.63395692
 30
0.0
 11
233.51485568
 21
255.63395692
 31
0.0
  0
LINE
  5
A17
  8
DIM49
 10
203.51485568
 20
251.63395692
 30
0.0
 11
203.51485568
 21
255.63395692
 31
0.0
  0
ENDBLK
  8
0
  0
BLOCK
  8
0
  2
_D9
 70
     0
 10
191.59502024
 20
255.13395692
 30
0.0
  0
TEXT
  5
A1A
  8
TXT_DIM49
 10
191.59502024
 20
255.13395692
 30
0.0
 40
2.5
  1
20
  7
ARIAL
  0
LINE
  5
A1B
  8
DIM49
 10
202.51485568
 20
252.63395692
 30
0.0
 11
204.51485568
 21
254.63395692
 31
0.0
  0
LINE
  5
A1C
  8
DIM49
 10
184.26485568
 20
254.38395692
 30
0.0
 11
182.76485568
 21
252.88395692
 31
0.0
  0
LINE
  5
A1D
  8
DIM49
 10
203.51485568
 20
253.63395692
 30
0.0
 11
183.51485568
 21
253.63395692
 31
0.0
  0
LINE
  5
A1E
  8
DIM49
 10
203.51485568
 20
251.63395692
 30
0.0
 11
203.51485568
 21
255.63395692
 31
0.0
  0
LINE
  5
A1F
  8
DIM49
 10
183.51485568
 20
251.63395692
 30
0.0
 11
183.51485568
 21
255.63395692
 31
0.0
  0
ENDBLK
  8
0
  0
BLOCK
  8
0
  2
_D10
 70
     0
 10
164.09502024
 20
255.13395692
 30
0.0
  0
TEXT
  5
A22
  8
TXT_DIM49
 10
164.09502024
 20
255.13395692
 30
0.0
 40
2.5
  1
35
  7
ARIAL
  0
LINE
  5
A23
  8
DIM49
 10
182.51485568
 20
252.63395692
 30
0.0
 11
184.51485568
 21
254.63395692
 31
0.0
  0
LINE
  5
A24
  8
DIM49
 10
149.26485568
 20
254.38395692
 30
0.0
 11
147.76485568
 21
252.88395692
 31
0.0
  0
LINE
  5
A25
  8
DIM49
 10
183.51485568
 20
253.63395692
 30
0.0
 11
148.51485568
 21
253.63395692
 31
0.0
  0
LINE
  5
A26
  8
DIM49
 10
183.51485568
 20
251.63395692
 30
0.0
 11
183.51485568
 21
255.63395692
 31
0.0
  0
LINE
  5
A27
  8
DIM49
 10
148.51485568
 20
251.63395692
 30
0.0
 11
148.51485568
 21
255.63395692
 31
0.0
  0
ENDBLK
  8
0
  0
BLOCK
  8
0
  2
_D11
 70
     0
 10
284.09502024
 20
168.46235933
 30
0.0
  0
TEXT
  5
A2A
  8
TXT_DIM49
 10
284.09502024
 20
168.46235933
 30
0.0
 40
2.5
  1
25
  7
ARIAL
  0
LINE
  5
A2B
  8
DIM49
 10
297.51485568
 20
165.96235933
 30
0.0
 11
299.51485568
 21
167.96235933
 31
0.0
  0
LINE
  5
A2C
  8
DIM49
 10
274.26485568
 20
167.71235933
 30
0.0
 11
272.76485568
 21
166.21235933
 31
0.0
  0
LINE
  5
A2D
  8
DIM49
 10
298.51485568
 20
166.96235933
 30
0.0
 11
273.51485568
 21
166.96235933
 31
0.0
  0
LINE
  5
A2E
  8
DIM49
 10
298.51485568
 20
168.96235933
 30
0.0
 11
298.51485568
 21
164.96235933
 31
0.0
  0
LINE
  5
A2F
  8
DIM49
 10
273.51485568
 20
168.96235933
 30
0.0
 11
273.51485568
 21
164.96235933
 31
0.0
  0
ENDBLK
  8
0
  0
BLOCK
  8
0
  2
_D12
 70
     0
 10
251.59502024
 20
168.46235933
 30
0.0
  0
TEXT
  5
A32
  8
TXT_DIM49
 10
251.59502024
 20
168.46235933
 30
0.0
 40
2.5
  1
40
  7
ARIAL
  0
LINE
  5
A33
  8
DIM49
 10
272.51485568
 20
165.96235933
 30
0.0
 11
274.51485568
 21
167.96235933
 31
0.0
  0
LINE
  5
A34
  8
DIM49
 10
234.26485568
 20
167.71235933
 30
0.0
 11
232.76485568
 21
166.21235933
 31
0.0
  0
LINE
  5
A35
  8
DIM49
 10
273.51485568
 20
166.96235933
 30
0.0
 11
233.51485568
 21
166.96235933
 31
0.0
  0
LINE
  5
A36
  8
DIM49
 10
273.51485568
 20
168.96235933
 30
0.0
 11
273.51485568
 21
164.96235933
 31
0.0
  0
LINE
  5
A37
  8
DIM49
 10
233.51485568
 20
168.96235933
 30
0.0
 11
233.51485568
 21
164.96235933
 31
0.0
  0
ENDBLK
  8
0
  0
BLOCK
  8
0
  2
_D13
 70
     0
 10
211.59502024
 20
168.46235933
 30
0.0
  0
TEXT
  5
A3A
  8
TXT_DIM49
 10
211.59502024
 20
168.46235933
 30
0.0
 40
2.5
  1
40
  7
ARIAL
  0
LINE
  5
A3B
  8
DIM49
 10
232.51485568
 20
165.96235933
 30
0.0
 11
234.51485568
 21
167.96235933
 31
0.0
  0
LINE
  5
A3C
  8
DIM49
 10
194.26485568
 20
167.71235933
 30
0.0
 11
192.76485568
 21
166.21235933
 31
0.0
  0
LINE
  5
A3D
  8
DIM49
 10
233.51485568
 20
166.96235933
 30
0.0
 11
193.51485568
 21
166.96235933
 31
0.0
  0
LINE
  5
A3E
  8
DIM49
 10
233.51485568
 20
168.96235933
 30
0.0
 11
233.51485568
 21
164.96235933
 31
0.0
  0
LINE
  5
A3F
  8
DIM49
 10
193.51485568
 20
168.96235933
 30
0.0
 11
193.51485568
 21
164.96235933
 31
0.0
  0
ENDBLK
  8
0
  0
BLOCK
  8
0
  2
_D14
 70
     0
 10
169.09502024
 20
168.46235933
 30
0.0
  0
TEXT
  5
A42
  8
TXT_DIM49
 10
169.09502024
 20
168.46235933
 30
0.0
 40
2.5
  1
45
  7
ARIAL
  0
LINE
  5
A43
  8
DIM49
 10
192.51485568
 20
165.96235933
 30
0.0
 11
194.51485568
 21
167.96235933
 31
0.0
  0
LINE
  5
A44
  8
DIM49
 10
149.26485568
 20
167.71235933
 30
0.0
 11
147.76485568
 21
166.21235933
 31
0.0
  0
LINE
  5
A45
  8
DIM49
 10
193.51485568
 20
166.96235933
 30
0.0
 11
148.51485568
 21
166.96235933
 31
0.0
  0
LINE
  5
A46
  8
DIM49
 10
193.51485568
 20
168.96235933
 30
0.0
 11
193.51485568
 21
164.96235933
 31
0.0
  0
LINE
  5
A47
  8
DIM49
 10
148.51485568
 20
168.96235933
 30
0.0
 11
148.51485568
 21
164.96235933
 31
0.0
  0
ENDBLK
  8
0
  0
BLOCK
  8
0
  2
_D15
 70
     0
 10
-1.94448792
 20
360.74600699
 30
0.0
  0
TEXT
  5
A6A
  8
TXT_DIM49
 10
-1.94448792
 20
360.74600699
 30
0.0
 40
2.5
  1
16
 50
90.00020741
  7
ARIAL
  0
LINE
  5
A6B
  8
DIM49
 10
0.55551208
 20
369.66584243
 30
0.0
 11
-1.44448792
 21
371.66584243
 31
0.0
  0
LINE
  5
A6C
  8
DIM49
 10
-1.19448792
 20
355.41584243
 30
0.0
 11
0.30551208
 21
353.91584243
 31
0.0
  0
LINE
  5
A6D
  8
DIM49
 10
-0.44448792
 20
370.66584243
 30
0.0
 11
-0.44448792
 21
354.66584243
 31
0.0
  0
LINE
  5
A6E
  8
DIM49
 10
1.55551208
 20
370.66584243
 30
0.0
 11
-2.44448792
 21
370.66584243
 31
0.0
  0
LINE
  5
A6F
  8
DIM49
 10
1.55551208
 20
354.66584243
 30
0.0
 11
-2.44448792
 21
354.66584243
 31
0.0
  0
ENDBLK
  8
0
  0
BLOCK
  8
0
  2
_D16
 70
     0
 10
-1.94448792
 20
343.74600699
 30
0.0
  0
TEXT
  5
A72
  8
TXT_DIM49
 10
-1.94448792
 20
343.74600699
 30
0.0
 40
2.5
  1
18
 50
90.00020741
  7
ARIAL
  0
LINE
  5
A73
  8
DIM49
 10
0.55551208
 20
353.66584243
 30
0.0
 11
-1.44448792
 21
355.66584243
 31
0.0
  0
LINE
  5
A74
  8
DIM49
 10
-1.19448792
 20
337.41584243
 30
0.0
 11
0.30551208
 21
335.91584243
 31
0.0
  0
LINE
  5
A75
  8
DIM49
 10
-0.44448792
 20
354.66584243
 30
0.0
 11
-0.44448792
 21
336.66584243
 31
0.0
  0
LINE
  5
A76
  8
DIM49
 10
1.55551208
 20
354.66584243
 30
0.0
 11
-2.44448792
 21
354.66584243
 31
0.0
  0
LINE
  5
A77
  8
DIM49
 10
1.55551208
 20
336.66584243
 30
0.0
 11
-2.44448792
 21
336.66584243
 31
0.0
  0
ENDBLK
  8
0
  0
BLOCK
  8
0
  2
_D17
 70
     0
 10
-1.94448792
 20
322.74600699
 30
0.0
  0
TEXT
  5
A7A
  8
TXT_DIM49
 10
-1.94448792
 20
322.74600699
 30
0.0
 40
2.5
  1
24
 50
90.00020741
  7
ARIAL
  0
LINE
  5
A7B
  8
DIM49
 10
0.55551208
 20
335.66584243
 30
0.0
 11
-1.44448792
 21
337.66584243
 31
0.0
  0
LINE
  5
A7C
  8
DIM49
 10
-1.19448792
 20
313.41584243
 30
0.0
 11
0.30551208
 21
311.91584243
 31
0.0
  0
LINE
  5
A7D
  8
DIM49
 10
-0.44448792
 20
336.66584243
 30
0.0
 11
-0.44448792
 21
312.66584243
 31
0.0
  0
LINE
  5
A7E
  8
DIM49
 10
1.55551208
 20
336.66584243
 30
0.0
 11
-2.44448792
 21
336.66584243
 31
0.0
  0
LINE
  5
A7F
  8
DIM49
 10
1.55551208
 20
312.66584243
 30
0.0
 11
-2.44448792
 21
312.66584243
 31
0.0
  0
ENDBLK
  8
0
  0
BLOCK
  8
0
  2
_D18
 70
     0
 10
-1.94448792
 20
303.74600699
 30
0.0
  0
TEXT
  5
A82
  8
TXT_DIM49
 10
-1.94448792
 20
303.74600699
 30
0.0
 40
2.5
  1
14
 50
90.00020741
  7
ARIAL
  0
LINE
  5
A83
  8
DIM49
 10
0.55551208
 20
311.66584243
 30
0.0
 11
-1.44448792
 21
313.66584243
 31
0.0
  0
LINE
  5
A84
  8
DIM49
 10
-1.19448792
 20
299.41584243
 30
0.0
 11
0.30551208
 21
297.91584243
 31
0.0
  0
LINE
  5
A85
  8
DIM49
 10
-0.44448792
 20
312.66584243
 30
0.0
 11
-0.44448792
 21
298.66584243
 31
0.0
  0
LINE
  5
A86
  8
DIM49
 10
1.55551208
 20
312.66584243
 30
0.0
 11
-2.44448792
 21
312.66584243
 31
0.0
  0
LINE
  5
A87
  8
DIM49
 10
1.55551208
 20
298.66584243
 30
0.0
 11
-2.44448792
 21
298.66584243
 31
0.0
  0
ENDBLK
  8
0
  0
BLOCK
  8
0
  2
_D19
 70
     0
 10
-1.94448792
 20
282.74600699
 30
0.0
  0
TEXT
  5
A8A
  8
TXT_DIM49
 10
-1.94448792
 20
282.74600699
 30
0.0
 40
2.5
  1
28
 50
90.00020741
  7
ARIAL
  0
LINE
  5
A8B
  8
DIM49
 10
0.55551208
 20
297.66584243
 30
0.0
 11
-1.44448792
 21
299.66584243
 31
0.0
  0
LINE
  5
A8C
  8
DIM49
 10
-1.19448792
 20
271.41584243
 30
0.0
 11
0.30551208
 21
269.91584243
 31
0.0
  0
LINE
  5
A8D
  8
DIM49
 10
-0.44448792
 20
298.66584243
 30
0.0
 11
-0.44448792
 21
270.66584243
 31
0.0
  0
LINE
  5
A8E
  8
DIM49
 10
1.55551208
 20
298.66584243
 30
0.0
 11
-2.44448792
 21
298.66584243
 31
0.0
  0
LINE
  5
A8F
  8
DIM49
 10
1.55551208
 20
270.66584243
 30
0.0
 11
-2.44448792
 21
270.66584243
 31
0.0
  0
ENDBLK
  8
0
  0
BLOCK
  8
0
  2
_D20
 70
     0
 10
43.04078269
 20
262.16584243
 30
0.0
  0
TEXT
  5
A92
  8
TXT_DIM49
 10
43.04078269
 20
262.16584243
 30
0.0
 40
2.5
  1
72
  7
ARIAL
  0
LINE
  5
A93
  8
DIM49
 10
9.96061814
 20
261.66584243
 30
0.0
 11
7.96061814
 21
259.66584243
 31
0.0
  0
LINE
  5
A94
  8
DIM49
 10
80.21061814
 20
259.91584243
 30
0.0
 11
81.71061814
 21
261.41584243
 31
0.0
  0
LINE
  5
A95
  8
DIM49
 10
8.96061814
 20
260.66584243
 30
0.0
 11
80.96061814
 21
260.66584243
 31
0.0
  0
LINE
  5
A96
  8
DIM49
 10
8.96061814
 20
262.66584243
 30
0.0
 11
8.96061814
 21
258.66584243
 31
0.0
  0
LINE
  5
A97
  8
DIM49
 10
80.96061814
 20
262.66584243
 30
0.0
 11
80.96061814
 21
258.66584243
 31
0.0
  0
ENDBLK
  8
0
  0
BLOCK
  8
0
  2
_D21
 70
     0
 10
43.04078269
 20
366.42054051
 30
0.0
  0
TEXT
  5
A9A
  8
TXT_DIM49
 10
43.04078269
 20
366.42054051
 30
0.0
 40
2.5
  1
31
  7
ARIAL
  0
LINE
  5
A9B
  8
DIM49
 10
30.46061814
 20
365.92054051
 30
0.0
 11
28.46061814
 21
363.92054051
 31
0.0
  0
LINE
  5
A9C
  8
DIM49
 10
59.71061814
 20
364.17054051
 30
0.0
 11
61.21061814
 21
365.67054051
 31
0.0
  0
LINE
  5
A9D
  8
DIM49
 10
29.46061814
 20
364.92054051
 30
0.0
 11
60.46061814
 21
364.92054051
 31
0.0
  0
LINE
  5
A9E
  8
DIM49
 10
29.46061814
 20
362.92054051
 30
0.0
 11
29.46061814
 21
366.92054051
 31
0.0
  0
LINE
  5
A9F
  8
DIM49
 10
60.46061814
 20
362.92054051
 30
0.0
 11
60.46061814
 21
366.92054051
 31
0.0
  0
ENDBLK
  8
0
  0
BLOCK
  8
0
  2
_ZBL0001_00001
 70
     0
 10
0.0
 20
0.0
 30
0.0
  0
INSERT
  5
1AF
  8
0
  2
DINA3_VIETNAM_00002
 10
-78.4941428
 20
106.38472507
 30
0.0
  0
ENDBLK
  8
0
  0
BLOCK
  8
0
  2
DINA3_VIETNAM_00002
 70
     0
 10
-78.4941428
 20
106.38472507
 30
0.0
  0
POLYLINE
  5
1B2
  8
0
 66
     1
 10
0.0
 20
0.0
 30
0.0
 70
     1
  0
VERTEX
  5
1B3
  8
0
 10
-78.4941428
 20
106.38472507
 30
0.0
  0
VERTEX
  5
1B4
  8
0
 10
341.5058572
 20
106.38472507
 30
0.0
  0
VERTEX
  5
1B5
  8
0
 10
341.5058572
 20
403.38472507
 30
0.0
  0
VERTEX
  5
1B6
  8
0
 10
-78.4941428
 20
403.38472507
 30
0.0
  0
SEQEND
  5
1B7
  8
0
  0
POLYLINE
  5
1B8
  8
0
 66
     1
 10
0.0
 20
0.0
 30
0.0
 70
     1
  0
VERTEX
  5
1B9
  8
0
 10
-73.4941428
 20
111.38472507
 30
0.0
  0
VERTEX
  5
1BA
  8
0
 10
336.5058572
 20
111.38472507
 30
0.0
  0
VERTEX
  5
1BB
  8
0
 10
336.5058572
 20
398.38472507
 30
0.0
  0
VERTEX
  5
1BC
  8
0
 10
-73.4941428
 20
398.38472507
 30
0.0
  0
SEQEND
  5
1BD
  8
0
  0
LINE
  5
1BE
  8
0
 10
151.5058572
 20
111.38472507
 30
0.0
 11
151.5058572
 21
106.38472507
 31
0.0
  0
LINE
  5
1BF
  8
0
 10
151.5058572
 20
398.38472507
 30
0.0
 11
151.5058572
 21
403.38472507
 31
0.0
  0
LINE
  5
1C0
  8
0
 10
-58.4941428
 20
111.38472507
 30
0.0
 11
-58.4941428
 21
106.38472507
 31
0.0
  0
LINE
  5
1C1
  8
0
 10
-58.4941428
 20
398.38472507
 30
0.0
 11
-58.4941428
 21
403.38472507
 31
0.0
  0
TEXT
  5
1C2
  8
TXT_ALL
 62
     4
 10
340.5058572
 20
107.38472507
 30
0.0
 40
2.5
  1

 50
90.00020741
  0
POLYLINE
  5
1C3
  8
0
 66
     1
 10
0.0
 20
0.0
 30
0.0
  0
VERTEX
  5
1C4
  8
0
 10
336.5058572
 20
388.38472507
 30
0.0
  0
VERTEX
  5
1C5
  8
0
 10
267.5125572
 20
388.38472507
 30
0.0
  0
VERTEX
  5
1C6
  8
0
 10
267.5125572
 20
398.38472507
 30
0.0
  0
SEQEND
  5
1C7
  8
0
  0
LINE
  5
1C8
  8
0
 10
269.4158572
 20
130.88472507
 30
0.0
 11
129.5258572
 21
130.88472507
 31
0.0
  0
LINE
  5
1C9
  8
0
 10
129.5258572
 20
121.13472507
 30
0.0
 11
269.4158572
 21
121.13472507
 31
0.0
  0
POLYLINE
  5
1CA
  8
0
 66
     1
 10
0.0
 20
0.0
 30
0.0
  0
VERTEX
  5
1CB
  8
0
 10
129.5258572
 20
130.88472507
 30
0.0
  0
VERTEX
  5
1CC
  8
0
 10
129.5258572
 20
121.13472507
 30
0.0
  0
VERTEX
  5
1CD
  8
0
 10
129.5258572
 20
111.38472507
 30
0.0
  0
SEQEND
  5
1CE
  8
0
  0
POLYLINE
  5
1CF
  8
0
 66
     1
 10
0.0
 20
0.0
 30
0.0
  0
VERTEX
  5
1D0
  8
0
 10
199.4708572
 20
130.88472507
 30
0.0
  0
VERTEX
  5
1D1
  8
0
 10
199.4708572
 20
121.13472507
 30
0.0
  0
VERTEX
  5
1D2
  8
0
 10
199.4708572
 20
111.38472507
 30
0.0
  0
SEQEND
  5
1D3
  8
0
  0
INSERT
  5
1D4
  8
0
  2
FLEX_00003
 10
131.5258572
 20
126.00972507
 30
0.0
  0
INSERT
  5
1D5
  8
0
  2
FLEX_00005
 10
131.5258572
 20
116.25972507
 30
0.0
  0
INSERT
  5
1D6
  8
0
  2
FLEX_00007
 10
201.4708572
 20
116.25972507
 30
0.0
  0
INSERT
  5
1D7
  8
0
  2
FLEX_00009
 10
201.4708572
 20
126.00972507
 30
0.0
  0
INSERT
  5
1D8
  8
0
  2
SCHRIFE_00011
 10
-70.05218255
 20
393.38472507
 30
0.0
  0
INSERT
  5
1D9
  8
0
  2
_B_M_P___00015
 10
318.34828328
 20
106.49472507
 30
0.0
  0
ENDBLK
  8
0
  0
BLOCK
  8
0
  2
FLEX_00003
 70
     0
 10
131.5258572
 20
126.00972507
 30
0.0
  0
INSERT
  5
1DC
  8
0
  2
TFIELD_00004
 10
131.5258572
 20
126.00972507
 30
0.0
  0
ENDBLK
  8
0
  0
BLOCK
  8
0
  2
TFIELD_00004
 70
     0
 10
131.5258572
 20
126.00972507
 30
0.0
  0
TEXT
  5
1DF
  8
TXT_ALL
 10
131.5258572
 20
124.70972512
 30
0.0
 40
2.5999999
  1
E-mail: verkoop@jonkers-bouwmetaal.nl
  7
ARIAL
  0
ENDBLK
  8
0
  0
BLOCK
  8
0
  2
FLEX_00005
 70
     0
 10
131.5258572
 20
116.25972507
 30
0.0
  0
INSERT
  5
1E2
  8
0
  2
TFIELD_00006
 10
131.5258572
 20
116.25972507
 30
0.0
  0
ENDBLK
  8
0
  0
BLOCK
  8
0
  2
TFIELD_00006
 70
     0
 10
131.5258572
 20
116.25972507
 30
0.0
  0
TEXT
  5
1E5
  8
TXT_ALL
 10
131.5258572
 20
114.95972512
 30
0.0
 40
2.5999999
  1
Telefoon: 0527-685156
  7
ARIAL
  0
ENDBLK
  8
0
  0
BLOCK
  8
0
  2
FLEX_00007
 70
     0
 10
201.4708572
 20
116.25972507
 30
0.0
  0
INSERT
  5
1E8
  8
0
  2
TFIELD_00008
 10
201.4708572
 20
116.25972507
 30
0.0
  0
ENDBLK
  8
0
  0
BLOCK
  8
0
  2
TFIELD_00008
 70
     0
 10
201.4708572
 20
116.25972507
 30
0.0
  0
TEXT
  5
1EB
  8
TXT_ALL
 10
201.4708572
 20
114.95972512
 30
0.0
 40
2.5999999
  1
Website: www.jonkers-bouwmetaal.nl
  7
ARIAL
  0
ENDBLK
  8
0
  0
BLOCK
  8
0
  2
FLEX_00009
 70
     0
 10
201.4708572
 20
126.00972507
 30
0.0
  0
INSERT
  5
1EE
  8
0
  2
TFIELD_00010
 10
201.4708572
 20
126.00972507
 30
0.0
  0
ENDBLK
  8
0
  0
BLOCK
  8
0
  2
TFIELD_00010
 70
     0
 10
201.4708572
 20
126.00972507
 30
0.0
  0
TEXT
  5
1F1
  8
TXT_ALL
 10
201.4708572
 20
124.70972512
 30
0.0
 40
2.5999999
  1
Adres: Hoornse Hop 10, 8321 WX Urk
  7
ARIAL
  0
ENDBLK
  8
0
  0
BLOCK
  8
0
  2
SCHRIFE_00011
 70
     0
 10
-70.05218255
 20
393.38472507
 30
0.0
  0
TEXT
  5
1F4
  8
TXT_ALL
 10
-70.05218255
 20
392.13472507
 30
0.0
 40
2.5
  1
Art. nr. 91012366
  7
ARIAL
  0
TEXT
  5
1F5
  8
TXT_ALL
 10
-27.31414573
 20
392.13472507
 30
0.0
 40
2.5
  1
Omschrijving: HXL03-anker 150x100 72x5
  7
ARIAL
  0
LINE
  5
1F6
  8
0
 10
336.5058572
 20
388.38472507
 30
0.0
 11
-73.4941428
 21
388.38472507
 31
0.0
  0
LINE
  5
1F7
  8
0
 10
-30.4741428
 20
388.38472507
 30
0.0
 11
-30.4741428
 21
398.38472507
 31
0.0
  0
LINE
  5
1F8
  8
0
 10
129.5258572
 20
388.38472507
 30
0.0
 11
129.5258572
 21
398.38472507
 31
0.0
  0
TEXT
  5
1F9
  8
TXT_ALL
 10
200.5195572
 20
392.13472507
 30
0.0
 40
2.5
  1
Behandeling: N.V.T.
  7
ARIAL
  0
LINE
  5
1FA
  8
0
 10
269.4158572
 20
130.88472507
 30
0.0
 11
336.5058572
 21
130.88472507
 31
0.0
  0
LINE
  5
1FB
  8
0
 10
269.4158572
 20
111.38472507
 30
0.0
 11
269.4158572
 21
130.88472507
 31
0.0
  0
LINE
  5
1FC
  8
0
 10
269.4158572
 20
111.38472507
 30
0.0
 11
269.4158572
 21
130.88472507
 31
0.0
  0
TEXT
  5
1FD
  8
TXT_ALL
 10
63.87105529
 20
112.53925849
 30
0.0
 40
2.5
  1

  0
TEXT
  5
1FE
  8
TXT_ALL
 10
185.00623826
 20
122.63472507
 30
0.0
 40
2.5
  1

  0
POLYLINE
  5
1FF
  8
0
 66
     1
 10
0.0
 20
0.0
 30
0.0
  0
VERTEX
  5
200
  8
0
 10
267.5125572
 20
388.38472507
 30
0.0
  0
VERTEX
  5
201
  8
0
 10
198.5195572
 20
388.38472507
 30
0.0
  0
VERTEX
  5
202
  8
0
 10
198.5195572
 20
398.38472507
 30
0.0
  0
SEQEND
  5
203
  8
0
  0
TEXT
  5
204
  8
TXT_ALL
 10
269.5125572
 20
392.13472507
 30
0.0
 40
2.5
  1
Verpakkingshoeveelheid: 25 st.
  7
ARIAL
  0
TEXT
  5
205
  8
TXT_ALL
 10
131.5258572
 20
392.13472507
 30
0.0
 40
2.5
  1
Materiaal: Sendzimir Verzinkt
  7
ARIAL
  0
INSERT
  5
206
  8
0
  2
FLEX_00012
 10
311.08109262
 20
107.38521522
 30
0.0
  0
INSERT
  5
207
  8
0
  2
_B_M_P___00014
 10
270.17522452
 20
112.17740713
 30
0.0
  0
ENDBLK
  8
0
  0
BLOCK
  8
0
  2
FLEX_00012
 70
     0
 10
311.08109262
 20
107.38521522
 30
0.0
  0
INSERT
  5
20A
  8
0
  2
TFIELD_00013
 10
304.28750443
 20
108.88521522
 30
0.0
  0
ENDBLK
  8
0
  0
BLOCK
  8
0
  2
TFIELD_00013
 70
     0
 10
304.28750443
 20
108.88521522
 30
0.0
  0
TEXT
  5
20D
  8
TXT_ALL
 10
304.28750443
 20
108.13521522
 30
0.0
 40
1.5
  1
Onderdeel van
  7
ARIAL
  0
ENDBLK
  8
0
  0
BLOCK
  8
0
  2
_B_M_P___00014
 70
     0
 10
270.17522452
 20
112.17740713
 30
0.0
  0
ENDBLK
  8
0
  0
BLOCK
  8
0
  2
_B_M_P___00015
 70
     0
 10
318.34828328
 20
106.49472507
 30
0.0
  0
ENDBLK
  8
0
  0
BLOCK
  8
0
  2
_ANS0002_00016
 70
     0
 10
0.0
 20
0.0
 30
0.0
  0
INSERT
  5
214
  8
0
  2
_A3D0002_00017
 10
0.0
 20
0.0
 30
0.0
  0
ENDBLK
  8
0
  0
BLOCK
  8
0
  2
_A3D0002_00017
 70
     0
 10
0.0
 20
0.0
 30
0.0
  0
INSERT
  5
217
  8
0
  2
SVH04-ANKER_00018
 10
0.0
 20
0.0
 30
0.0
  0
ENDBLK
  8
0
  0
BLOCK
  8
0
  2
SVH04-ANKER_00018
 70
     0
 10
0.0
 20
0.0
 30
0.0
  0
INSERT
  5
21A
  8
0
  2
1X_PLAAT_5MM-240_210X72_00
 10
0.0
 20
0.0
 30
0.0
  0
INSERT
  5
21B
  8
0
  2
1X_BL_10X7_143X72_000_S235
 10
0.0
 20
0.0
 30
0.0
  0
INSERT
  5
21C
  8
0
  2
1X_BL_10X7_143X72_000_S231
 10
0.0
 20
0.0
 30
0.0
  0
ENDBLK
  8
0
  0
BLOCK
  8
0
  2
1X_PLAAT_5MM-240_210X72_00
 70
     0
 10
0.0
 20
0.0
 30
0.0
  0
INSERT
  5
21F
  8
0
  2
1X_PLAAT_5MM-240_210X72_01
 10
282.51485568
 20
270.66584243
 30
0.0
  0
ENDBLK
  8
0
  0
BLOCK
  8
0
  2
1X_PLAAT_5MM-240_210X72_01
 70
     0
 10
282.51485568
 20
270.66584243
 30
0.0
  0
LINE
  5
222
  8
0
 10
282.51485568
 20
270.66584243
 30
0.0
 11
282.51485568
 21
275.66584243
 31
0.0
  0
LINE
  5
223
  8
0
 10
288.51485568
 20
275.66584243
 30
0.0
 11
282.51485568
 21
275.66584243
 31
0.0
  0
LINE
  5
224
  8
0
 10
288.51485568
 20
270.66584243
 30
0.0
 11
288.51485568
 21
275.66584243
 31
0.0
  0
LINE
  5
225
  8
0
 10
288.51485568
 20
270.66584243
 30
0.0
 11
282.51485568
 21
270.66584243
 31
0.0
  0
LINE
  5
226
  8
0
 10
153.51485568
 20
360.66584243
 30
0.0
 11
148.51485568
 21
360.66584243
 31
0.0
  0
LINE
  5
227
  8
0
 10
148.51485568
 20
354.66584243
 30
0.0
 11
148.51485568
 21
360.66584243
 31
0.0
  0
LINE
  5
228
  8
0
 10
153.51485568
 20
354.66584243
 30
0.0
 11
148.51485568
 21
354.66584243
 31
0.0
  0
POLYLINE
  5
229
  8
0
 66
     1
 10
0.0
 20
0.0
 30
0.0
  0
VERTEX
  5
22A
  8
0
 10
153.51485568
 20
360.66584243
 30
0.0
  0
VERTEX
  5
22B
  8
0
 10
153.51485568
 20
354.66584243
 30
0.0
  0
VERTEX
  5
22C
  8
0
 10
148.51485568
 20
354.66584243
 30
0.0
  0
SEQEND
  5
22D
  8
0
  0
LINE
  5
22E
  8
0
 10
294.51485568
 20
270.66584243
 30
0.0
 11
288.51485568
 21
270.66584243
 31
0.0
  0
LINE
  5
22F
  8
0
 10
294.51485568
 20
275.66584243
 30
0.0
 11
288.51485568
 21
275.66584243
 31
0.0
  0
LINE
  5
230
  8
0
 10
294.51485568
 20
270.66584243
 30
0.0
 11
294.51485568
 21
275.66584243
 31
0.0
  0
LINE
  5
231
  8
0
 10
298.51485568
 20
270.66584243
 30
0.0
 11
294.51485568
 21
270.66584243
 31
0.0
  0
POLYLINE
  5
232
  8
0
 66
     1
 10
0.0
 20
0.0
 30
0.0
  0
VERTEX
  5
233
  8
0
 10
298.51485568
 20
270.66584243
 30
0.0
  0
VERTEX
  5
234
  8
0
 10
298.51485568
 20
275.66584243
 30
0.0
  0
VERTEX
  5
235
  8
0
 10
294.51485568
 20
275.66584243
 30
0.0
  0
SEQEND
  5
236
  8
0
  0
LINE
  5
237
  8
0
 10
153.51485568
 20
366.66584243
 30
0.0
 11
148.51485568
 21
366.66584243
 31
0.0
  0
LINE
  5
238
  8
0
 10
148.51485568
 20
360.66584243
 30
0.0
 11
148.51485568
 21
366.66584243
 31
0.0
  0
LINE
  5
239
  8
0
 10
153.51485568
 20
366.66584243
 30
0.0
 11
153.51485568
 21
360.66584243
 31
0.0
  0
LINE
  5
23A
  8
0
 10
153.51485568
 20
370.66584243
 30
0.0
 11
153.51485568
 21
366.66584243
 31
0.0
  0
LINE
  5
23B
  8
0
 10
153.51485568
 20
370.66584243
 30
0.0
 11
148.51485568
 21
370.66584243
 31
0.0
  0
LINE
  5
23C
  8
0
 10
148.51485568
 20
366.66584243
 30
0.0
 11
148.51485568
 21
370.66584243
 31
0.0
  0
POLYLINE
  5
23D
  8
0
 66
     1
 10
0.0
 20
0.0
 30
0.0
  0
VERTEX
  5
23E
  8
0
 10
148.51485568
 20
280.66584243
 30
0.0
  0
VERTEX
  5
23F
  8
0
 10
148.54571784
 20
279.88125483
 30
0.0
  0
VERTEX
  5
240
  8
0
 10
148.63798803
 20
279.10149952
 30
0.0
  0
VERTEX
  5
241
  8
0
 10
148.79117169
 20
278.33139322
 30
0.0
  0
VERTEX
  5
242
  8
0
 10
149.00432459
 20
277.57568297
 30
0.0
  0
VERTEX
  5
243
  8
0
 10
149.27606036
 20
276.83900811
 30
0.0
  0
VERTEX
  5
244
  8
0
 10
149.60482195
 20
276.12595412
 30
0.0
  0
VERTEX
  5
245
  8
0
 10
149.98846792
 20
275.44086442
 30
0.0
  0
VERTEX
  5
246
  8
0
 10
150.4246981
 20
274.78799982
 30
0.0
  0
VERTEX
  5
247
  8
0
 10
150.9108235
 20
274.17138467
 30
0.0
  0
VERTEX
  5
248
  8
0
 10
151.44378787
 20
273.59477462
 30
0.0
  0
VERTEX
  5
249
  8
0
 10
153.40976762
 20
275.56075437
 30
0.0
  0
SEQEND
  5
24A
  8
0
  0
POLYLINE
  5
24B
  8
0
 66
     1
 10
0.0
 20
0.0
 30
0.0
  0
VERTEX
  5
24C
  8
0
 10
151.44378787
 20
273.59477462
 30
0.0
  0
VERTEX
  5
24D
  8
0
 10
152.02039792
 20
273.06181025
 30
0.0
  0
VERTEX
  5
24E
  8
0
 10
152.63701307
 20
272.57568485
 30
0.0
  0
VERTEX
  5
24F
  8
0
 10
153.28987767
 20
272.13945467
 30
0.0
  0
VERTEX
  5
250
  8
0
 10
153.97496737
 20
271.7558087
 30
0.0
  0
VERTEX
  5
251
  8
0
 10
154.68802136
 20
271.42704711
 30
0.0
  0
VERTEX
  5
252
  8
0
 10
155.42469622
 20
271.15531134
 30
0.0
  0
VERTEX
  5
253
  8
0
 10
156.18040647
 20
270.94215844
 30
0.0
  0
VERTEX
  5
254
  8
0
 10
156.95051277
 20
270.78897478
 30
0.0
  0
VERTEX
  5
255
  8
0
 10
157.73026808
 20
270.69670459
 30
0.0
  0
VERTEX
  5
256
  8
0
 10
158.51485568
 20
270.66584243
 30
0.0
  0
SEQEND
  5
257
  8
0
  0
LINE
  5
258
  8
0
 10
158.51485568
 20
347.52298529
 30
0.0
 11
160.51485568
 21
344.66584243
 31
0.0
  0
LINE
  5
259
  8
0
 10
160.51485568
 20
282.66584243
 30
0.0
 11
160.51485568
 21
344.66584243
 31
0.0
  0
LINE
  5
25A
  8
0
 10
272.51485568
 20
282.66584243
 30
0.0
 11
160.51485568
 21
282.66584243
 31
0.0
  0
LINE
  5
25B
  8
0
 10
275.37199854
 20
280.66584243
 30
0.0
 11
272.51485568
 21
282.66584243
 31
0.0
  0
LINE
  5
25C
  8
0
 10
157.73026808
 20
280.15533363
 30
0.0
 11
158.51485568
 21
280.66584243
 31
0.0
  0
LINE
  5
25D
  8
0
 10
158.00434701
 20
280.15533363
 30
0.0
 11
158.51485568
 21
280.66584243
 31
0.0
  0
LINE
  5
25E
  8
0
 10
157.49383763
 20
279.64482482
 30
0.0
 11
158.00434701
 21
280.15533363
 31
0.0
  0
LINE
  5
25F
  8
0
 10
156.98333462
 20
279.13431602
 30
0.0
 11
157.49383763
 21
279.64482482
 31
0.0
  0
LINE
  5
260
  8
0
 10
156.47283227
 20
278.62380721
 30
0.0
 11
156.98333462
 21
279.13431602
 31
0.0
  0
LINE
  5
261
  8
0
 10
155.96231228
 20
278.1132984
 30
0.0
 11
156.47283227
 21
278.62380721
 31
0.0
  0
LINE
  5
262
  8
0
 10
155.45180343
 20
277.6027896
 30
0.0
 11
155.96231228
 21
278.1132984
 31
0.0
  0
LINE
  5
263
  8
0
 10
154.94127568
 20
277.09228079
 30
0.0
 11
155.45180343
 21
277.6027896
 31
0.0
  0
LINE
  5
264
  8
0
 10
154.4307653
 20
276.58177198
 30
0.0
 11
154.94127568
 21
277.09228079
 31
0.0
  0
LINE
  5
265
  8
0
 10
153.92027827
 20
276.07126318
 30
0.0
 11
154.4307653
 21
276.58177198
 31
0.0
  0
LINE
  5
266
  8
0
 10
153.40976762
 20
275.56075437
 30
0.0
 11
153.92027827
 21
276.07126318
 31
0.0
  0
LINE
  5
267
  8
0
 10
151.44378787
 20
275.56075437
 30
0.0
 11
153.40976762
 21
275.56075437
 31
0.0
  0
LINE
  5
268
  8
0
 10
152.02039792
 20
276.07126318
 30
0.0
 11
151.44378787
 21
275.56075437
 31
0.0
  0
LINE
  5
269
  8
0
 10
152.63701307
 20
276.58177198
 30
0.0
 11
152.02039792
 21
276.07126318
 31
0.0
  0
LINE
  5
26A
  8
0
 10
153.28987767
 20
277.09228079
 30
0.0
 11
152.63701307
 21
276.58177198
 31
0.0
  0
LINE
  5
26B
  8
0
 10
153.97496737
 20
277.6027896
 30
0.0
 11
153.28987767
 21
277.09228079
 31
0.0
  0
LINE
  5
26C
  8
0
 10
154.68802136
 20
278.1132984
 30
0.0
 11
153.97496737
 21
277.6027896
 31
0.0
  0
LINE
  5
26D
  8
0
 10
155.42469622
 20
278.62380721
 30
0.0
 11
154.68802136
 21
278.1132984
 31
0.0
  0
LINE
  5
26E
  8
0
 10
156.18040647
 20
279.13431602
 30
0.0
 11
155.42469622
 21
278.62380721
 31
0.0
  0
LINE
  5
26F
  8
0
 10
156.95051277
 20
279.64482482
 30
0.0
 11
156.18040647
 21
279.13431602
 31
0.0
  0
LINE
  5
270
  8
0
 10
157.73026808
 20
280.15533363
 30
0.0
 11
156.95051277
 21
279.64482482
 31
0.0
  0
POLYLINE
  5
271
  8
0
 66
     1
 10
0.0
 20
0.0
 30
0.0
  0
VERTEX
  5
272
  8
0
 10
151.44378787
 20
275.56075437
 30
0.0
  0
VERTEX
  5
273
  8
0
 10
150.9108235
 20
276.07126318
 30
0.0
  0
VERTEX
  5
274
  8
0
 10
150.4246981
 20
276.58177198
 30
0.0
  0
VERTEX
  5
275
  8
0
 10
149.98846792
 20
277.09228079
 30
0.0
  0
VERTEX
  5
276
  8
0
 10
149.60482195
 20
277.6027896
 30
0.0
  0
VERTEX
  5
277
  8
0
 10
149.27606036
 20
278.1132984
 30
0.0
  0
VERTEX
  5
278
  8
0
 10
149.00432459
 20
278.62380721
 30
0.0
  0
VERTEX
  5
279
  8
0
 10
148.79117169
 20
279.13431602
 30
0.0
  0
VERTEX
  5
27A
  8
0
 10
148.63798803
 20
279.64482482
 30
0.0
  0
VERTEX
  5
27B
  8
0
 10
148.54571784
 20
280.15533363
 30
0.0
  0
VERTEX
  5
27C
  8
0
 10
148.51485568
 20
280.66584243
 30
0.0
  0
VERTEX
  5
27D
  8
0
 10
148.51485568
 20
347.52298529
 30
0.0
  0
SEQEND
  5
27E
  8
0
  0
POLYLINE
  5
27F
  8
0
 66
     1
 10
0.0
 20
0.0
 30
0.0
  0
VERTEX
  5
280
  8
0
 10
153.40976762
 20
275.56075437
 30
0.0
  0
VERTEX
  5
281
  8
0
 10
153.40976762
 20
273.59477462
 30
0.0
  0
VERTEX
  5
282
  8
0
 10
153.92027643
 20
274.17138467
 30
0.0
  0
SEQEND
  5
283
  8
0
  0
LINE
  5
284
  8
0
 10
153.40976762
 20
273.59477462
 30
0.0
 11
275.37199854
 21
273.59477462
 31
0.0
  0
LINE
  5
285
  8
0
 10
154.43078523
 20
274.78799982
 30
0.0
 11
154.94129404
 21
275.44086442
 31
0.0
  0
LINE
  5
286
  8
0
 10
154.43078523
 20
274.78799982
 30
0.0
 11
153.92027643
 21
274.17138467
 31
0.0
  0
LINE
  5
287
  8
0
 10
155.45180285
 20
276.12595412
 30
0.0
 11
154.94129404
 21
275.44086442
 31
0.0
  0
LINE
  5
288
  8
0
 10
155.45180285
 20
276.12595412
 30
0.0
 11
155.96231165
 21
276.83900811
 31
0.0
  0
LINE
  5
289
  8
0
 10
156.47282046
 20
277.57568297
 30
0.0
 11
155.96231165
 21
276.83900811
 31
0.0
  0
LINE
  5
28A
  8
0
 10
156.47282046
 20
277.57568297
 30
0.0
 11
156.98332926
 21
278.33139322
 31
0.0
  0
LINE
  5
28B
  8
0
 10
157.49383807
 20
279.10149952
 30
0.0
 11
156.98332926
 21
278.33139322
 31
0.0
  0
LINE
  5
28C
  8
0
 10
158.51485568
 20
280.66584243
 30
0.0
 11
158.00434688
 21
279.88125483
 31
0.0
  0
LINE
  5
28D
  8
0
 10
157.49383807
 20
279.10149952
 30
0.0
 11
158.00434688
 21
279.88125483
 31
0.0
  0
POLYLINE
  5
28E
  8
0
 66
     1
 10
0.0
 20
0.0
 30
0.0
  0
VERTEX
  5
28F
  8
0
 10
153.40976762
 20
273.59477462
 30
0.0
  0
VERTEX
  5
290
  8
0
 10
153.92027643
 20
273.06181025
 30
0.0
  0
VERTEX
  5
291
  8
0
 10
154.43078523
 20
272.57568485
 30
0.0
  0
VERTEX
  5
292
  8
0
 10
154.94129404
 20
272.13945467
 30
0.0
  0
VERTEX
  5
293
  8
0
 10
155.45180285
 20
271.7558087
 30
0.0
  0
VERTEX
  5
294
  8
0
 10
155.96231165
 20
271.42704711
 30
0.0
  0
VERTEX
  5
295
  8
0
 10
156.47282046
 20
271.15531134
 30
0.0
  0
VERTEX
  5
296
  8
0
 10
156.98332926
 20
270.94215844
 30
0.0
  0
SEQEND
  5
297
  8
0
  0
LINE
  5
298
  8
0
 10
157.49383807
 20
270.78897478
 30
0.0
 11
156.98332926
 21
270.94215844
 31
0.0
  0
LINE
  5
299
  8
0
 10
157.49383807
 20
270.78897478
 30
0.0
 11
158.00434688
 21
270.69670459
 31
0.0
  0
LINE
  5
29A
  8
0
 10
158.51485568
 20
270.66584243
 30
0.0
 11
158.00434688
 21
270.69670459
 31
0.0
  0
LINE
  5
29B
  8
0
 10
275.37199854
 20
270.66584243
 30
0.0
 11
158.51485568
 21
270.66584243
 31
0.0
  0
ENDBLK
  8
0
  0
BLOCK
  8
0
  2
1X_BL_10X7_143X72_000_S235
 70
     0
 10
0.0
 20
0.0
 30
0.0
  0
INSERT
  5
29E
  8
0
  2
1X_BL_10X7_143X72_000_S230
 10
281.53307338
 20
276.35309005
 30
0.0
  0
ENDBLK
  8
0
  0
BLOCK
  8
0
  2
1X_BL_10X7_143X72_000_S230
 70
     0
 10
281.53307338
 20
276.35309005
 30
0.0
  0
LINE
  5
2A1
  8
0
 10
281.53307338
 20
276.35309005
 30
0.0
 11
282.51485568
 21
275.66584243
 31
0.0
  0
POLYLINE
  5
2A2
  8
0
 66
     1
 10
0.0
 20
0.0
 30
0.0
  0
VERTEX
  5
2A3
  8
0
 10
281.53307338
 20
270.66584243
 30
0.0
  0
VERTEX
  5
2A4
  8
0
 10
282.51485568
 20
270.66584243
 30
0.0
  0
VERTEX
  5
2A5
  8
0
 10
282.51485568
 20
275.66584243
 30
0.0
  0
SEQEND
  5
2A6
  8
0
  0
LINE
  5
2A7
  8
0
 10
281.53307338
 20
270.66584243
 30
0.0
 11
276.04158516
 21
270.66584243
 31
0.0
  0
LINE
  5
2A8
  8
0
 10
276.04158516
 20
280.1971318
 30
0.0
 11
281.53307338
 21
276.35309005
 31
0.0
  0
LINE
  5
2A9
  8
0
 10
275.37199854
 20
280.66584243
 30
0.0
 11
276.04158516
 21
280.1971318
 31
0.0
  0
POLYLINE
  5
2AA
  8
0
 66
     1
 10
0.0
 20
0.0
 30
0.0
  0
VERTEX
  5
2AB
  8
0
 10
276.04158516
 20
270.66584243
 30
0.0
  0
VERTEX
  5
2AC
  8
0
 10
275.37199854
 20
270.66584243
 30
0.0
  0
VERTEX
  5
2AD
  8
0
 10
275.37199854
 20
280.66584243
 30
0.0
  0
SEQEND
  5
2AE
  8
0
  0
ENDBLK
  8
0
  0
BLOCK
  8
0
  2
1X_BL_10X7_143X72_000_S231
 70
     0
 10
0.0
 20
0.0
 30
0.0
  0
INSERT
  5
2B1
  8
0
  2
1X_BL_10X7_143X72_000_S232
 10
148.51485568
 20
353.68406013
 30
0.0
  0
ENDBLK
  8
0
  0
BLOCK
  8
0
  2
1X_BL_10X7_143X72_000_S232
 70
     0
 10
148.51485568
 20
353.68406013
 30
0.0
  0
POLYLINE
  5
2B4
  8
0
 66
     1
 10
0.0
 20
0.0
 30
0.0
  0
VERTEX
  5
2B5
  8
0
 10
148.51485568
 20
353.68406013
 30
0.0
  0
VERTEX
  5
2B6
  8
0
 10
148.51485568
 20
354.66584243
 30
0.0
  0
VERTEX
  5
2B7
  8
0
 10
153.51485568
 20
354.66584243
 30
0.0
  0
VERTEX
  5
2B8
  8
0
 10
154.2021033
 20
353.68406013
 30
0.0
  0
SEQEND
  5
2B9
  8
0
  0
LINE
  5
2BA
  8
0
 10
148.51485568
 20
348.19257191
 30
0.0
 11
148.51485568
 21
353.68406013
 31
0.0
  0
POLYLINE
  5
2BB
  8
0
 66
     1
 10
0.0
 20
0.0
 30
0.0
  0
VERTEX
  5
2BC
  8
0
 10
154.2021033
 20
353.68406013
 30
0.0
  0
VERTEX
  5
2BD
  8
0
 10
158.04614505
 20
348.19257191
 30
0.0
  0
VERTEX
  5
2BE
  8
0
 10
158.51485568
 20
347.52298529
 30
0.0
  0
SEQEND
  5
2BF
  8
0
  0
LINE
  5
2C0
  8
0
 10
148.51485568
 20
347.52298529
 30
0.0
 11
148.51485568
 21
348.19257191
 31
0.0
  0
LINE
  5
2C1
  8
0
 10
158.51485568
 20
347.52298529
 30
0.0
 11
148.51485568
 21
347.52298529
 31
0.0
  0
ENDBLK
  8
0
  0
BLOCK
  8
0
  2
_ANS0003_00025
 70
     0
 10
0.0
 20
0.0
 30
0.0
  0
INSERT
  5
2C4
  8
0
  2
_A3D0003_00026
 10
0.0
 20
0.0
 30
0.0
  0
ENDBLK
  8
0
  0
BLOCK
  8
0
  2
_A3D0003_00026
 70
     0
 10
0.0
 20
0.0
 30
0.0
  0
INSERT
  5
2C7
  8
0
  2
SVH04-ANKER_00027
 10
0.0
 20
0.0
 30
0.0
  0
ENDBLK
  8
0
  0
BLOCK
  8
0
  2
SVH04-ANKER_00027
 70
     0
 10
0.0
 20
0.0
 30
0.0
  0
INSERT
  5
2CA
  8
0
  2
1X_PLAAT_5MM-240_210X72_02
 10
0.0
 20
0.0
 30
0.0
  0
INSERT
  5
2CB
  8
0
  2
1X_BL_10X7_143X72_000_S233
 10
0.0
 20
0.0
 30
0.0
  0
INSERT
  5
2CC
  8
0
  2
1X_BL_10X7_143X72_000_S236
 10
0.0
 20
0.0
 30
0.0
  0
ENDBLK
  8
0
  0
BLOCK
  8
0
  2
1X_PLAAT_5MM-240_210X72_02
 70
     0
 10
0.0
 20
0.0
 30
0.0
  0
INSERT
  5
2CF
  8
0
  2
1X_PLAAT_5MM-240_210X72_03
 10
148.51485568
 20
175.86906767
 30
0.0
  0
ENDBLK
  8
0
  0
BLOCK
  8
0
  2
1X_PLAAT_5MM-240_210X72_03
 70
     0
 10
148.51485568
 20
175.86906767
 30
0.0
  0
LINE
  5
2D2
  8
0
 10
148.51485568
 20
175.86906767
 30
0.0
 11
148.51485568
 21
178.86906767
 31
0.0
  0
LINE
  5
2D3
  8
0
 10
153.51485568
 20
175.86906767
 30
0.0
 11
148.51485568
 21
175.86906767
 31
0.0
  0
LINE
  5
2D4
  8
0
 10
153.51485568
 20
178.86906767
 30
0.0
 11
153.51485568
 21
175.86906767
 31
0.0
  0
LINE
  5
2D5
  8
0
 10
153.51485568
 20
247.86906767
 30
0.0
 11
153.51485568
 21
244.86906767
 31
0.0
  0
POLYLINE
  5
2D6
  8
0
 66
     1
 10
0.0
 20
0.0
 30
0.0
  0
VERTEX
  5
2D7
  8
0
 10
153.51485568
 20
247.86906767
 30
0.0
  0
VERTEX
  5
2D8
  8
0
 10
148.51485568
 20
247.86906767
 30
0.0
  0
VERTEX
  5
2D9
  8
0
 10
148.51485568
 20
244.86906767
 30
0.0
  0
SEQEND
  5
2DA
  8
0
  0
POLYLINE
  5
2DB
  8
0
 66
     1
 10
0.0
 20
0.0
 30
0.0
  0
VERTEX
  5
2DC
  8
0
 10
153.51485568
 20
232.86906767
 30
0.0
  0
VERTEX
  5
2DD
  8
0
 10
153.89545802
 20
234.78248483
 30
0.0
  0
VERTEX
  5
2DE
  8
0
 10
154.97932178
 20
236.40460158
 30
0.0
  0
VERTEX
  5
2DF
  8
0
 10
156.60143852
 20
237.48846533
 30
0.0
  0
VERTEX
  5
2E0
  8
0
 10
158.51485568
 20
237.86906767
 30
0.0
  0
VERTEX
  5
2E1
  8
0
 10
160.51485568
 20
237.86906767
 30
0.0
  0
VERTEX
  5
2E2
  8
0
 10
160.51485568
 20
242.86906767
 30
0.0
  0
VERTEX
  5
2E3
  8
0
 10
158.51485568
 20
242.86906767
 30
0.0
  0
SEQEND
  5
2E4
  8
0
  0
LINE
  5
2E5
  8
0
 10
154.68802136
 20
242.107863
 30
0.0
 11
158.51485568
 21
242.86906767
 31
0.0
  0
LINE
  5
2E6
  8
0
 10
154.68802136
 20
242.107863
 30
0.0
 11
153.51485568
 21
241.52932171
 31
0.0
  0
POLYLINE
  5
2E7
  8
0
 66
     1
 10
0.0
 20
0.0
 30
0.0
  0
VERTEX
  5
2E8
  8
0
 10
158.51485568
 20
180.86906767
 30
0.0
  0
VERTEX
  5
2E9
  8
0
 10
160.51485568
 20
180.86906767
 30
0.0
  0
VERTEX
  5
2EA
  8
0
 10
160.51485568
 20
185.86906767
 30
0.0
  0
VERTEX
  5
2EB
  8
0
 10
158.51485568
 20
185.86906767
 30
0.0
  0
VERTEX
  5
2EC
  8
0
 10
156.60143852
 20
186.24967001
 30
0.0
  0
VERTEX
  5
2ED
  8
0
 10
154.97932178
 20
187.33353377
 30
0.0
  0
VERTEX
  5
2EE
  8
0
 10
153.89545802
 20
188.95565051
 30
0.0
  0
SEQEND
  5
2EF
  8
0
  0
LINE
  5
2F0
  8
0
 10
153.51485568
 20
190.86906767
 30
0.0
 11
153.89545802
 21
188.95565051
 31
0.0
  0
POLYLINE
  5
2F1
  8
0
 66
     1
 10
0.0
 20
0.0
 30
0.0
  0
VERTEX
  5
2F2
  8
0
 10
153.51485568
 20
182.20881363
 30
0.0
  0
VERTEX
  5
2F3
  8
0
 10
154.68802136
 20
181.63027235
 30
0.0
  0
VERTEX
  5
2F4
  8
0
 10
158.51485568
 20
180.86906767
 30
0.0
  0
SEQEND
  5
2F5
  8
0
  0
LINE
  5
2F6
  8
0
 10
153.51485568
 20
184.86906767
 30
0.0
 11
148.51485568
 21
184.86906767
 31
0.0
  0
LINE
  5
2F7
  8
0
 10
148.51485568
 20
178.86906767
 30
0.0
 11
148.51485568
 21
184.86906767
 31
0.0
  0
LINE
  5
2F8
  8
0
 10
153.51485568
 20
178.86906767
 30
0.0
 11
148.51485568
 21
178.86906767
 31
0.0
  0
LINE
  5
2F9
  8
0
 10
153.51485568
 20
184.86906767
 30
0.0
 11
153.51485568
 21
178.86906767
 31
0.0
  0
LINE
  5
2FA
  8
0
 10
153.51485568
 20
238.86906767
 30
0.0
 11
153.51485568
 21
184.86906767
 31
0.0
  0
LINE
  5
2FB
  8
0
 10
153.51485568
 20
238.86906767
 30
0.0
 11
148.51485568
 21
238.86906767
 31
0.0
  0
POLYLINE
  5
2FC
  8
0
 66
     1
 10
0.0
 20
0.0
 30
0.0
  0
VERTEX
  5
2FD
  8
0
 10
148.51485568
 20
184.86906767
 30
0.0
  0
VERTEX
  5
2FE
  8
0
 10
148.51485568
 20
238.86906767
 30
0.0
  0
VERTEX
  5
2FF
  8
0
 10
148.51485568
 20
244.86906767
 30
0.0
  0
VERTEX
  5
300
  8
0
 10
153.51485568
 20
244.86906767
 30
0.0
  0
VERTEX
  5
301
  8
0
 10
153.51485568
 20
238.86906767
 30
0.0
  0
SEQEND
  5
302
  8
0
  0
POLYLINE
  5
303
  8
0
 66
     1
 10
0.0
 20
0.0
 30
0.0
 70
     1
  0
VERTEX
  5
304
  8
0
 10
184.8542477
 20
224.13548931
 30
0.0
  0
VERTEX
  5
305
  8
0
 10
183.51485568
 20
223.86906767
 30
0.0
  0
VERTEX
  5
306
  8
0
 10
182.17546367
 20
224.13548931
 30
0.0
  0
VERTEX
  5
307
  8
0
 10
181.03998195
 20
224.89419394
 30
0.0
  0
VERTEX
  5
308
  8
0
 10
180.28127732
 20
226.02967566
 30
0.0
  0
VERTEX
  5
309
  8
0
 10
180.01485568
 20
227.36906767
 30
0.0
  0
VERTEX
  5
30A
  8
0
 10
180.28127732
 20
228.70845968
 30
0.0
  0
VERTEX
  5
30B
  8
0
 10
181.03998195
 20
229.84394141
 30
0.0
  0
VERTEX
  5
30C
  8
0
 10
182.17546367
 20
230.60264604
 30
0.0
  0
VERTEX
  5
30D
  8
0
 10
183.51485568
 20
230.86906767
 30
0.0
  0
VERTEX
  5
30E
  8
0
 10
184.8542477
 20
230.60264604
 30
0.0
  0
VERTEX
  5
30F
  8
0
 10
185.98972942
 20
229.84394141
 30
0.0
  0
VERTEX
  5
310
  8
0
 10
186.74843405
 20
228.70845968
 30
0.0
  0
VERTEX
  5
311
  8
0
 10
187.01485568
 20
227.36906767
 30
0.0
  0
VERTEX
  5
312
  8
0
 10
186.74843405
 20
226.02967566
 30
0.0
  0
VERTEX
  5
313
  8
0
 10
185.98972942
 20
224.89419394
 30
0.0
  0
SEQEND
  5
314
  8
0
  0
POLYLINE
  5
315
  8
0
 66
     1
 10
0.0
 20
0.0
 30
0.0
 70
     1
  0
VERTEX
  5
316
  8
0
 10
234.8542477
 20
193.13548931
 30
0.0
  0
VERTEX
  5
317
  8
0
 10
233.51485568
 20
192.86906767
 30
0.0
  0
VERTEX
  5
318
  8
0
 10
232.17546367
 20
193.13548931
 30
0.0
  0
VERTEX
  5
319
  8
0
 10
231.03998195
 20
193.89419394
 30
0.0
  0
VERTEX
  5
31A
  8
0
 10
230.28127732
 20
195.02967566
 30
0.0
  0
VERTEX
  5
31B
  8
0
 10
230.01485568
 20
196.36906767
 30
0.0
  0
VERTEX
  5
31C
  8
0
 10
230.28127732
 20
197.70845968
 30
0.0
  0
VERTEX
  5
31D
  8
0
 10
231.03998195
 20
198.84394141
 30
0.0
  0
VERTEX
  5
31E
  8
0
 10
232.17546367
 20
199.60264604
 30
0.0
  0
VERTEX
  5
31F
  8
0
 10
233.51485568
 20
199.86906767
 30
0.0
  0
VERTEX
  5
320
  8
0
 10
234.8542477
 20
199.60264604
 30
0.0
  0
VERTEX
  5
321
  8
0
 10
235.98972942
 20
198.84394141
 30
0.0
  0
VERTEX
  5
322
  8
0
 10
236.74843405
 20
197.70845968
 30
0.0
  0
VERTEX
  5
323
  8
0
 10
237.01485568
 20
196.36906767
 30
0.0
  0
VERTEX
  5
324
  8
0
 10
236.74843405
 20
195.02967566
 30
0.0
  0
VERTEX
  5
325
  8
0
 10
235.98972942
 20
193.89419394
 30
0.0
  0
SEQEND
  5
326
  8
0
  0
POLYLINE
  5
327
  8
0
 66
     1
 10
0.0
 20
0.0
 30
0.0
 70
     1
  0
VERTEX
  5
328
  8
0
 10
234.8542477
 20
224.13548931
 30
0.0
  0
VERTEX
  5
329
  8
0
 10
233.51485568
 20
223.86906767
 30
0.0
  0
VERTEX
  5
32A
  8
0
 10
232.17546367
 20
224.13548931
 30
0.0
  0
VERTEX
  5
32B
  8
0
 10
231.03998195
 20
224.89419394
 30
0.0
  0
VERTEX
  5
32C
  8
0
 10
230.28127732
 20
226.02967566
 30
0.0
  0
VERTEX
  5
32D
  8
0
 10
230.01485568
 20
227.36906767
 30
0.0
  0
VERTEX
  5
32E
  8
0
 10
230.28127732
 20
228.70845968
 30
0.0
  0
VERTEX
  5
32F
  8
0
 10
231.03998195
 20
229.84394141
 30
0.0
  0
VERTEX
  5
330
  8
0
 10
232.17546367
 20
230.60264604
 30
0.0
  0
VERTEX
  5
331
  8
0
 10
233.51485568
 20
230.86906767
 30
0.0
  0
VERTEX
  5
332
  8
0
 10
234.8542477
 20
230.60264604
 30
0.0
  0
VERTEX
  5
333
  8
0
 10
235.98972942
 20
229.84394141
 30
0.0
  0
VERTEX
  5
334
  8
0
 10
236.74843405
 20
228.70845968
 30
0.0
  0
VERTEX
  5
335
  8
0
 10
237.01485568
 20
227.36906767
 30
0.0
  0
VERTEX
  5
336
  8
0
 10
236.74843405
 20
226.02967566
 30
0.0
  0
VERTEX
  5
337
  8
0
 10
235.98972942
 20
224.89419394
 30
0.0
  0
SEQEND
  5
338
  8
0
  0
POLYLINE
  5
339
  8
0
 66
     1
 10
0.0
 20
0.0
 30
0.0
 70
     1
  0
VERTEX
  5
33A
  8
0
 10
236.00229799
 20
205.86385071
 30
0.0
  0
VERTEX
  5
33B
  8
0
 10
233.51485568
 20
205.36906767
 30
0.0
  0
VERTEX
  5
33C
  8
0
 10
231.02741337
 20
205.86385071
 30
0.0
  0
VERTEX
  5
33D
  8
0
 10
228.91866161
 20
207.27287359
 30
0.0
  0
VERTEX
  5
33E
  8
0
 10
227.50963872
 20
209.38162536
 30
0.0
  0
VERTEX
  5
33F
  8
0
 10
227.01485568
 20
211.86906767
 30
0.0
  0
VERTEX
  5
340
  8
0
 10
227.50963872
 20
214.35650998
 30
0.0
  0
VERTEX
  5
341
  8
0
 10
228.91866161
 20
216.46526175
 30
0.0
  0
VERTEX
  5
342
  8
0
 10
231.02741337
 20
217.87428463
 30
0.0
  0
VERTEX
  5
343
  8
0
 10
233.51485568
 20
218.36906767
 30
0.0
  0
VERTEX
  5
344
  8
0
 10
236.00229799
 20
217.87428463
 30
0.0
  0
VERTEX
  5
345
  8
0
 10
238.11104976
 20
216.46526175
 30
0.0
  0
VERTEX
  5
346
  8
0
 10
239.52007264
 20
214.35650998
 30
0.0
  0
VERTEX
  5
347
  8
0
 10
240.01485568
 20
211.86906767
 30
0.0
  0
VERTEX
  5
348
  8
0
 10
239.52007264
 20
209.38162536
 30
0.0
  0
VERTEX
  5
349
  8
0
 10
238.11104976
 20
207.27287359
 30
0.0
  0
SEQEND
  5
34A
  8
0
  0
POLYLINE
  5
34B
  8
0
 66
     1
 10
0.0
 20
0.0
 30
0.0
 70
     1
  0
VERTEX
  5
34C
  8
0
 10
185.23693113
 20
192.21160977
 30
0.0
  0
VERTEX
  5
34D
  8
0
 10
183.51485568
 20
191.86906767
 30
0.0
  0
VERTEX
  5
34E
  8
0
 10
181.79278024
 20
192.21160977
 30
0.0
  0
VERTEX
  5
34F
  8
0
 10
180.33287517
 20
193.18708716
 30
0.0
  0
VERTEX
  5
350
  8
0
 10
179.35739779
 20
194.64699223
 30
0.0
  0
VERTEX
  5
351
  8
0
 10
179.01485568
 20
196.36906767
 30
0.0
  0
VERTEX
  5
352
  8
0
 10
179.35739779
 20
198.09114312
 30
0.0
  0
VERTEX
  5
353
  8
0
 10
180.33287517
 20
199.55104819
 30
0.0
  0
VERTEX
  5
354
  8
0
 10
181.79278024
 20
200.52652557
 30
0.0
  0
VERTEX
  5
355
  8
0
 10
183.51485568
 20
200.86906767
 30
0.0
  0
VERTEX
  5
356
  8
0
 10
185.23693113
 20
200.52652557
 30
0.0
  0
VERTEX
  5
357
  8
0
 10
186.6968362
 20
199.55104819
 30
0.0
  0
VERTEX
  5
358
  8
0
 10
187.67231358
 20
198.09114312
 30
0.0
  0
VERTEX
  5
359
  8
0
 10
188.01485568
 20
196.36906767
 30
0.0
  0
VERTEX
  5
35A
  8
0
 10
187.67231358
 20
194.64699223
 30
0.0
  0
VERTEX
  5
35B
  8
0
 10
186.6968362
 20
193.18708716
 30
0.0
  0
SEQEND
  5
35C
  8
0
  0
POLYLINE
  5
35D
  8
0
 66
     1
 10
0.0
 20
0.0
 30
0.0
 70
     1
  0
VERTEX
  5
35E
  8
0
 10
205.23693113
 20
223.21160977
 30
0.0
  0
VERTEX
  5
35F
  8
0
 10
203.51485568
 20
222.86906767
 30
0.0
  0
VERTEX
  5
360
  8
0
 10
201.79278024
 20
223.21160977
 30
0.0
  0
VERTEX
  5
361
  8
0
 10
200.33287517
 20
224.18708716
 30
0.0
  0
VERTEX
  5
362
  8
0
 10
199.35739779
 20
225.64699223
 30
0.0
  0
VERTEX
  5
363
  8
0
 10
199.01485568
 20
227.36906767
 30
0.0
  0
VERTEX
  5
364
  8
0
 10
199.35739779
 20
229.09114312
 30
0.0
  0
VERTEX
  5
365
  8
0
 10
200.33287517
 20
230.55104819
 30
0.0
  0
VERTEX
  5
366
  8
0
 10
201.79278024
 20
231.52652557
 30
0.0
  0
VERTEX
  5
367
  8
0
 10
203.51485568
 20
231.86906767
 30
0.0
  0
VERTEX
  5
368
  8
0
 10
205.23693113
 20
231.52652557
 30
0.0
  0
VERTEX
  5
369
  8
0
 10
206.6968362
 20
230.55104819
 30
0.0
  0
VERTEX
  5
36A
  8
0
 10
207.67231358
 20
229.09114312
 30
0.0
  0
VERTEX
  5
36B
  8
0
 10
208.01485568
 20
227.36906767
 30
0.0
  0
VERTEX
  5
36C
  8
0
 10
207.67231358
 20
225.64699223
 30
0.0
  0
VERTEX
  5
36D
  8
0
 10
206.6968362
 20
224.18708716
 30
0.0
  0
SEQEND
  5
36E
  8
0
  0
POLYLINE
  5
36F
  8
0
 66
     1
 10
0.0
 20
0.0
 30
0.0
 70
     1
  0
VERTEX
  5
370
  8
0
 10
255.23693113
 20
192.21160977
 30
0.0
  0
VERTEX
  5
371
  8
0
 10
253.51485568
 20
191.86906767
 30
0.0
  0
VERTEX
  5
372
  8
0
 10
251.79278024
 20
192.21160977
 30
0.0
  0
VERTEX
  5
373
  8
0
 10
250.33287517
 20
193.18708716
 30
0.0
  0
VERTEX
  5
374
  8
0
 10
249.35739779
 20
194.64699223
 30
0.0
  0
VERTEX
  5
375
  8
0
 10
249.01485568
 20
196.36906767
 30
0.0
  0
VERTEX
  5
376
  8
0
 10
249.35739779
 20
198.09114312
 30
0.0
  0
VERTEX
  5
377
  8
0
 10
250.33287517
 20
199.55104819
 30
0.0
  0
VERTEX
  5
378
  8
0
 10
251.79278024
 20
200.52652557
 30
0.0
  0
VERTEX
  5
379
  8
0
 10
253.51485568
 20
200.86906767
 30
0.0
  0
VERTEX
  5
37A
  8
0
 10
255.23693113
 20
200.52652557
 30
0.0
  0
VERTEX
  5
37B
  8
0
 10
256.6968362
 20
199.55104819
 30
0.0
  0
VERTEX
  5
37C
  8
0
 10
257.67231358
 20
198.09114312
 30
0.0
  0
VERTEX
  5
37D
  8
0
 10
258.01485568
 20
196.36906767
 30
0.0
  0
VERTEX
  5
37E
  8
0
 10
257.67231358
 20
194.64699223
 30
0.0
  0
VERTEX
  5
37F
  8
0
 10
256.6968362
 20
193.18708716
 30
0.0
  0
SEQEND
  5
380
  8
0
  0
POLYLINE
  5
381
  8
0
 66
     1
 10
0.0
 20
0.0
 30
0.0
 70
     1
  0
VERTEX
  5
382
  8
0
 10
275.23693113
 20
223.21160977
 30
0.0
  0
VERTEX
  5
383
  8
0
 10
273.51485568
 20
222.86906767
 30
0.0
  0
VERTEX
  5
384
  8
0
 10
271.79278024
 20
223.21160977
 30
0.0
  0
VERTEX
  5
385
  8
0
 10
270.33287517
 20
224.18708716
 30
0.0
  0
VERTEX
  5
386
  8
0
 10
269.35739779
 20
225.64699223
 30
0.0
  0
VERTEX
  5
387
  8
0
 10
269.01485568
 20
227.36906767
 30
0.0
  0
VERTEX
  5
388
  8
0
 10
269.35739779
 20
229.09114312
 30
0.0
  0
VERTEX
  5
389
  8
0
 10
270.33287517
 20
230.55104819
 30
0.0
  0
VERTEX
  5
38A
  8
0
 10
271.79278024
 20
231.52652557
 30
0.0
  0
VERTEX
  5
38B
  8
0
 10
273.51485568
 20
231.86906767
 30
0.0
  0
VERTEX
  5
38C
  8
0
 10
275.23693113
 20
231.52652557
 30
0.0
  0
VERTEX
  5
38D
  8
0
 10
276.6968362
 20
230.55104819
 30
0.0
  0
VERTEX
  5
38E
  8
0
 10
277.67231358
 20
229.09114312
 30
0.0
  0
VERTEX
  5
38F
  8
0
 10
278.01485568
 20
227.36906767
 30
0.0
  0
VERTEX
  5
390
  8
0
 10
277.67231358
 20
225.64699223
 30
0.0
  0
VERTEX
  5
391
  8
0
 10
276.6968362
 20
224.18708716
 30
0.0
  0
SEQEND
  5
392
  8
0
  0
POLYLINE
  5
393
  8
0
 66
     1
 10
0.0
 20
0.0
 30
0.0
 70
     1
  0
VERTEX
  5
394
  8
0
 10
274.8542477
 20
193.13548931
 30
0.0
  0
VERTEX
  5
395
  8
0
 10
273.51485568
 20
192.86906767
 30
0.0
  0
VERTEX
  5
396
  8
0
 10
272.17546367
 20
193.13548931
 30
0.0
  0
VERTEX
  5
397
  8
0
 10
271.03998195
 20
193.89419394
 30
0.0
  0
VERTEX
  5
398
  8
0
 10
270.28127732
 20
195.02967566
 30
0.0
  0
VERTEX
  5
399
  8
0
 10
270.01485568
 20
196.36906767
 30
0.0
  0
VERTEX
  5
39A
  8
0
 10
270.28127732
 20
197.70845968
 30
0.0
  0
VERTEX
  5
39B
  8
0
 10
271.03998195
 20
198.84394141
 30
0.0
  0
VERTEX
  5
39C
  8
0
 10
272.17546367
 20
199.60264604
 30
0.0
  0
VERTEX
  5
39D
  8
0
 10
273.51485568
 20
199.86906767
 30
0.0
  0
VERTEX
  5
39E
  8
0
 10
274.8542477
 20
199.60264604
 30
0.0
  0
VERTEX
  5
39F
  8
0
 10
275.98972942
 20
198.84394141
 30
0.0
  0
VERTEX
  5
3A0
  8
0
 10
276.74843405
 20
197.70845968
 30
0.0
  0
VERTEX
  5
3A1
  8
0
 10
277.01485568
 20
196.36906767
 30
0.0
  0
VERTEX
  5
3A2
  8
0
 10
276.74843405
 20
195.02967566
 30
0.0
  0
VERTEX
  5
3A3
  8
0
 10
275.98972942
 20
193.89419394
 30
0.0
  0
SEQEND
  5
3A4
  8
0
  0
POLYLINE
  5
3A5
  8
0
 66
     1
 10
0.0
 20
0.0
 30
0.0
 70
     1
  0
VERTEX
  5
3A6
  8
0
 10
204.8542477
 20
193.13548931
 30
0.0
  0
VERTEX
  5
3A7
  8
0
 10
203.51485568
 20
192.86906767
 30
0.0
  0
VERTEX
  5
3A8
  8
0
 10
202.17546367
 20
193.13548931
 30
0.0
  0
VERTEX
  5
3A9
  8
0
 10
201.03998195
 20
193.89419394
 30
0.0
  0
VERTEX
  5
3AA
  8
0
 10
200.28127732
 20
195.02967566
 30
0.0
  0
VERTEX
  5
3AB
  8
0
 10
200.01485568
 20
196.36906767
 30
0.0
  0
VERTEX
  5
3AC
  8
0
 10
200.28127732
 20
197.70845968
 30
0.0
  0
VERTEX
  5
3AD
  8
0
 10
201.03998195
 20
198.84394141
 30
0.0
  0
VERTEX
  5
3AE
  8
0
 10
202.17546367
 20
199.60264604
 30
0.0
  0
VERTEX
  5
3AF
  8
0
 10
203.51485568
 20
199.86906767
 30
0.0
  0
VERTEX
  5
3B0
  8
0
 10
204.8542477
 20
199.60264604
 30
0.0
  0
VERTEX
  5
3B1
  8
0
 10
205.98972942
 20
198.84394141
 30
0.0
  0
VERTEX
  5
3B2
  8
0
 10
206.74843405
 20
197.70845968
 30
0.0
  0
VERTEX
  5
3B3
  8
0
 10
207.01485568
 20
196.36906767
 30
0.0
  0
VERTEX
  5
3B4
  8
0
 10
206.74843405
 20
195.02967566
 30
0.0
  0
VERTEX
  5
3B5
  8
0
 10
205.98972942
 20
193.89419394
 30
0.0
  0
SEQEND
  5
3B6
  8
0
  0
POLYLINE
  5
3B7
  8
0
 66
     1
 10
0.0
 20
0.0
 30
0.0
 70
     1
  0
VERTEX
  5
3B8
  8
0
 10
254.8542477
 20
224.13548931
 30
0.0
  0
VERTEX
  5
3B9
  8
0
 10
253.51485568
 20
223.86906767
 30
0.0
  0
VERTEX
  5
3BA
  8
0
 10
252.17546367
 20
224.13548931
 30
0.0
  0
VERTEX
  5
3BB
  8
0
 10
251.03998195
 20
224.89419394
 30
0.0
  0
VERTEX
  5
3BC
  8
0
 10
250.28127732
 20
226.02967566
 30
0.0
  0
VERTEX
  5
3BD
  8
0
 10
250.01485568
 20
227.36906767
 30
0.0
  0
VERTEX
  5
3BE
  8
0
 10
250.28127732
 20
228.70845968
 30
0.0
  0
VERTEX
  5
3BF
  8
0
 10
251.03998195
 20
229.84394141
 30
0.0
  0
VERTEX
  5
3C0
  8
0
 10
252.17546367
 20
230.60264604
 30
0.0
  0
VERTEX
  5
3C1
  8
0
 10
253.51485568
 20
230.86906767
 30
0.0
  0
VERTEX
  5
3C2
  8
0
 10
254.8542477
 20
230.60264604
 30
0.0
  0
VERTEX
  5
3C3
  8
0
 10
255.98972942
 20
229.84394141
 30
0.0
  0
VERTEX
  5
3C4
  8
0
 10
256.74843405
 20
228.70845968
 30
0.0
  0
VERTEX
  5
3C5
  8
0
 10
257.01485568
 20
227.36906767
 30
0.0
  0
VERTEX
  5
3C6
  8
0
 10
256.74843405
 20
226.02967566
 30
0.0
  0
VERTEX
  5
3C7
  8
0
 10
255.98972942
 20
224.89419394
 30
0.0
  0
SEQEND
  5
3C8
  8
0
  0
POLYLINE
  5
3C9
  8
0
 66
     1
 10
0.0
 20
0.0
 30
0.0
 70
     1
  0
VERTEX
  5
3CA
  8
0
 10
185.01485568
 20
218.36906767
 30
0.0
  0
VERTEX
  5
3CB
  8
0
 10
202.01485568
 20
218.36906767
 30
0.0
  0
VERTEX
  5
3CC
  8
0
 10
204.50229799
 20
217.87428463
 30
0.0
  0
VERTEX
  5
3CD
  8
0
 10
206.61104976
 20
216.46526175
 30
0.0
  0
VERTEX
  5
3CE
  8
0
 10
208.02007264
 20
214.35650998
 30
0.0
  0
VERTEX
  5
3CF
  8
0
 10
208.51485568
 20
211.86906767
 30
0.0
  0
VERTEX
  5
3D0
  8
0
 10
208.02007264
 20
209.38162536
 30
0.0
  0
VERTEX
  5
3D1
  8
0
 10
206.61104976
 20
207.27287359
 30
0.0
  0
VERTEX
  5
3D2
  8
0
 10
204.50229799
 20
205.86385071
 30
0.0
  0
VERTEX
  5
3D3
  8
0
 10
202.01485568
 20
205.36906767
 30
0.0
  0
VERTEX
  5
3D4
  8
0
 10
185.01485568
 20
205.36906767
 30
0.0
  0
VERTEX
  5
3D5
  8
0
 10
182.52741337
 20
205.86385071
 30
0.0
  0
VERTEX
  5
3D6
  8
0
 10
180.41866161
 20
207.27287359
 30
0.0
  0
VERTEX
  5
3D7
  8
0
 10
179.00963872
 20
209.38162536
 30
0.0
  0
VERTEX
  5
3D8
  8
0
 10
178.51485568
 20
211.86906767
 30
0.0
  0
VERTEX
  5
3D9
  8
0
 10
179.00963872
 20
214.35650998
 30
0.0
  0
VERTEX
  5
3DA
  8
0
 10
180.41866161
 20
216.46526175
 30
0.0
  0
VERTEX
  5
3DB
  8
0
 10
182.52741337
 20
217.87428463
 30
0.0
  0
SEQEND
  5
3DC
  8
0
  0
POLYLINE
  5
3DD
  8
0
 66
     1
 10
0.0
 20
0.0
 30
0.0
 70
     1
  0
VERTEX
  5
3DE
  8
0
 10
265.01485568
 20
218.36906767
 30
0.0
  0
VERTEX
  5
3DF
  8
0
 10
282.01485568
 20
218.36906767
 30
0.0
  0
VERTEX
  5
3E0
  8
0
 10
284.50229799
 20
217.87428463
 30
0.0
  0
VERTEX
  5
3E1
  8
0
 10
286.61104976
 20
216.46526175
 30
0.0
  0
VERTEX
  5
3E2
  8
0
 10
288.02007264
 20
214.35650998
 30
0.0
  0
VERTEX
  5
3E3
  8
0
 10
288.51485568
 20
211.86906767
 30
0.0
  0
VERTEX
  5
3E4
  8
0
 10
288.02007264
 20
209.38162536
 30
0.0
  0
VERTEX
  5
3E5
  8
0
 10
286.61104976
 20
207.27287359
 30
0.0
  0
VERTEX
  5
3E6
  8
0
 10
284.50229799
 20
205.86385071
 30
0.0
  0
VERTEX
  5
3E7
  8
0
 10
282.01485568
 20
205.36906767
 30
0.0
  0
VERTEX
  5
3E8
  8
0
 10
265.01485568
 20
205.36906767
 30
0.0
  0
VERTEX
  5
3E9
  8
0
 10
262.52741337
 20
205.86385071
 30
0.0
  0
VERTEX
  5
3EA
  8
0
 10
260.41866161
 20
207.27287359
 30
0.0
  0
VERTEX
  5
3EB
  8
0
 10
259.00963872
 20
209.38162536
 30
0.0
  0
VERTEX
  5
3EC
  8
0
 10
258.51485568
 20
211.86906767
 30
0.0
  0
VERTEX
  5
3ED
  8
0
 10
259.00963872
 20
214.35650998
 30
0.0
  0
VERTEX
  5
3EE
  8
0
 10
260.41866161
 20
216.46526175
 30
0.0
  0
VERTEX
  5
3EF
  8
0
 10
262.52741337
 20
217.87428463
 30
0.0
  0
SEQEND
  5
3F0
  8
0
  0
LINE
  5
3F1
  8
0
 10
153.89545802
 20
188.96307681
 30
0.0
 11
153.89545802
 21
234.77505853
 31
0.0
  0
LINE
  5
3F2
  8
0
 10
154.97932178
 20
236.39382576
 30
0.0
 11
154.97932178
 21
187.34430958
 31
0.0
  0
LINE
  5
3F3
  8
0
 10
154.98470968
 20
236.39921367
 30
0.0
 11
156.60143852
 21
234.78248483
 31
0.0
  0
LINE
  5
3F4
  8
0
 10
156.60143852
 20
188.95565051
 30
0.0
 11
156.60143852
 21
234.78248483
 31
0.0
  0
LINE
  5
3F5
  8
0
 10
154.98470968
 20
187.33892167
 30
0.0
 11
156.60143852
 21
188.95565051
 31
0.0
  0
LINE
  5
3F6
  8
0
 10
154.99009759
 20
187.33353377
 30
0.0
 11
275.37199854
 21
187.33353377
 31
0.0
  0
LINE
  5
3F7
  8
0
 10
280.42276126
 20
187.33353377
 30
0.0
 11
281.97113806
 21
188.95565051
 31
0.0
  0
POLYLINE
  5
3F8
  8
0
 66
     1
 10
0.0
 20
0.0
 30
0.0
  0
VERTEX
  5
3F9
  8
0
 10
275.37199854
 20
188.95565051
 30
0.0
  0
VERTEX
  5
3FA
  8
0
 10
156.60143852
 20
188.95565051
 30
0.0
  0
VERTEX
  5
3FB
  8
0
 10
158.51485568
 20
190.86906767
 30
0.0
  0
SEQEND
  5
3FC
  8
0
  0
LINE
  5
3FD
  8
0
 10
158.51485568
 20
232.86906767
 30
0.0
 11
158.51485568
 21
190.86906767
 31
0.0
  0
LINE
  5
3FE
  8
0
 10
282.51485568
 20
232.86906767
 30
0.0
 11
158.51485568
 21
232.86906767
 31
0.0
  0
POLYLINE
  5
3FF
  8
0
 66
     1
 10
0.0
 20
0.0
 30
0.0
  0
VERTEX
  5
400
  8
0
 10
282.51485568
 20
232.86906767
 30
0.0
  0
VERTEX
  5
401
  8
0
 10
282.51485568
 20
241.52932171
 30
0.0
  0
VERTEX
  5
402
  8
0
 10
282.51485568
 20
247.86906767
 30
0.0
  0
VERTEX
  5
403
  8
0
 10
288.51485568
 20
247.86906767
 30
0.0
  0
VERTEX
  5
404
  8
0
 10
288.51485568
 20
244.86906767
 30
0.0
  0
VERTEX
  5
405
  8
0
 10
294.51485568
 20
244.86906767
 30
0.0
  0
VERTEX
  5
406
  8
0
 10
298.51485568
 20
238.86906767
 30
0.0
  0
VERTEX
  5
407
  8
0
 10
298.51485568
 20
184.86906767
 30
0.0
  0
VERTEX
  5
408
  8
0
 10
294.51485568
 20
178.86906767
 30
0.0
  0
VERTEX
  5
409
  8
0
 10
288.51485568
 20
178.86906767
 30
0.0
  0
VERTEX
  5
40A
  8
0
 10
288.51485568
 20
175.86906767
 30
0.0
  0
VERTEX
  5
40B
  8
0
 10
282.51485568
 20
175.86906767
 30
0.0
  0
VERTEX
  5
40C
  8
0
 10
282.51485568
 20
182.20881363
 30
0.0
  0
SEQEND
  5
40D
  8
0
  0
LINE
  5
40E
  8
0
 10
280.83890472
 20
181.63027235
 30
0.0
 11
282.51485568
 21
182.20881363
 31
0.0
  0
LINE
  5
40F
  8
0
 10
275.37199854
 20
180.86906767
 30
0.0
 11
280.83890472
 21
181.63027235
 31
0.0
  0
POLYLINE
  5
410
  8
0
 66
     1
 10
0.0
 20
0.0
 30
0.0
  0
VERTEX
  5
411
  8
0
 10
275.37199854
 20
180.86906767
 30
0.0
  0
VERTEX
  5
412
  8
0
 10
272.51485568
 20
180.86906767
 30
0.0
  0
VERTEX
  5
413
  8
0
 10
272.51485568
 20
185.86906767
 30
0.0
  0
VERTEX
  5
414
  8
0
 10
275.37199854
 20
185.86906767
 30
0.0
  0
SEQEND
  5
415
  8
0
  0
LINE
  5
416
  8
0
 10
156.60886482
 20
186.24967001
 30
0.0
 11
275.37199854
 21
186.24967001
 31
0.0
  0
LINE
  5
417
  8
0
 10
278.10545163
 20
186.24967001
 30
0.0
 11
280.42276126
 21
187.33353377
 31
0.0
  0
LINE
  5
418
  8
0
 10
278.10545163
 20
186.24967001
 30
0.0
 11
275.37199854
 21
185.86906767
 31
0.0
  0
LINE
  5
419
  8
0
 10
160.51485568
 20
185.86906767
 30
0.0
 11
272.51485568
 21
185.86906767
 31
0.0
  0
LINE
  5
41A
  8
0
 10
272.51485568
 20
180.86906767
 30
0.0
 11
160.51485568
 21
180.86906767
 31
0.0
  0
POLYLINE
  5
41B
  8
0
 66
     1
 10
0.0
 20
0.0
 30
0.0
  0
VERTEX
  5
41C
  8
0
 10
282.51485568
 20
182.20881363
 30
0.0
  0
VERTEX
  5
41D
  8
0
 10
282.51485568
 20
190.86906767
 30
0.0
  0
VERTEX
  5
41E
  8
0
 10
281.97113806
 20
188.95565051
 30
0.0
  0
SEQEND
  5
41F
  8
0
  0
LINE
  5
420
  8
0
 10
158.51485568
 20
190.86906767
 30
0.0
 11
282.51485568
 21
190.86906767
 31
0.0
  0
LINE
  5
421
  8
0
 10
280.83890472
 20
242.107863
 30
0.0
 11
282.51485568
 21
241.52932171
 31
0.0
  0
POLYLINE
  5
422
  8
0
 66
     1
 10
0.0
 20
0.0
 30
0.0
  0
VERTEX
  5
423
  8
0
 10
280.83890472
 20
242.107863
 30
0.0
  0
VERTEX
  5
424
  8
0
 10
275.37199854
 20
242.86906767
 30
0.0
  0
VERTEX
  5
425
  8
0
 10
272.51485568
 20
242.86906767
 30
0.0
  0
VERTEX
  5
426
  8
0
 10
272.51485568
 20
237.86906767
 30
0.0
  0
VERTEX
  5
427
  8
0
 10
275.37199854
 20
237.86906767
 30
0.0
  0
VERTEX
  5
428
  8
0
 10
278.10545163
 20
237.48846533
 30
0.0
  0
VERTEX
  5
429
  8
0
 10
280.42276126
 20
236.40460158
 30
0.0
  0
VERTEX
  5
42A
  8
0
 10
281.97113806
 20
234.78248483
 30
0.0
  0
VERTEX
  5
42B
  8
0
 10
282.51485568
 20
232.86906767
 30
0.0
  0
SEQEND
  5
42C
  8
0
  0
LINE
  5
42D
  8
0
 10
156.60143852
 20
234.78248483
 30
0.0
 11
275.37199854
 21
234.78248483
 31
0.0
  0
LINE
  5
42E
  8
0
 10
156.60143852
 20
234.78248483
 30
0.0
 11
158.51485568
 21
232.86906767
 31
0.0
  0
LINE
  5
42F
  8
0
 10
154.99009759
 20
236.40460158
 30
0.0
 11
275.37199854
 21
236.40460158
 31
0.0
  0
LINE
  5
430
  8
0
 10
156.60886482
 20
237.48846533
 30
0.0
 11
275.37199854
 21
237.48846533
 31
0.0
  0
LINE
  5
431
  8
0
 10
272.51485568
 20
237.86906767
 30
0.0
 11
160.51485568
 21
237.86906767
 31
0.0
  0
LINE
  5
432
  8
0
 10
272.51485568
 20
242.86906767
 30
0.0
 11
160.51485568
 21
242.86906767
 31
0.0
  0
ENDBLK
  8
0
  0
BLOCK
  8
0
  2
1X_BL_10X7_143X72_000_S233
 70
     0
 10
0.0
 20
0.0
 30
0.0
  0
INSERT
  5
435
  8
0
  2
1X_BL_10X7_143X72_000_S234
 10
282.48169971
 20
233.34875141
 30
0.0
  0
ENDBLK
  8
0
  0
BLOCK
  8
0
  2
1X_BL_10X7_143X72_000_S234
 70
     0
 10
282.48169971
 20
233.34875141
 30
0.0
  0
LINE
  5
438
  8
0
 10
282.48169971
 20
233.34875141
 30
0.0
 11
282.51485568
 21
232.86906767
 31
0.0
  0
POLYLINE
  5
439
  8
0
 66
     1
 10
0.0
 20
0.0
 30
0.0
  0
VERTEX
  5
43A
  8
0
 10
282.48169971
 20
233.34875141
 30
0.0
  0
VERTEX
  5
43B
  8
0
 10
282.3784288
 20
233.84083769
 30
0.0
  0
VERTEX
  5
43C
  8
0
 10
282.19969712
 20
234.33812736
 30
0.0
  0
SEQEND
  5
43D
  8
0
  0
LINE
  5
43E
  8
0
 10
275.37199854
 20
234.76621798
 30
0.0
 11
275.37199854
 21
234.79147982
 31
0.0
  0
LINE
  5
43F
  8
0
 10
276.28509045
 20
234.76621798
 30
0.0
 11
275.93606666
 21
234.79147982
 31
0.0
  0
POLYLINE
  5
440
  8
0
 66
     1
 10
0.0
 20
0.0
 30
0.0
  0
VERTEX
  5
441
  8
0
 10
282.19969712
 20
234.33812736
 30
0.0
  0
VERTEX
  5
442
  8
0
 10
281.94143527
 20
234.83230624
 30
0.0
  0
VERTEX
  5
443
  8
0
 10
281.60243318
 20
235.31427605
 30
0.0
  0
VERTEX
  5
444
  8
0
 10
281.18493254
 20
235.77461058
 30
0.0
  0
VERTEX
  5
445
  8
0
 10
281.046338
 20
235.90599328
 30
0.0
  0
SEQEND
  5
446
  8
0
  0
LINE
  5
447
  8
0
 10
280.69381547
 20
236.20410031
 30
0.0
 11
281.046338
 21
235.90599328
 31
0.0
  0
LINE
  5
448
  8
0
 10
280.13641693
 20
236.59432703
 30
0.0
 11
280.69381547
 21
236.20410031
 31
0.0
  0
LINE
  5
449
  8
0
 10
279.52274743
 20
236.93819785
 30
0.0
 11
280.13641693
 21
236.59432703
 31
0.0
  0
LINE
  5
44A
  8
0
 10
278.86512238
 20
237.23036977
 30
0.0
 11
279.52274743
 21
236.93819785
 31
0.0
  0
LINE
  5
44B
  8
0
 10
278.33762635
 20
237.4177461
 30
0.0
 11
278.86512238
 21
237.23036977
 31
0.0
  0
LINE
  5
44C
  8
0
 10
278.1766852
 20
237.46751244
 30
0.0
 11
278.33762635
 21
237.4177461
 31
0.0
  0
LINE
  5
44D
  8
0
 10
277.47065625
 20
237.6483839
 30
0.0
 11
278.1766852
 21
237.46751244
 31
0.0
  0
LINE
  5
44E
  8
0
 10
276.76024543
 20
237.77372495
 30
0.0
 11
277.47065625
 21
237.6483839
 31
0.0
  0
LINE
  5
44F
  8
0
 10
276.0572537
 20
237.84600483
 30
0.0
 11
276.76024543
 21
237.77372495
 31
0.0
  0
LINE
  5
450
  8
0
 10
275.37199854
 20
237.86906767
 30
0.0
 11
276.0572537
 21
237.84600483
 31
0.0
  0
LINE
  5
451
  8
0
 10
275.37199854
 20
237.86906767
 30
0.0
 11
275.37199854
 21
242.86906767
 31
0.0
  0
LINE
  5
452
  8
0
 10
276.04158516
 20
243.12990942
 30
0.0
 11
275.37199854
 21
242.86906767
 31
0.0
  0
LINE
  5
453
  8
0
 10
281.53307338
 20
246.79920453
 30
0.0
 11
276.04158516
 21
243.12990942
 31
0.0
  0
LINE
  5
454
  8
0
 10
282.51485568
 20
247.86906767
 30
0.0
 11
281.53307338
 21
246.79920453
 31
0.0
  0
LINE
  5
455
  8
0
 10
282.51485568
 20
247.86906767
 30
0.0
 11
282.51485568
 21
232.86906767
 31
0.0
  0
LINE
  5
456
  8
0
 10
280.1339033
 20
232.86906767
 30
0.0
 11
282.51485568
 21
232.86906767
 31
0.0
  0
LINE
  5
457
  8
0
 10
277.75295092
 20
232.86906767
 30
0.0
 11
280.1339033
 21
232.86906767
 31
0.0
  0
LINE
  5
458
  8
0
 10
275.37199854
 20
232.86906767
 30
0.0
 11
277.75295092
 21
232.86906767
 31
0.0
  0
LINE
  5
459
  8
0
 10
277.80160468
 20
237.49170101
 30
0.0
 11
277.94497692
 21
237.48245508
 31
0.0
  0
LINE
  5
45A
  8
0
 10
275.37199854
 20
237.48245508
 30
0.0
 11
275.37199854
 21
237.49170101
 31
0.0
  0
LINE
  5
45B
  8
0
 10
277.66350334
 20
236.42630051
 30
0.0
 11
278.40231068
 21
236.37212683
 31
0.0
  0
LINE
  5
45C
  8
0
 10
275.37199854
 20
236.37212683
 30
0.0
 11
275.37199854
 21
236.42630051
 31
0.0
  0
LINE
  5
45D
  8
0
 10
282.3784288
 20
189.89729765
 30
0.0
 11
282.48169972
 21
190.38938394
 31
0.0
  0
POLYLINE
  5
45E
  8
0
 66
     1
 10
0.0
 20
0.0
 30
0.0
  0
VERTEX
  5
45F
  8
0
 10
282.3784288
 20
189.89729765
 30
0.0
  0
VERTEX
  5
460
  8
0
 10
282.19969712
 20
189.40000798
 30
0.0
  0
VERTEX
  5
461
  8
0
 10
281.94143526
 20
188.9058291
 30
0.0
  0
VERTEX
  5
462
  8
0
 10
281.60243318
 20
188.42385929
 30
0.0
  0
VERTEX
  5
463
  8
0
 10
281.18493254
 20
187.96352477
 30
0.0
  0
VERTEX
  5
464
  8
0
 10
281.04633847
 20
187.8321425
 30
0.0
  0
VERTEX
  5
465
  8
0
 10
280.69381547
 20
187.53403504
 30
0.0
  0
VERTEX
  5
466
  8
0
 10
280.13641693
 20
187.14380831
 30
0.0
  0
VERTEX
  5
467
  8
0
 10
279.52274744
 20
186.79993749
 30
0.0
  0
VERTEX
  5
468
  8
0
 10
278.8651224
 20
186.50776558
 30
0.0
  0
VERTEX
  5
469
  8
0
 10
278.33762741
 20
186.32038959
 30
0.0
  0
VERTEX
  5
46A
  8
0
 10
278.17668519
 20
186.2706229
 30
0.0
  0
VERTEX
  5
46B
  8
0
 10
277.47065627
 20
186.08975144
 30
0.0
  0
VERTEX
  5
46C
  8
0
 10
276.76024544
 20
185.96441039
 30
0.0
  0
VERTEX
  5
46D
  8
0
 10
276.05725369
 20
185.89213051
 30
0.0
  0
VERTEX
  5
46E
  8
0
 10
275.37199854
 20
185.86906767
 30
0.0
  0
VERTEX
  5
46F
  8
0
 10
275.37199854
 20
180.86906767
 30
0.0
  0
VERTEX
  5
470
  8
0
 10
276.04158516
 20
180.60822592
 30
0.0
  0
VERTEX
  5
471
  8
0
 10
281.53307338
 20
176.93893081
 30
0.0
  0
VERTEX
  5
472
  8
0
 10
282.51485568
 20
175.86906767
 30
0.0
  0
VERTEX
  5
473
  8
0
 10
282.51485568
 20
190.86906767
 30
0.0
  0
SEQEND
  5
474
  8
0
  0
LINE
  5
475
  8
0
 10
282.48169972
 20
190.38938394
 30
0.0
 11
282.51485568
 21
190.86906767
 31
0.0
  0
LINE
  5
476
  8
0
 10
277.75295092
 20
190.86906767
 30
0.0
 11
275.37199854
 21
190.86906767
 31
0.0
  0
LINE
  5
477
  8
0
 10
280.1339033
 20
190.86906767
 30
0.0
 11
277.75295092
 21
190.86906767
 31
0.0
  0
LINE
  5
478
  8
0
 10
282.51485568
 20
190.86906767
 30
0.0
 11
280.1339033
 21
190.86906767
 31
0.0
  0
LINE
  5
479
  8
0
 10
275.37199854
 20
186.24643433
 30
0.0
 11
275.37199854
 21
186.25568026
 31
0.0
  0
LINE
  5
47A
  8
0
 10
275.37199854
 20
187.31183484
 30
0.0
 11
275.37199854
 21
187.36600851
 31
0.0
  0
LINE
  5
47B
  8
0
 10
275.37199854
 20
188.94665553
 30
0.0
 11
275.37199854
 21
188.97191736
 31
0.0
  0
LINE
  5
47C
  8
0
 10
281.39870337
 20
188.94665553
 30
0.0
 11
281.0628816
 21
188.97191736
 31
0.0
  0
LINE
  5
47D
  8
0
 10
278.08492065
 20
187.31183484
 30
0.0
 11
277.42349482
 21
187.36600851
 31
0.0
  0
LINE
  5
47E
  8
0
 10
275.65265935
 20
186.24643433
 30
0.0
 11
275.54537847
 21
186.25568026
 31
0.0
  0
ENDBLK
  8
0
  0
BLOCK
  8
0
  2
1X_BL_10X7_143X72_000_S236
 70
     0
 10
0.0
 20
0.0
 30
0.0
  0
INSERT
  5
481
  8
0
  2
1X_BL_10X7_143X72_000_S237
 10
154.2021033
 20
246.79920453
 30
0.0
  0
ENDBLK
  8
0
  0
BLOCK
  8
0
  2
1X_BL_10X7_143X72_000_S237
 70
     0
 10
154.2021033
 20
246.79920453
 30
0.0
  0
POLYLINE
  5
484
  8
0
 66
     1
 10
0.0
 20
0.0
 30
0.0
  0
VERTEX
  5
485
  8
0
 10
154.2021033
 20
246.79920453
 30
0.0
  0
VERTEX
  5
486
  8
0
 10
153.51485568
 20
247.86906767
 30
0.0
  0
VERTEX
  5
487
  8
0
 10
153.51485568
 20
232.86906767
 30
0.0
  0
SEQEND
  5
488
  8
0
  0
LINE
  5
489
  8
0
 10
153.53791852
 20
233.34875141
 30
0.0
 11
153.51485568
 21
232.86906767
 31
0.0
  0
LINE
  5
48A
  8
0
 10
153.6101984
 20
233.84083769
 30
0.0
 11
153.53791852
 21
233.34875141
 31
0.0
  0
POLYLINE
  5
48B
  8
0
 66
     1
 10
0.0
 20
0.0
 30
0.0
  0
VERTEX
  5
48C
  8
0
 10
153.6101984
 20
233.84083769
 30
0.0
  0
VERTEX
  5
48D
  8
0
 10
153.73553945
 20
234.33812736
 30
0.0
  0
VERTEX
  5
48E
  8
0
 10
153.91641091
 20
234.83230624
 30
0.0
  0
VERTEX
  5
48F
  8
0
 10
154.15355359
 20
235.31427605
 30
0.0
  0
VERTEX
  5
490
  8
0
 10
154.4457255
 20
235.77461058
 30
0.0
  0
VERTEX
  5
491
  8
0
 10
154.54281773
 20
235.90599285
 30
0.0
  0
VERTEX
  5
492
  8
0
 10
154.78959632
 20
236.20410031
 30
0.0
  0
VERTEX
  5
493
  8
0
 10
155.17982305
 20
236.59432703
 30
0.0
  0
VERTEX
  5
494
  8
0
 10
155.60931278
 20
236.93819785
 30
0.0
  0
VERTEX
  5
495
  8
0
 10
156.0696473
 20
237.23036977
 30
0.0
  0
VERTEX
  5
496
  8
0
 10
156.43891548
 20
237.41774575
 30
0.0
  0
VERTEX
  5
497
  8
0
 10
156.55161711
 20
237.46751244
 30
0.0
  0
VERTEX
  5
498
  8
0
 10
157.04579599
 20
237.6483839
 30
0.0
  0
VERTEX
  5
499
  8
0
 10
157.54308566
 20
237.77372495
 30
0.0
  0
VERTEX
  5
49A
  8
0
 10
158.03517195
 20
237.84600483
 30
0.0
  0
VERTEX
  5
49B
  8
0
 10
158.51485568
 20
237.86906767
 30
0.0
  0
VERTEX
  5
49C
  8
0
 10
158.51485568
 20
242.86906767
 30
0.0
  0
VERTEX
  5
49D
  8
0
 10
158.04614505
 20
243.12990942
 30
0.0
  0
VERTEX
  5
49E
  8
0
 10
154.2021033
 20
246.79920453
 30
0.0
  0
SEQEND
  5
49F
  8
0
  0
LINE
  5
4A0
  8
0
 10
153.51485568
 20
175.86906767
 30
0.0
 11
153.51485568
 21
190.86906767
 31
0.0
  0
LINE
  5
4A1
  8
0
 10
153.53791852
 20
190.38938394
 30
0.0
 11
153.51485568
 21
190.86906767
 31
0.0
  0
POLYLINE
  5
4A2
  8
0
 66
     1
 10
0.0
 20
0.0
 30
0.0
  0
VERTEX
  5
4A3
  8
0
 10
153.53791852
 20
190.38938394
 30
0.0
  0
VERTEX
  5
4A4
  8
0
 10
153.6101984
 20
189.89729765
 30
0.0
  0
VERTEX
  5
4A5
  8
0
 10
153.73553945
 20
189.40000798
 30
0.0
  0
VERTEX
  5
4A6
  8
0
 10
153.91641091
 20
188.9058291
 30
0.0
  0
VERTEX
  5
4A7
  8
0
 10
154.15355359
 20
188.42385929
 30
0.0
  0
VERTEX
  5
4A8
  8
0
 10
154.4457255
 20
187.96352477
 30
0.0
  0
VERTEX
  5
4A9
  8
0
 10
154.54281806
 20
187.83214207
 30
0.0
  0
SEQEND
  5
4AA
  8
0
  0
LINE
  5
4AB
  8
0
 10
154.78959632
 20
187.53403504
 30
0.0
 11
154.54281806
 21
187.83214207
 31
0.0
  0
LINE
  5
4AC
  8
0
 10
155.17982305
 20
187.14380831
 30
0.0
 11
154.78959632
 21
187.53403504
 31
0.0
  0
LINE
  5
4AD
  8
0
 10
155.60931278
 20
186.79993749
 30
0.0
 11
155.17982305
 21
187.14380831
 31
0.0
  0
LINE
  5
4AE
  8
0
 10
156.0696473
 20
186.50776558
 30
0.0
 11
155.60931278
 21
186.79993749
 31
0.0
  0
LINE
  5
4AF
  8
0
 10
156.43891622
 20
186.32038924
 30
0.0
 11
156.0696473
 21
186.50776558
 31
0.0
  0
LINE
  5
4B0
  8
0
 10
156.55161711
 20
186.2706229
 30
0.0
 11
156.43891622
 21
186.32038924
 31
0.0
  0
LINE
  5
4B1
  8
0
 10
157.04579599
 20
186.08975144
 30
0.0
 11
156.55161711
 21
186.2706229
 31
0.0
  0
LINE
  5
4B2
  8
0
 10
157.54308566
 20
185.96441039
 30
0.0
 11
157.04579599
 21
186.08975144
 31
0.0
  0
LINE
  5
4B3
  8
0
 10
158.03517195
 20
185.89213051
 30
0.0
 11
157.54308566
 21
185.96441039
 31
0.0
  0
LINE
  5
4B4
  8
0
 10
158.51485568
 20
185.86906767
 30
0.0
 11
158.03517195
 21
185.89213051
 31
0.0
  0
LINE
  5
4B5
  8
0
 10
158.51485568
 20
185.86906767
 30
0.0
 11
158.51485568
 21
180.86906767
 31
0.0
  0
LINE
  5
4B6
  8
0
 10
158.04614505
 20
180.60822592
 30
0.0
 11
158.51485568
 21
180.86906767
 31
0.0
  0
LINE
  5
4B7
  8
0
 10
154.2021033
 20
176.93893081
 30
0.0
 11
158.04614505
 21
180.60822592
 31
0.0
  0
LINE
  5
4B8
  8
0
 10
153.51485568
 20
175.86906767
 30
0.0
 11
154.2021033
 21
176.93893081
 31
0.0
  0
ENDBLK
  8
0
  0
BLOCK
  8
0
  2
_ANS0004_00034
 70
     0
 10
0.0
 20
0.0
 30
0.0
  0
INSERT
  5
4BB
  8
0
  2
_A3D0004_00035
 10
0.0
 20
0.0
 30
0.0
  0
ENDBLK
  8
0
  0
BLOCK
  8
0
  2
_A3D0004_00035
 70
     0
 10
0.0
 20
0.0
 30
0.0
  0
INSERT
  5
4BE
  8
0
  2
SVH04-ANKER_00036
 10
0.0
 20
0.0
 30
0.0
  0
ENDBLK
  8
0
  0
BLOCK
  8
0
  2
SVH04-ANKER_00036
 70
     0
 10
0.0
 20
0.0
 30
0.0
  0
INSERT
  5
4C1
  8
0
  2
1X_PLAAT_5MM-240_210X72_04
 10
0.0
 20
0.0
 30
0.0
  0
INSERT
  5
4C2
  8
0
  2
1X_BL_10X7_143X72_000_S238
 10
0.0
 20
0.0
 30
0.0
  0
INSERT
  5
4C3
  8
0
  2
1X_BL_10X7_143X72_000_S23A
 10
0.0
 20
0.0
 30
0.0
  0
ENDBLK
  8
0
  0
BLOCK
  8
0
  2
1X_PLAAT_5MM-240_210X72_04
 70
     0
 10
0.0
 20
0.0
 30
0.0
  0
INSERT
  5
4C6
  8
0
  2
1X_PLAAT_5MM-240_210X72_05
 10
8.96061814
 20
275.66584243
 30
0.0
  0
ENDBLK
  8
0
  0
BLOCK
  8
0
  2
1X_PLAAT_5MM-240_210X72_05
 70
     0
 10
8.96061814
 20
275.66584243
 30
0.0
  0
LINE
  5
4C9
  8
0
 10
8.96061814
 20
275.66584243
 30
0.0
 11
8.96061814
 21
270.66584243
 31
0.0
  0
LINE
  5
4CA
  8
0
 10
80.96061814
 20
270.66584243
 30
0.0
 11
80.96061814
 21
275.66584243
 31
0.0
  0
LINE
  5
4CB
  8
0
 10
75.96061814
 20
280.66584243
 30
0.0
 11
75.92975599
 21
279.88125483
 31
0.0
  0
LINE
  5
4CC
  8
0
 10
75.8374858
 20
279.10149952
 30
0.0
 11
75.92975599
 21
279.88125483
 31
0.0
  0
LINE
  5
4CD
  8
0
 10
75.8374858
 20
279.10149952
 30
0.0
 11
75.68430213
 21
278.33139322
 31
0.0
  0
LINE
  5
4CE
  8
0
 10
75.47114923
 20
277.57568297
 30
0.0
 11
75.68430213
 21
278.33139322
 31
0.0
  0
LINE
  5
4CF
  8
0
 10
75.47114923
 20
277.57568297
 30
0.0
 11
75.19941347
 21
276.83900811
 31
0.0
  0
LINE
  5
4D0
  8
0
 10
74.87065188
 20
276.12595412
 30
0.0
 11
75.19941347
 21
276.83900811
 31
0.0
  0
LINE
  5
4D1
  8
0
 10
74.87065188
 20
276.12595412
 30
0.0
 11
74.4870059
 21
275.44086442
 31
0.0
  0
LINE
  5
4D2
  8
0
 10
74.05077572
 20
274.78799982
 30
0.0
 11
74.4870059
 21
275.44086442
 31
0.0
  0
LINE
  5
4D3
  8
0
 10
74.05077572
 20
274.78799982
 30
0.0
 11
73.56465033
 21
274.17138467
 31
0.0
  0
LINE
  5
4D4
  8
0
 10
73.03168595
 20
273.59477462
 30
0.0
 11
73.56465033
 21
274.17138467
 31
0.0
  0
POLYLINE
  5
4D5
  8
0
 66
     1
 10
0.0
 20
0.0
 30
0.0
  0
VERTEX
  5
4D6
  8
0
 10
71.0657062
 20
275.56075437
 30
0.0
  0
VERTEX
  5
4D7
  8
0
 10
73.03168595
 20
273.59477462
 30
0.0
  0
VERTEX
  5
4D8
  8
0
 10
72.4550759
 20
273.06181025
 30
0.0
  0
VERTEX
  5
4D9
  8
0
 10
71.83846076
 20
272.57568485
 30
0.0
  0
VERTEX
  5
4DA
  8
0
 10
71.18559616
 20
272.13945467
 30
0.0
  0
VERTEX
  5
4DB
  8
0
 10
70.50050646
 20
271.7558087
 30
0.0
  0
VERTEX
  5
4DC
  8
0
 10
69.78745246
 20
271.42704711
 30
0.0
  0
VERTEX
  5
4DD
  8
0
 10
69.0507776
 20
271.15531134
 30
0.0
  0
VERTEX
  5
4DE
  8
0
 10
68.29506736
 20
270.94215844
 30
0.0
  0
SEQEND
  5
4DF
  8
0
  0
LINE
  5
4E0
  8
0
 10
67.52496105
 20
270.78897478
 30
0.0
 11
68.29506736
 21
270.94215844
 31
0.0
  0
LINE
  5
4E1
  8
0
 10
67.52496105
 20
270.78897478
 30
0.0
 11
66.74520574
 21
270.69670459
 31
0.0
  0
LINE
  5
4E2
  8
0
 10
65.96061814
 20
270.66584243
 30
0.0
 11
66.74520574
 21
270.69670459
 31
0.0
  0
POLYLINE
  5
4E3
  8
0
 66
     1
 10
0.0
 20
0.0
 30
0.0
  0
VERTEX
  5
4E4
  8
0
 10
13.96061814
 20
280.66584243
 30
0.0
  0
VERTEX
  5
4E5
  8
0
 10
13.99148029
 20
279.88125483
 30
0.0
  0
VERTEX
  5
4E6
  8
0
 10
14.08375048
 20
279.10149952
 30
0.0
  0
VERTEX
  5
4E7
  8
0
 10
14.23693415
 20
278.33139322
 30
0.0
  0
VERTEX
  5
4E8
  8
0
 10
14.45008705
 20
277.57568297
 30
0.0
  0
VERTEX
  5
4E9
  8
0
 10
14.72182282
 20
276.83900811
 30
0.0
  0
VERTEX
  5
4EA
  8
0
 10
15.0505844
 20
276.12595412
 30
0.0
  0
VERTEX
  5
4EB
  8
0
 10
15.43423038
 20
275.44086442
 30
0.0
  0
VERTEX
  5
4EC
  8
0
 10
15.87046056
 20
274.78799982
 30
0.0
  0
VERTEX
  5
4ED
  8
0
 10
16.35658595
 20
274.17138467
 30
0.0
  0
VERTEX
  5
4EE
  8
0
 10
16.88955033
 20
273.59477462
 30
0.0
  0
VERTEX
  5
4EF
  8
0
 10
18.85553008
 20
275.56075437
 30
0.0
  0
SEQEND
  5
4F0
  8
0
  0
POLYLINE
  5
4F1
  8
0
 66
     1
 10
0.0
 20
0.0
 30
0.0
  0
VERTEX
  5
4F2
  8
0
 10
16.88955033
 20
273.59477462
 30
0.0
  0
VERTEX
  5
4F3
  8
0
 10
17.46616038
 20
273.06181025
 30
0.0
  0
VERTEX
  5
4F4
  8
0
 10
18.08277552
 20
272.57568485
 30
0.0
  0
VERTEX
  5
4F5
  8
0
 10
18.73564013
 20
272.13945467
 30
0.0
  0
VERTEX
  5
4F6
  8
0
 10
19.42072982
 20
271.7558087
 30
0.0
  0
VERTEX
  5
4F7
  8
0
 10
20.13378382
 20
271.42704711
 30
0.0
  0
VERTEX
  5
4F8
  8
0
 10
20.87045868
 20
271.15531134
 30
0.0
  0
VERTEX
  5
4F9
  8
0
 10
21.62616892
 20
270.94215844
 30
0.0
  0
VERTEX
  5
4FA
  8
0
 10
22.39627523
 20
270.78897478
 30
0.0
  0
VERTEX
  5
4FB
  8
0
 10
23.17603054
 20
270.69670459
 30
0.0
  0
VERTEX
  5
4FC
  8
0
 10
23.96061814
 20
270.66584243
 30
0.0
  0
SEQEND
  5
4FD
  8
0
  0
POLYLINE
  5
4FE
  8
0
 66
     1
 10
0.0
 20
0.0
 30
0.0
  0
VERTEX
  5
4FF
  8
0
 10
42.47317583
 20
304.6710594
 30
0.0
  0
VERTEX
  5
500
  8
0
 10
44.96061814
 20
305.16584243
 30
0.0
  0
VERTEX
  5
501
  8
0
 10
47.44806045
 20
304.6710594
 30
0.0
  0
VERTEX
  5
502
  8
0
 10
49.55681222
 20
303.26203651
 30
0.0
  0
VERTEX
  5
503
  8
0
 10
50.9658351
 20
301.15328474
 30
0.0
  0
VERTEX
  5
504
  8
0
 10
51.46061814
 20
298.66584243
 30
0.0
  0
VERTEX
  5
505
  8
0
 10
50.9658351
 20
296.17840012
 30
0.0
  0
VERTEX
  5
506
  8
0
 10
49.55681222
 20
294.06964836
 30
0.0
  0
VERTEX
  5
507
  8
0
 10
47.44806045
 20
292.66062547
 30
0.0
  0
VERTEX
  5
508
  8
0
 10
44.96061814
 20
292.16584243
 30
0.0
  0
VERTEX
  5
509
  8
0
 10
42.47317583
 20
292.66062547
 30
0.0
  0
VERTEX
  5
50A
  8
0
 10
40.36442406
 20
294.06964836
 30
0.0
  0
VERTEX
  5
50B
  8
0
 10
38.95540118
 20
296.17840012
 30
0.0
  0
VERTEX
  5
50C
  8
0
 10
38.46061814
 20
298.66584243
 30
0.0
  0
VERTEX
  5
50D
  8
0
 10
38.95540118
 20
301.15328474
 30
0.0
  0
VERTEX
  5
50E
  8
0
 10
40.36442406
 20
303.26203651
 30
0.0
  0
SEQEND
  5
50F
  8
0
  0
LINE
  5
510
  8
0
 10
42.47317583
 20
304.6710594
 30
0.0
 11
40.36442406
 21
303.26203651
 31
0.0
  0
POLYLINE
  5
511
  8
0
 66
     1
 10
0.0
 20
0.0
 30
0.0
 70
     1
  0
VERTEX
  5
512
  8
0
 10
59.12122613
 20
357.8994208
 30
0.0
  0
VERTEX
  5
513
  8
0
 10
60.46061814
 20
358.16584243
 30
0.0
  0
VERTEX
  5
514
  8
0
 10
61.80001015
 20
357.8994208
 30
0.0
  0
VERTEX
  5
515
  8
0
 10
62.93549188
 20
357.14071617
 30
0.0
  0
VERTEX
  5
516
  8
0
 10
63.6941965
 20
356.00523445
 30
0.0
  0
VERTEX
  5
517
  8
0
 10
63.96061814
 20
354.66584243
 30
0.0
  0
VERTEX
  5
518
  8
0
 10
63.6941965
 20
353.32645042
 30
0.0
  0
VERTEX
  5
519
  8
0
 10
62.93549188
 20
352.1909687
 30
0.0
  0
VERTEX
  5
51A
  8
0
 10
61.80001015
 20
351.43226407
 30
0.0
  0
VERTEX
  5
51B
  8
0
 10
60.46061814
 20
351.16584243
 30
0.0
  0
VERTEX
  5
51C
  8
0
 10
59.12122613
 20
351.43226407
 30
0.0
  0
VERTEX
  5
51D
  8
0
 10
57.98574441
 20
352.1909687
 30
0.0
  0
VERTEX
  5
51E
  8
0
 10
57.22703978
 20
353.32645042
 30
0.0
  0
VERTEX
  5
51F
  8
0
 10
56.96061814
 20
354.66584243
 30
0.0
  0
VERTEX
  5
520
  8
0
 10
57.22703978
 20
356.00523445
 30
0.0
  0
VERTEX
  5
521
  8
0
 10
57.98574441
 20
357.14071617
 30
0.0
  0
SEQEND
  5
522
  8
0
  0
POLYLINE
  5
523
  8
0
 66
     1
 10
0.0
 20
0.0
 30
0.0
 70
     1
  0
VERTEX
  5
524
  8
0
 10
28.12122613
 20
339.8994208
 30
0.0
  0
VERTEX
  5
525
  8
0
 10
29.46061814
 20
340.16584243
 30
0.0
  0
VERTEX
  5
526
  8
0
 10
30.80001015
 20
339.8994208
 30
0.0
  0
VERTEX
  5
527
  8
0
 10
31.93549188
 20
339.14071617
 30
0.0
  0
VERTEX
  5
528
  8
0
 10
32.6941965
 20
338.00523445
 30
0.0
  0
VERTEX
  5
529
  8
0
 10
32.96061814
 20
336.66584243
 30
0.0
  0
VERTEX
  5
52A
  8
0
 10
32.6941965
 20
335.32645042
 30
0.0
  0
VERTEX
  5
52B
  8
0
 10
31.93549188
 20
334.1909687
 30
0.0
  0
VERTEX
  5
52C
  8
0
 10
30.80001015
 20
333.43226407
 30
0.0
  0
VERTEX
  5
52D
  8
0
 10
29.46061814
 20
333.16584243
 30
0.0
  0
VERTEX
  5
52E
  8
0
 10
28.12122613
 20
333.43226407
 30
0.0
  0
VERTEX
  5
52F
  8
0
 10
26.98574441
 20
334.1909687
 30
0.0
  0
VERTEX
  5
530
  8
0
 10
26.22703978
 20
335.32645042
 30
0.0
  0
VERTEX
  5
531
  8
0
 10
25.96061814
 20
336.66584243
 30
0.0
  0
VERTEX
  5
532
  8
0
 10
26.22703978
 20
338.00523445
 30
0.0
  0
VERTEX
  5
533
  8
0
 10
26.98574441
 20
339.14071617
 30
0.0
  0
SEQEND
  5
534
  8
0
  0
POLYLINE
  5
535
  8
0
 66
     1
 10
0.0
 20
0.0
 30
0.0
 70
     1
  0
VERTEX
  5
536
  8
0
 10
59.12122613
 20
315.8994208
 30
0.0
  0
VERTEX
  5
537
  8
0
 10
60.46061814
 20
316.16584243
 30
0.0
  0
VERTEX
  5
538
  8
0
 10
61.80001015
 20
315.8994208
 30
0.0
  0
VERTEX
  5
539
  8
0
 10
62.93549188
 20
315.14071617
 30
0.0
  0
VERTEX
  5
53A
  8
0
 10
63.6941965
 20
314.00523445
 30
0.0
  0
VERTEX
  5
53B
  8
0
 10
63.96061814
 20
312.66584243
 30
0.0
  0
VERTEX
  5
53C
  8
0
 10
63.6941965
 20
311.32645042
 30
0.0
  0
VERTEX
  5
53D
  8
0
 10
62.93549188
 20
310.1909687
 30
0.0
  0
VERTEX
  5
53E
  8
0
 10
61.80001015
 20
309.43226407
 30
0.0
  0
VERTEX
  5
53F
  8
0
 10
60.46061814
 20
309.16584243
 30
0.0
  0
VERTEX
  5
540
  8
0
 10
59.12122613
 20
309.43226407
 30
0.0
  0
VERTEX
  5
541
  8
0
 10
57.98574441
 20
310.1909687
 30
0.0
  0
VERTEX
  5
542
  8
0
 10
57.22703978
 20
311.32645042
 30
0.0
  0
VERTEX
  5
543
  8
0
 10
56.96061814
 20
312.66584243
 30
0.0
  0
VERTEX
  5
544
  8
0
 10
57.22703978
 20
314.00523445
 30
0.0
  0
VERTEX
  5
545
  8
0
 10
57.98574441
 20
315.14071617
 30
0.0
  0
SEQEND
  5
546
  8
0
  0
POLYLINE
  5
547
  8
0
 66
     1
 10
0.0
 20
0.0
 30
0.0
 70
     1
  0
VERTEX
  5
548
  8
0
 10
28.12122613
 20
301.8994208
 30
0.0
  0
VERTEX
  5
549
  8
0
 10
29.46061814
 20
302.16584243
 30
0.0
  0
VERTEX
  5
54A
  8
0
 10
30.80001015
 20
301.8994208
 30
0.0
  0
VERTEX
  5
54B
  8
0
 10
31.93549188
 20
301.14071617
 30
0.0
  0
VERTEX
  5
54C
  8
0
 10
32.6941965
 20
300.00523445
 30
0.0
  0
VERTEX
  5
54D
  8
0
 10
32.96061814
 20
298.66584243
 30
0.0
  0
VERTEX
  5
54E
  8
0
 10
32.6941965
 20
297.32645042
 30
0.0
  0
VERTEX
  5
54F
  8
0
 10
31.93549188
 20
296.1909687
 30
0.0
  0
VERTEX
  5
550
  8
0
 10
30.80001015
 20
295.43226407
 30
0.0
  0
VERTEX
  5
551
  8
0
 10
29.46061814
 20
295.16584243
 30
0.0
  0
VERTEX
  5
552
  8
0
 10
28.12122613
 20
295.43226407
 30
0.0
  0
VERTEX
  5
553
  8
0
 10
26.98574441
 20
296.1909687
 30
0.0
  0
VERTEX
  5
554
  8
0
 10
26.22703978
 20
297.32645042
 30
0.0
  0
VERTEX
  5
555
  8
0
 10
25.96061814
 20
298.66584243
 30
0.0
  0
VERTEX
  5
556
  8
0
 10
26.22703978
 20
300.00523445
 30
0.0
  0
VERTEX
  5
557
  8
0
 10
26.98574441
 20
301.14071617
 30
0.0
  0
SEQEND
  5
558
  8
0
  0
POLYLINE
  5
559
  8
0
 66
     1
 10
0.0
 20
0.0
 30
0.0
 70
     1
  0
VERTEX
  5
55A
  8
0
 10
27.7385427
 20
358.82330033
 30
0.0
  0
VERTEX
  5
55B
  8
0
 10
29.46061814
 20
359.16584243
 30
0.0
  0
VERTEX
  5
55C
  8
0
 10
31.18269359
 20
358.82330033
 30
0.0
  0
VERTEX
  5
55D
  8
0
 10
32.64259866
 20
357.84782295
 30
0.0
  0
VERTEX
  5
55E
  8
0
 10
33.61807604
 20
356.38791788
 30
0.0
  0
VERTEX
  5
55F
  8
0
 10
33.96061814
 20
354.66584243
 30
0.0
  0
VERTEX
  5
560
  8
0
 10
33.61807604
 20
352.94376699
 30
0.0
  0
VERTEX
  5
561
  8
0
 10
32.64259866
 20
351.48386192
 30
0.0
  0
VERTEX
  5
562
  8
0
 10
31.18269359
 20
350.50838454
 30
0.0
  0
VERTEX
  5
563
  8
0
 10
29.46061814
 20
350.16584243
 30
0.0
  0
VERTEX
  5
564
  8
0
 10
27.7385427
 20
350.50838454
 30
0.0
  0
VERTEX
  5
565
  8
0
 10
26.27863763
 20
351.48386192
 30
0.0
  0
VERTEX
  5
566
  8
0
 10
25.30316024
 20
352.94376699
 30
0.0
  0
VERTEX
  5
567
  8
0
 10
24.96061814
 20
354.66584243
 30
0.0
  0
VERTEX
  5
568
  8
0
 10
25.30316024
 20
356.38791788
 30
0.0
  0
VERTEX
  5
569
  8
0
 10
26.27863763
 20
357.84782295
 30
0.0
  0
SEQEND
  5
56A
  8
0
  0
POLYLINE
  5
56B
  8
0
 66
     1
 10
0.0
 20
0.0
 30
0.0
 70
     1
  0
VERTEX
  5
56C
  8
0
 10
27.7385427
 20
316.82330033
 30
0.0
  0
VERTEX
  5
56D
  8
0
 10
29.46061814
 20
317.16584243
 30
0.0
  0
VERTEX
  5
56E
  8
0
 10
31.18269359
 20
316.82330033
 30
0.0
  0
VERTEX
  5
56F
  8
0
 10
32.64259866
 20
315.84782295
 30
0.0
  0
VERTEX
  5
570
  8
0
 10
33.61807604
 20
314.38791788
 30
0.0
  0
VERTEX
  5
571
  8
0
 10
33.96061814
 20
312.66584243
 30
0.0
  0
VERTEX
  5
572
  8
0
 10
33.61807604
 20
310.94376699
 30
0.0
  0
VERTEX
  5
573
  8
0
 10
32.64259866
 20
309.48386192
 30
0.0
  0
VERTEX
  5
574
  8
0
 10
31.18269359
 20
308.50838454
 30
0.0
  0
VERTEX
  5
575
  8
0
 10
29.46061814
 20
308.16584243
 30
0.0
  0
VERTEX
  5
576
  8
0
 10
27.7385427
 20
308.50838454
 30
0.0
  0
VERTEX
  5
577
  8
0
 10
26.27863763
 20
309.48386192
 30
0.0
  0
VERTEX
  5
578
  8
0
 10
25.30316024
 20
310.94376699
 30
0.0
  0
VERTEX
  5
579
  8
0
 10
24.96061814
 20
312.66584243
 30
0.0
  0
VERTEX
  5
57A
  8
0
 10
25.30316024
 20
314.38791788
 30
0.0
  0
VERTEX
  5
57B
  8
0
 10
26.27863763
 20
315.84782295
 30
0.0
  0
SEQEND
  5
57C
  8
0
  0
POLYLINE
  5
57D
  8
0
 66
     1
 10
0.0
 20
0.0
 30
0.0
 70
     1
  0
VERTEX
  5
57E
  8
0
 10
58.7385427
 20
340.82330033
 30
0.0
  0
VERTEX
  5
57F
  8
0
 10
60.46061814
 20
341.16584243
 30
0.0
  0
VERTEX
  5
580
  8
0
 10
62.18269359
 20
340.82330033
 30
0.0
  0
VERTEX
  5
581
  8
0
 10
63.64259866
 20
339.84782295
 30
0.0
  0
VERTEX
  5
582
  8
0
 10
64.61807604
 20
338.38791788
 30
0.0
  0
VERTEX
  5
583
  8
0
 10
64.96061814
 20
336.66584243
 30
0.0
  0
VERTEX
  5
584
  8
0
 10
64.61807604
 20
334.94376699
 30
0.0
  0
VERTEX
  5
585
  8
0
 10
63.64259866
 20
333.48386192
 30
0.0
  0
VERTEX
  5
586
  8
0
 10
62.18269359
 20
332.50838454
 30
0.0
  0
VERTEX
  5
587
  8
0
 10
60.46061814
 20
332.16584243
 30
0.0
  0
VERTEX
  5
588
  8
0
 10
58.7385427
 20
332.50838454
 30
0.0
  0
VERTEX
  5
589
  8
0
 10
57.27863763
 20
333.48386192
 30
0.0
  0
VERTEX
  5
58A
  8
0
 10
56.30316024
 20
334.94376699
 30
0.0
  0
VERTEX
  5
58B
  8
0
 10
55.96061814
 20
336.66584243
 30
0.0
  0
VERTEX
  5
58C
  8
0
 10
56.30316024
 20
338.38791788
 30
0.0
  0
VERTEX
  5
58D
  8
0
 10
57.27863763
 20
339.84782295
 30
0.0
  0
SEQEND
  5
58E
  8
0
  0
POLYLINE
  5
58F
  8
0
 66
     1
 10
0.0
 20
0.0
 30
0.0
 70
     1
  0
VERTEX
  5
590
  8
0
 10
58.7385427
 20
302.82330033
 30
0.0
  0
VERTEX
  5
591
  8
0
 10
60.46061814
 20
303.16584243
 30
0.0
  0
VERTEX
  5
592
  8
0
 10
62.18269359
 20
302.82330033
 30
0.0
  0
VERTEX
  5
593
  8
0
 10
63.64259866
 20
301.84782295
 30
0.0
  0
VERTEX
  5
594
  8
0
 10
64.61807604
 20
300.38791788
 30
0.0
  0
VERTEX
  5
595
  8
0
 10
64.96061814
 20
298.66584243
 30
0.0
  0
VERTEX
  5
596
  8
0
 10
64.61807604
 20
296.94376699
 30
0.0
  0
VERTEX
  5
597
  8
0
 10
63.64259866
 20
295.48386192
 30
0.0
  0
VERTEX
  5
598
  8
0
 10
62.18269359
 20
294.50838454
 30
0.0
  0
VERTEX
  5
599
  8
0
 10
60.46061814
 20
294.16584243
 30
0.0
  0
VERTEX
  5
59A
  8
0
 10
58.7385427
 20
294.50838454
 30
0.0
  0
VERTEX
  5
59B
  8
0
 10
57.27863763
 20
295.48386192
 30
0.0
  0
VERTEX
  5
59C
  8
0
 10
56.30316024
 20
296.94376699
 30
0.0
  0
VERTEX
  5
59D
  8
0
 10
55.96061814
 20
298.66584243
 30
0.0
  0
VERTEX
  5
59E
  8
0
 10
56.30316024
 20
300.38791788
 30
0.0
  0
VERTEX
  5
59F
  8
0
 10
57.27863763
 20
301.84782295
 30
0.0
  0
SEQEND
  5
5A0
  8
0
  0
POLYLINE
  5
5A1
  8
0
 66
     1
 10
0.0
 20
0.0
 30
0.0
 70
     1
  0
VERTEX
  5
5A2
  8
0
 10
50.9658351
 20
347.65328474
 30
0.0
  0
VERTEX
  5
5A3
  8
0
 10
51.46061814
 20
345.16584243
 30
0.0
  0
VERTEX
  5
5A4
  8
0
 10
51.46061814
 20
328.16584243
 30
0.0
  0
VERTEX
  5
5A5
  8
0
 10
50.9658351
 20
325.67840012
 30
0.0
  0
VERTEX
  5
5A6
  8
0
 10
49.55681222
 20
323.56964836
 30
0.0
  0
VERTEX
  5
5A7
  8
0
 10
47.44806045
 20
322.16062547
 30
0.0
  0
VERTEX
  5
5A8
  8
0
 10
44.96061814
 20
321.66584243
 30
0.0
  0
VERTEX
  5
5A9
  8
0
 10
42.47317583
 20
322.16062547
 30
0.0
  0
VERTEX
  5
5AA
  8
0
 10
40.36442406
 20
323.56964836
 30
0.0
  0
VERTEX
  5
5AB
  8
0
 10
38.95540118
 20
325.67840012
 30
0.0
  0
VERTEX
  5
5AC
  8
0
 10
38.46061814
 20
328.16584243
 30
0.0
  0
VERTEX
  5
5AD
  8
0
 10
38.46061814
 20
345.16584243
 30
0.0
  0
VERTEX
  5
5AE
  8
0
 10
38.95540118
 20
347.65328474
 30
0.0
  0
VERTEX
  5
5AF
  8
0
 10
40.36442406
 20
349.76203651
 30
0.0
  0
VERTEX
  5
5B0
  8
0
 10
42.47317583
 20
351.1710594
 30
0.0
  0
VERTEX
  5
5B1
  8
0
 10
44.96061814
 20
351.66584243
 30
0.0
  0
VERTEX
  5
5B2
  8
0
 10
47.44806045
 20
351.1710594
 30
0.0
  0
VERTEX
  5
5B3
  8
0
 10
49.55681222
 20
349.76203651
 30
0.0
  0
SEQEND
  5
5B4
  8
0
  0
POLYLINE
  5
5B5
  8
0
 66
     1
 10
0.0
 20
0.0
 30
0.0
  0
VERTEX
  5
5B6
  8
0
 10
8.96061814
 20
360.66584243
 30
0.0
  0
VERTEX
  5
5B7
  8
0
 10
11.96061814
 20
360.66584243
 30
0.0
  0
VERTEX
  5
5B8
  8
0
 10
11.96061814
 20
366.66584243
 30
0.0
  0
SEQEND
  5
5B9
  8
0
  0
LINE
  5
5BA
  8
0
 10
17.96061814
 20
370.66584243
 30
0.0
 11
11.96061814
 21
366.66584243
 31
0.0
  0
LINE
  5
5BB
  8
0
 10
71.96061814
 20
370.66584243
 30
0.0
 11
17.96061814
 21
370.66584243
 31
0.0
  0
LINE
  5
5BC
  8
0
 10
77.96061814
 20
366.66584243
 30
0.0
 11
71.96061814
 21
370.66584243
 31
0.0
  0
LINE
  5
5BD
  8
0
 10
77.96061814
 20
360.66584243
 30
0.0
 11
77.96061814
 21
366.66584243
 31
0.0
  0
LINE
  5
5BE
  8
0
 10
80.96061814
 20
360.66584243
 30
0.0
 11
77.96061814
 21
360.66584243
 31
0.0
  0
LINE
  5
5BF
  8
0
 10
80.96061814
 20
354.66584243
 30
0.0
 11
80.96061814
 21
360.66584243
 31
0.0
  0
LINE
  5
5C0
  8
0
 10
65.96061814
 20
354.66584243
 30
0.0
 11
80.96061814
 21
354.66584243
 31
0.0
  0
LINE
  5
5C1
  8
0
 10
8.96061814
 20
354.66584243
 30
0.0
 11
23.96061814
 21
354.66584243
 31
0.0
  0
LINE
  5
5C2
  8
0
 10
8.96061814
 20
360.66584243
 30
0.0
 11
8.96061814
 21
354.66584243
 31
0.0
  0
LINE
  5
5C3
  8
0
 10
23.96061814
 20
280.66584243
 30
0.0
 11
23.17603054
 21
280.15533363
 31
0.0
  0
LINE
  5
5C4
  8
0
 10
23.45010933
 20
279.88125483
 30
0.0
 11
23.96061814
 21
280.66584243
 31
0.0
  0
LINE
  5
5C5
  8
0
 10
22.39627523
 20
279.64482482
 30
0.0
 11
23.17603054
 21
280.15533363
 31
0.0
  0
LINE
  5
5C6
  8
0
 10
22.93960008
 20
279.64482482
 30
0.0
 11
23.45010947
 21
280.15533363
 31
0.0
  0
LINE
  5
5C7
  8
0
 10
22.39627523
 20
279.64482482
 30
0.0
 11
21.62616892
 21
279.13431602
 31
0.0
  0
LINE
  5
5C8
  8
0
 10
20.87045868
 20
278.62380721
 30
0.0
 11
21.62616892
 21
279.13431602
 31
0.0
  0
LINE
  5
5C9
  8
0
 10
20.13378382
 20
278.1132984
 30
0.0
 11
20.87045868
 21
278.62380721
 31
0.0
  0
POLYLINE
  5
5CA
  8
0
 66
     1
 10
0.0
 20
0.0
 30
0.0
  0
VERTEX
  5
5CB
  8
0
 10
22.42909708
 20
279.13431602
 30
0.0
  0
VERTEX
  5
5CC
  8
0
 10
21.91859472
 20
278.62380721
 30
0.0
  0
VERTEX
  5
5CD
  8
0
 10
21.40807473
 20
278.1132984
 30
0.0
  0
VERTEX
  5
5CE
  8
0
 10
20.89756588
 20
277.6027896
 30
0.0
  0
VERTEX
  5
5CF
  8
0
 10
20.38703813
 20
277.09228079
 30
0.0
  0
VERTEX
  5
5D0
  8
0
 10
19.87652774
 20
276.58177198
 30
0.0
  0
VERTEX
  5
5D1
  8
0
 10
19.36604072
 20
276.07126318
 30
0.0
  0
SEQEND
  5
5D2
  8
0
  0
LINE
  5
5D3
  8
0
 10
19.42072982
 20
277.6027896
 30
0.0
 11
20.13378382
 21
278.1132984
 31
0.0
  0
LINE
  5
5D4
  8
0
 10
18.73564013
 20
277.09228079
 30
0.0
 11
19.42072982
 21
277.6027896
 31
0.0
  0
LINE
  5
5D5
  8
0
 10
18.08277552
 20
276.58177198
 30
0.0
 11
18.73564013
 21
277.09228079
 31
0.0
  0
LINE
  5
5D6
  8
0
 10
17.46616038
 20
276.07126318
 30
0.0
 11
18.08277552
 21
276.58177198
 31
0.0
  0
LINE
  5
5D7
  8
0
 10
16.88955033
 20
275.56075437
 30
0.0
 11
17.46616038
 21
276.07126318
 31
0.0
  0
LINE
  5
5D8
  8
0
 10
16.88955033
 20
347.52298529
 30
0.0
 11
16.88955033
 21
275.56075437
 31
0.0
  0
LINE
  5
5D9
  8
0
 10
16.35658595
 20
276.07126318
 30
0.0
 11
16.88955033
 21
275.56075437
 31
0.0
  0
LINE
  5
5DA
  8
0
 10
15.87046056
 20
276.58177198
 30
0.0
 11
16.35658595
 21
276.07126318
 31
0.0
  0
LINE
  5
5DB
  8
0
 10
15.43423038
 20
277.09228079
 30
0.0
 11
15.87046056
 21
276.58177198
 31
0.0
  0
LINE
  5
5DC
  8
0
 10
15.0505844
 20
277.6027896
 30
0.0
 11
15.43423038
 21
277.09228079
 31
0.0
  0
LINE
  5
5DD
  8
0
 10
14.72182282
 20
278.1132984
 30
0.0
 11
15.0505844
 21
277.6027896
 31
0.0
  0
LINE
  5
5DE
  8
0
 10
14.45008705
 20
278.62380721
 30
0.0
 11
14.72182282
 21
278.1132984
 31
0.0
  0
LINE
  5
5DF
  8
0
 10
14.23693415
 20
279.13431602
 30
0.0
 11
14.45008705
 21
278.62380721
 31
0.0
  0
LINE
  5
5E0
  8
0
 10
14.08375048
 20
279.64482482
 30
0.0
 11
14.23693415
 21
279.13431602
 31
0.0
  0
LINE
  5
5E1
  8
0
 10
13.99148029
 20
280.15533363
 30
0.0
 11
14.08375048
 21
279.64482482
 31
0.0
  0
LINE
  5
5E2
  8
0
 10
13.96061814
 20
280.66584243
 30
0.0
 11
13.99148029
 21
280.15533363
 31
0.0
  0
LINE
  5
5E3
  8
0
 10
13.96061814
 20
347.52298529
 30
0.0
 11
13.96061814
 21
280.66584243
 31
0.0
  0
POLYLINE
  5
5E4
  8
0
 66
     1
 10
0.0
 20
0.0
 30
0.0
  0
VERTEX
  5
5E5
  8
0
 10
16.88955033
 20
275.56075437
 30
0.0
  0
VERTEX
  5
5E6
  8
0
 10
18.85553008
 20
275.56075437
 30
0.0
  0
VERTEX
  5
5E7
  8
0
 10
19.36604072
 20
276.07126318
 30
0.0
  0
SEQEND
  5
5E8
  8
0
  0
LINE
  5
5E9
  8
0
 10
18.85553008
 20
273.59477462
 30
0.0
 11
18.85553008
 21
275.56075437
 31
0.0
  0
LINE
  5
5EA
  8
0
 10
19.36603889
 20
274.17138467
 30
0.0
 11
18.85553008
 21
273.59477462
 31
0.0
  0
POLYLINE
  5
5EB
  8
0
 66
     1
 10
0.0
 20
0.0
 30
0.0
  0
VERTEX
  5
5EC
  8
0
 10
19.36603889
 20
274.17138467
 30
0.0
  0
VERTEX
  5
5ED
  8
0
 10
19.87654769
 20
274.78799982
 30
0.0
  0
VERTEX
  5
5EE
  8
0
 10
20.3870565
 20
275.44086442
 30
0.0
  0
VERTEX
  5
5EF
  8
0
 10
20.8975653
 20
276.12595412
 30
0.0
  0
VERTEX
  5
5F0
  8
0
 10
21.40807411
 20
276.83900811
 30
0.0
  0
VERTEX
  5
5F1
  8
0
 10
21.91858292
 20
277.57568297
 30
0.0
  0
VERTEX
  5
5F2
  8
0
 10
22.42909172
 20
278.33139322
 30
0.0
  0
VERTEX
  5
5F3
  8
0
 10
22.93960053
 20
279.10149952
 30
0.0
  0
SEQEND
  5
5F4
  8
0
  0
LINE
  5
5F5
  8
0
 10
22.93960008
 20
279.64482482
 30
0.0
 11
22.42909708
 21
279.13431602
 31
0.0
  0
LINE
  5
5F6
  8
0
 10
23.96061814
 20
280.66584243
 30
0.0
 11
23.45010947
 21
280.15533363
 31
0.0
  0
LINE
  5
5F7
  8
0
 10
22.93960053
 20
279.10149952
 30
0.0
 11
23.45010933
 21
279.88125483
 31
0.0
  0
LINE
  5
5F8
  8
0
 10
66.47112695
 20
279.88125483
 30
0.0
 11
66.98163575
 21
279.10149952
 31
0.0
  0
LINE
  5
5F9
  8
0
 10
66.9816362
 20
279.64482482
 30
0.0
 11
67.49213921
 21
279.13431602
 31
0.0
  0
POLYLINE
  5
5FA
  8
0
 66
     1
 10
0.0
 20
0.0
 30
0.0
  0
VERTEX
  5
5FB
  8
0
 10
66.98163575
 20
279.10149952
 30
0.0
  0
VERTEX
  5
5FC
  8
0
 10
67.49214456
 20
278.33139322
 30
0.0
  0
VERTEX
  5
5FD
  8
0
 10
68.00265337
 20
277.57568297
 30
0.0
  0
VERTEX
  5
5FE
  8
0
 10
68.51316217
 20
276.83900811
 30
0.0
  0
SEQEND
  5
5FF
  8
0
  0
LINE
  5
600
  8
0
 10
68.51316155
 20
278.1132984
 30
0.0
 11
69.02367041
 21
277.6027896
 31
0.0
  0
LINE
  5
601
  8
0
 10
68.00264157
 20
278.62380721
 30
0.0
 11
68.51316155
 21
278.1132984
 31
0.0
  0
LINE
  5
602
  8
0
 10
67.49213921
 20
279.13431602
 30
0.0
 11
68.00264157
 21
278.62380721
 31
0.0
  0
LINE
  5
603
  8
0
 10
68.51316217
 20
276.83900811
 30
0.0
 11
69.02367098
 21
276.12595412
 31
0.0
  0
LINE
  5
604
  8
0
 10
71.0657062
 20
273.59477462
 30
0.0
 11
71.0657062
 21
275.56075437
 31
0.0
  0
POLYLINE
  5
605
  8
0
 66
     1
 10
0.0
 20
0.0
 30
0.0
  0
VERTEX
  5
606
  8
0
 10
69.02367098
 20
276.12595412
 30
0.0
  0
VERTEX
  5
607
  8
0
 10
69.53417978
 20
275.44086442
 30
0.0
  0
VERTEX
  5
608
  8
0
 10
70.04468859
 20
274.78799982
 30
0.0
  0
VERTEX
  5
609
  8
0
 10
70.5551974
 20
274.17138467
 30
0.0
  0
VERTEX
  5
60A
  8
0
 10
71.0657062
 20
273.59477462
 30
0.0
  0
SEQEND
  5
60B
  8
0
  0
POLYLINE
  5
60C
  8
0
 66
     1
 10
0.0
 20
0.0
 30
0.0
  0
VERTEX
  5
60D
  8
0
 10
18.85553008
 20
273.59477462
 30
0.0
  0
VERTEX
  5
60E
  8
0
 10
19.36603889
 20
273.06181025
 30
0.0
  0
VERTEX
  5
60F
  8
0
 10
19.87654769
 20
272.57568485
 30
0.0
  0
VERTEX
  5
610
  8
0
 10
20.3870565
 20
272.13945467
 30
0.0
  0
SEQEND
  5
611
  8
0
  0
LINE
  5
612
  8
0
 10
20.8975653
 20
271.7558087
 30
0.0
 11
20.3870565
 21
272.13945467
 31
0.0
  0
POLYLINE
  5
613
  8
0
 66
     1
 10
0.0
 20
0.0
 30
0.0
  0
VERTEX
  5
614
  8
0
 10
71.0657062
 20
273.59477462
 30
0.0
  0
VERTEX
  5
615
  8
0
 10
70.5551974
 20
273.06181025
 30
0.0
  0
VERTEX
  5
616
  8
0
 10
70.04468859
 20
272.57568485
 30
0.0
  0
VERTEX
  5
617
  8
0
 10
69.53417978
 20
272.13945467
 30
0.0
  0
VERTEX
  5
618
  8
0
 10
69.02367098
 20
271.7558087
 30
0.0
  0
VERTEX
  5
619
  8
0
 10
68.51316217
 20
271.42704711
 30
0.0
  0
SEQEND
  5
61A
  8
0
  0
POLYLINE
  5
61B
  8
0
 66
     1
 10
0.0
 20
0.0
 30
0.0
  0
VERTEX
  5
61C
  8
0
 10
20.8975653
 20
271.7558087
 30
0.0
  0
VERTEX
  5
61D
  8
0
 10
21.40807411
 20
271.42704711
 30
0.0
  0
VERTEX
  5
61E
  8
0
 10
21.91858292
 20
271.15531134
 30
0.0
  0
VERTEX
  5
61F
  8
0
 10
22.42909172
 20
270.94215844
 30
0.0
  0
VERTEX
  5
620
  8
0
 10
22.93960053
 20
270.78897478
 30
0.0
  0
SEQEND
  5
621
  8
0
  0
LINE
  5
622
  8
0
 10
23.45010933
 20
270.69670459
 30
0.0
 11
22.93960053
 21
270.78897478
 31
0.0
  0
POLYLINE
  5
623
  8
0
 66
     1
 10
0.0
 20
0.0
 30
0.0
  0
VERTEX
  5
624
  8
0
 10
68.51316217
 20
271.42704711
 30
0.0
  0
VERTEX
  5
625
  8
0
 10
68.00265337
 20
271.15531134
 30
0.0
  0
VERTEX
  5
626
  8
0
 10
67.49214456
 20
270.94215844
 30
0.0
  0
VERTEX
  5
627
  8
0
 10
66.98163575
 20
270.78897478
 30
0.0
  0
VERTEX
  5
628
  8
0
 10
66.47112695
 20
270.69670459
 30
0.0
  0
VERTEX
  5
629
  8
0
 10
65.96061814
 20
270.66584243
 30
0.0
  0
SEQEND
  5
62A
  8
0
  0
LINE
  5
62B
  8
0
 10
23.96061814
 20
270.66584243
 30
0.0
 11
65.96061814
 21
270.66584243
 31
0.0
  0
LINE
  5
62C
  8
0
 10
23.45010933
 20
270.69670459
 30
0.0
 11
23.96061814
 21
270.66584243
 31
0.0
  0
POLYLINE
  5
62D
  8
0
 66
     1
 10
0.0
 20
0.0
 30
0.0
  0
VERTEX
  5
62E
  8
0
 10
69.02367041
 20
277.6027896
 30
0.0
  0
VERTEX
  5
62F
  8
0
 10
69.53419815
 20
277.09228079
 30
0.0
  0
VERTEX
  5
630
  8
0
 10
70.04470854
 20
276.58177198
 30
0.0
  0
VERTEX
  5
631
  8
0
 10
70.55519556
 20
276.07126318
 30
0.0
  0
VERTEX
  5
632
  8
0
 10
71.0657062
 20
275.56075437
 30
0.0
  0
SEQEND
  5
633
  8
0
  0
LINE
  5
634
  8
0
 10
73.03168595
 20
275.56075437
 30
0.0
 11
71.0657062
 21
275.56075437
 31
0.0
  0
POLYLINE
  5
635
  8
0
 66
     1
 10
0.0
 20
0.0
 30
0.0
  0
VERTEX
  5
636
  8
0
 10
73.03168595
 20
275.56075437
 30
0.0
  0
VERTEX
  5
637
  8
0
 10
72.4550759
 20
276.07126318
 30
0.0
  0
VERTEX
  5
638
  8
0
 10
71.83846076
 20
276.58177198
 30
0.0
  0
SEQEND
  5
639
  8
0
  0
LINE
  5
63A
  8
0
 10
70.50050646
 20
277.6027896
 30
0.0
 11
69.78745246
 21
278.1132984
 31
0.0
  0
LINE
  5
63B
  8
0
 10
71.18559616
 20
277.09228079
 30
0.0
 11
70.50050646
 21
277.6027896
 31
0.0
  0
LINE
  5
63C
  8
0
 10
71.83846076
 20
276.58177198
 30
0.0
 11
71.18559616
 21
277.09228079
 31
0.0
  0
LINE
  5
63D
  8
0
 10
66.47112681
 20
280.15533363
 30
0.0
 11
66.9816362
 21
279.64482482
 31
0.0
  0
LINE
  5
63E
  8
0
 10
66.74520574
 20
280.15533363
 30
0.0
 11
65.96061814
 21
280.66584243
 31
0.0
  0
LINE
  5
63F
  8
0
 10
67.52496105
 20
279.64482482
 30
0.0
 11
66.74520574
 21
280.15533363
 31
0.0
  0
LINE
  5
640
  8
0
 10
68.29506736
 20
279.13431602
 30
0.0
 11
67.52496105
 21
279.64482482
 31
0.0
  0
LINE
  5
641
  8
0
 10
69.0507776
 20
278.62380721
 30
0.0
 11
68.29506736
 21
279.13431602
 31
0.0
  0
LINE
  5
642
  8
0
 10
69.78745246
 20
278.1132984
 30
0.0
 11
69.0507776
 21
278.62380721
 31
0.0
  0
LINE
  5
643
  8
0
 10
65.96061814
 20
280.66584243
 30
0.0
 11
66.47112695
 21
279.88125483
 31
0.0
  0
LINE
  5
644
  8
0
 10
73.56465033
 20
276.07126318
 30
0.0
 11
73.03168595
 21
275.56075437
 31
0.0
  0
LINE
  5
645
  8
0
 10
74.05077572
 20
276.58177198
 30
0.0
 11
73.56465033
 21
276.07126318
 31
0.0
  0
LINE
  5
646
  8
0
 10
74.4870059
 20
277.09228079
 30
0.0
 11
74.05077572
 21
276.58177198
 31
0.0
  0
LINE
  5
647
  8
0
 10
74.87065188
 20
277.6027896
 30
0.0
 11
74.4870059
 21
277.09228079
 31
0.0
  0
LINE
  5
648
  8
0
 10
75.19941347
 20
278.1132984
 30
0.0
 11
74.87065188
 21
277.6027896
 31
0.0
  0
LINE
  5
649
  8
0
 10
75.47114923
 20
278.62380721
 30
0.0
 11
75.19941347
 21
278.1132984
 31
0.0
  0
LINE
  5
64A
  8
0
 10
75.68430213
 20
279.13431602
 30
0.0
 11
75.47114923
 21
278.62380721
 31
0.0
  0
LINE
  5
64B
  8
0
 10
75.8374858
 20
279.64482482
 30
0.0
 11
75.68430213
 21
279.13431602
 31
0.0
  0
LINE
  5
64C
  8
0
 10
75.92975599
 20
280.15533363
 30
0.0
 11
75.8374858
 21
279.64482482
 31
0.0
  0
LINE
  5
64D
  8
0
 10
75.92975599
 20
280.15533363
 30
0.0
 11
75.96061814
 21
280.66584243
 31
0.0
  0
LINE
  5
64E
  8
0
 10
75.96061814
 20
347.52298529
 30
0.0
 11
75.96061814
 21
280.66584243
 31
0.0
  0
ENDBLK
  8
0
  0
BLOCK
  8
0
  2
1X_BL_10X7_143X72_000_S238
 70
     0
 10
0.0
 20
0.0
 30
0.0
  0
INSERT
  5
651
  8
0
  2
1X_BL_10X7_143X72_000_S239
 10
79.890755
 20
276.35309005
 30
0.0
  0
ENDBLK
  8
0
  0
BLOCK
  8
0
  2
1X_BL_10X7_143X72_000_S239
 70
     0
 10
79.890755
 20
276.35309005
 30
0.0
  0
LINE
  5
654
  8
0
 10
79.890755
 20
276.35309005
 30
0.0
 11
80.96061814
 21
275.66584243
 31
0.0
  0
POLYLINE
  5
655
  8
0
 66
     1
 10
0.0
 20
0.0
 30
0.0
  0
VERTEX
  5
656
  8
0
 10
79.890755
 20
270.66584243
 30
0.0
  0
VERTEX
  5
657
  8
0
 10
80.96061814
 20
270.66584243
 30
0.0
  0
VERTEX
  5
658
  8
0
 10
80.96061814
 20
275.66584243
 30
0.0
  0
SEQEND
  5
659
  8
0
  0
LINE
  5
65A
  8
0
 10
79.890755
 20
270.66584243
 30
0.0
 11
76.22145989
 21
270.66584243
 31
0.0
  0
LINE
  5
65B
  8
0
 10
76.22145989
 20
280.1971318
 30
0.0
 11
79.890755
 21
276.35309005
 31
0.0
  0
LINE
  5
65C
  8
0
 10
75.96061814
 20
280.66584243
 30
0.0
 11
76.22145989
 21
280.1971318
 31
0.0
  0
POLYLINE
  5
65D
  8
0
 66
     1
 10
0.0
 20
0.0
 30
0.0
  0
VERTEX
  5
65E
  8
0
 10
76.22145989
 20
270.66584243
 30
0.0
  0
VERTEX
  5
65F
  8
0
 10
75.96061814
 20
270.66584243
 30
0.0
  0
VERTEX
  5
660
  8
0
 10
75.96061814
 20
280.66584243
 30
0.0
  0
SEQEND
  5
661
  8
0
  0
LINE
  5
662
  8
0
 10
75.96061814
 20
270.66584243
 30
0.0
 11
65.96061814
 21
270.66584243
 31
0.0
  0
LINE
  5
663
  8
0
 10
23.96061814
 20
270.66584243
 30
0.0
 11
13.96061814
 21
270.66584243
 31
0.0
  0
POLYLINE
  5
664
  8
0
 66
     1
 10
0.0
 20
0.0
 30
0.0
  0
VERTEX
  5
665
  8
0
 10
13.96061814
 20
280.66584243
 30
0.0
  0
VERTEX
  5
666
  8
0
 10
13.96061814
 20
270.66584243
 30
0.0
  0
VERTEX
  5
667
  8
0
 10
13.69977639
 20
270.66584243
 30
0.0
  0
SEQEND
  5
668
  8
0
  0
LINE
  5
669
  8
0
 10
13.69977639
 20
280.1971318
 30
0.0
 11
13.96061814
 21
280.66584243
 31
0.0
  0
LINE
  5
66A
  8
0
 10
10.03048128
 20
276.35309005
 30
0.0
 11
13.69977639
 21
280.1971318
 31
0.0
  0
LINE
  5
66B
  8
0
 10
13.69977639
 20
270.66584243
 30
0.0
 11
10.03048128
 21
270.66584243
 31
0.0
  0
LINE
  5
66C
  8
0
 10
8.96061814
 20
275.66584243
 30
0.0
 11
10.03048128
 21
276.35309005
 31
0.0
  0
LINE
  5
66D
  8
0
 10
8.96061814
 20
270.66584243
 30
0.0
 11
8.96061814
 21
275.66584243
 31
0.0
  0
LINE
  5
66E
  8
0
 10
10.03048128
 20
270.66584243
 30
0.0
 11
8.96061814
 21
270.66584243
 31
0.0
  0
ENDBLK
  8
0
  0
BLOCK
  8
0
  2
1X_BL_10X7_143X72_000_S23A
 70
     0
 10
0.0
 20
0.0
 30
0.0
  0
INSERT
  5
671
  8
0
  2
1X_BL_10X7_143X72_000_S23B
 10
23.96061814
 20
347.52298529
 30
0.0
  0
ENDBLK
  8
0
  0
BLOCK
  8
0
  2
1X_BL_10X7_143X72_000_S23B
 70
     0
 10
23.96061814
 20
347.52298529
 30
0.0
  0
LINE
  5
674
  8
0
 10
23.96061814
 20
347.52298529
 30
0.0
 11
23.96061814
 21
354.66584243
 31
0.0
  0
LINE
  5
675
  8
0
 10
8.96061814
 20
354.66584243
 30
0.0
 11
23.96061814
 21
354.66584243
 31
0.0
  0
POLYLINE
  5
676
  8
0
 66
     1
 10
0.0
 20
0.0
 30
0.0
  0
VERTEX
  5
677
  8
0
 10
8.96061814
 20
354.66584243
 30
0.0
  0
VERTEX
  5
678
  8
0
 10
10.03048128
 20
353.68406013
 30
0.0
  0
VERTEX
  5
679
  8
0
 10
13.69977639
 20
348.19257191
 30
0.0
  0
VERTEX
  5
67A
  8
0
 10
13.96061814
 20
347.52298529
 30
0.0
  0
VERTEX
  5
67B
  8
0
 10
23.96061814
 20
347.52298529
 30
0.0
  0
SEQEND
  5
67C
  8
0
  0
POLYLINE
  5
67D
  8
0
 66
     1
 10
0.0
 20
0.0
 30
0.0
  0
VERTEX
  5
67E
  8
0
 10
65.96061814
 20
347.52298529
 30
0.0
  0
VERTEX
  5
67F
  8
0
 10
65.96061814
 20
354.66584243
 30
0.0
  0
VERTEX
  5
680
  8
0
 10
80.96061814
 20
354.66584243
 30
0.0
  0
SEQEND
  5
681
  8
0
  0
LINE
  5
682
  8
0
 10
79.890755
 20
353.68406013
 30
0.0
 11
80.96061814
 21
354.66584243
 31
0.0
  0
LINE
  5
683
  8
0
 10
76.22145989
 20
348.19257191
 30
0.0
 11
79.890755
 21
353.68406013
 31
0.0
  0
LINE
  5
684
  8
0
 10
75.96061814
 20
347.52298529
 30
0.0
 11
76.22145989
 21
348.19257191
 31
0.0
  0
LINE
  5
685
  8
0
 10
65.96061814
 20
347.52298529
 30
0.0
 11
75.96061814
 21
347.52298529
 31
0.0
  0
ENDBLK
  8
0
  0
BLOCK
  8
0
  2
_ANS0005_00043
 70
     0
 10
0.0
 20
0.0
 30
0.0
  0
INSERT
  5
688
  8
0
  2
_A3D0005_00044
 10
0.0
 20
0.0
 30
0.0
  0
ENDBLK
  8
0
  0
BLOCK
  8
0
  2
_A3D0005_00044
 70
     0
 10
0.0
 20
0.0
 30
0.0
  0
INSERT
  5
68B
  8
0
  2
SVH04-ANKER_00045
 10
0.0
 20
0.0
 30
0.0
  0
ENDBLK
  8
0
  0
BLOCK
  8
0
  2
SVH04-ANKER_00045
 70
     0
 10
0.0
 20
0.0
 30
0.0
  0
INSERT
  5
68E
  8
0
  2
1X_PLAAT_5MM-240_210X72_06
 10
0.0
 20
0.0
 30
0.0
  0
INSERT
  5
68F
  8
0
  2
1X_BL_10X7_143X72_000_S23C
 10
0.0
 20
0.0
 30
0.0
  0
INSERT
  5
690
  8
0
  2
1X_BL_10X7_143X72_000_S23E
 10
0.0
 20
0.0
 30
0.0
  0
ENDBLK
  8
0
  0
BLOCK
  8
0
  2
1X_PLAAT_5MM-240_210X72_06
 70
     0
 10
0.0
 20
0.0
 30
0.0
  0
INSERT
  5
693
  8
0
  2
1X_PLAAT_5MM-240_210X72_07
 10
-47.90156642
 20
152.39740729
 30
0.0
  0
ENDBLK
  8
0
  0
BLOCK
  8
0
  2
1X_PLAAT_5MM-240_210X72_07
 70
     0
 10
-47.90156642
 20
152.39740729
 30
0.0
  0
POLYLINE
  5
696
  8
0
 66
     1
 10
0.0
 20
0.0
 30
0.0
  0
VERTEX
  5
697
  8
0
 10
-47.90156642
 20
152.39740729
 30
0.0
  0
VERTEX
  5
698
  8
0
 10
-47.70735351
 20
151.66478137
 30
0.0
  0
VERTEX
  5
699
  8
0
 10
-47.4607045
 20
150.92523158
 30
0.0
  0
VERTEX
  5
69A
  8
0
 10
-45.70448756
 20
152.58881604
 30
0.0
  0
SEQEND
  5
69B
  8
0
  0
POLYLINE
  5
69C
  8
0
 66
     1
 10
0.0
 20
0.0
 30
0.0
  0
VERTEX
  5
69D
  8
0
 10
-47.4607045
 20
150.92523158
 30
0.0
  0
VERTEX
  5
69E
  8
0
 10
-46.7161666
 20
150.46300045
 30
0.0
  0
VERTEX
  5
69F
  8
0
 10
-46.53693262
 20
150.3661133
 30
0.0
  0
SEQEND
  5
6A0
  8
0
  0
POLYLINE
  5
6A1
  8
0
 66
     1
 10
0.0
 20
0.0
 30
0.0
 70
     1
  0
VERTEX
  5
6A2
  8
0
 10
-0.36880461
 20
157.99946666
 30
0.0
  0
VERTEX
  5
6A3
  8
0
 10
-1.68503259
 20
158.0954018
 30
0.0
  0
VERTEX
  5
6A4
  8
0
 10
-2.76177223
 20
158.31678846
 30
0.0
  0
VERTEX
  5
6A5
  8
0
 10
-3.4350997
 20
158.62992254
 30
0.0
  0
VERTEX
  5
6A6
  8
0
 10
-3.60250698
 20
158.98713222
 30
0.0
  0
VERTEX
  5
6A7
  8
0
 10
-3.23850784
 20
159.33403554
 30
0.0
  0
VERTEX
  5
6A8
  8
0
 10
-2.39851785
 20
159.61781964
 30
0.0
  0
VERTEX
  5
6A9
  8
0
 10
-1.21041786
 20
159.79528095
 30
0.0
  0
VERTEX
  5
6AA
  8
0
 10
0.14491466
 20
159.83940259
 30
0.0
  0
VERTEX
  5
6AB
  8
0
 10
1.46114264
 20
159.74346745
 30
0.0
  0
VERTEX
  5
6AC
  8
0
 10
2.53788228
 20
159.52208079
 30
0.0
  0
VERTEX
  5
6AD
  8
0
 10
3.21120975
 20
159.20894671
 30
0.0
  0
VERTEX
  5
6AE
  8
0
 10
3.37861703
 20
158.85173703
 30
0.0
  0
VERTEX
  5
6AF
  8
0
 10
3.01461789
 20
158.50483371
 30
0.0
  0
VERTEX
  5
6B0
  8
0
 10
2.1746279
 20
158.22104961
 30
0.0
  0
VERTEX
  5
6B1
  8
0
 10
0.98652791
 20
158.0435883
 30
0.0
  0
SEQEND
  5
6B2
  8
0
  0
LINE
  5
6B3
  8
0
 10
-3.23850784
 20
158.53849658
 30
0.0
 11
-3.23850784
 21
159.33403554
 31
0.0
  0
LINE
  5
6B4
  8
0
 10
-2.39851785
 20
158.24210033
 30
0.0
 11
-2.39851785
 21
159.61781964
 31
0.0
  0
LINE
  5
6B5
  8
0
 10
-1.21041786
 20
158.06080883
 30
0.0
 11
-1.21041786
 21
159.79528095
 31
0.0
  0
LINE
  5
6B6
  8
0
 10
0.14491466
 20
158.01619033
 30
0.0
 11
0.14491466
 21
159.83940259
 31
0.0
  0
LINE
  5
6B7
  8
0
 10
1.46114264
 20
158.11447943
 30
0.0
 11
1.46114264
 21
159.74346745
 31
0.0
  0
LINE
  5
6B8
  8
0
 10
2.53788228
 20
158.34377228
 30
0.0
 11
2.53788228
 21
159.52208079
 31
0.0
  0
LINE
  5
6B9
  8
0
 10
3.21120975
 20
158.69219231
 30
0.0
 11
3.21120975
 21
159.20894671
 31
0.0
  0
POLYLINE
  5
6BA
  8
0
 66
     1
 10
0.0
 20
0.0
 30
0.0
 70
     1
  0
VERTEX
  5
6BB
  8
0
 10
44.29637922
 20
152.0765964
 30
0.0
  0
VERTEX
  5
6BC
  8
0
 10
42.98015125
 20
152.17253154
 30
0.0
  0
VERTEX
  5
6BD
  8
0
 10
41.9034116
 20
152.39391821
 30
0.0
  0
VERTEX
  5
6BE
  8
0
 10
41.23008413
 20
152.70705229
 30
0.0
  0
VERTEX
  5
6BF
  8
0
 10
41.06267685
 20
153.06426196
 30
0.0
  0
VERTEX
  5
6C0
  8
0
 10
41.42667599
 20
153.41116529
 30
0.0
  0
VERTEX
  5
6C1
  8
0
 10
42.26666598
 20
153.69494938
 30
0.0
  0
VERTEX
  5
6C2
  8
0
 10
43.45476597
 20
153.87241069
 30
0.0
  0
VERTEX
  5
6C3
  8
0
 10
44.81009849
 20
153.91653234
 30
0.0
  0
VERTEX
  5
6C4
  8
0
 10
46.12632647
 20
153.8205972
 30
0.0
  0
VERTEX
  5
6C5
  8
0
 10
47.20306611
 20
153.59921053
 30
0.0
  0
VERTEX
  5
6C6
  8
0
 10
47.87639358
 20
153.28607645
 30
0.0
  0
VERTEX
  5
6C7
  8
0
 10
48.04380086
 20
152.92886678
 30
0.0
  0
VERTEX
  5
6C8
  8
0
 10
47.67980173
 20
152.58196345
 30
0.0
  0
VERTEX
  5
6C9
  8
0
 10
46.83981173
 20
152.29817936
 30
0.0
  0
VERTEX
  5
6CA
  8
0
 10
45.65171175
 20
152.12071805
 30
0.0
  0
SEQEND
  5
6CB
  8
0
  0
LINE
  5
6CC
  8
0
 10
41.42667599
 20
152.61562633
 30
0.0
 11
41.42667599
 21
153.41116529
 31
0.0
  0
LINE
  5
6CD
  8
0
 10
42.26666598
 20
152.31923007
 30
0.0
 11
42.26666598
 21
153.69494938
 31
0.0
  0
LINE
  5
6CE
  8
0
 10
43.45476597
 20
152.13793857
 30
0.0
 11
43.45476597
 21
153.87241069
 31
0.0
  0
LINE
  5
6CF
  8
0
 10
44.81009849
 20
152.09332008
 30
0.0
 11
44.81009849
 21
153.91653234
 31
0.0
  0
LINE
  5
6D0
  8
0
 10
46.12632647
 20
152.19160918
 30
0.0
 11
46.12632647
 21
153.8205972
 31
0.0
  0
LINE
  5
6D1
  8
0
 10
47.20306611
 20
152.42090203
 30
0.0
 11
47.20306611
 21
153.59921053
 31
0.0
  0
LINE
  5
6D2
  8
0
 10
47.87639358
 20
152.76932205
 30
0.0
 11
47.87639358
 21
153.28607645
 31
0.0
  0
POLYLINE
  5
6D3
  8
0
 66
     1
 10
0.0
 20
0.0
 30
0.0
  0
VERTEX
  5
6D4
  8
0
 10
31.19648114
 20
149.27616912
 30
0.0
  0
VERTEX
  5
6D5
  8
0
 10
31.10423571
 20
149.47300022
 30
0.0
  0
VERTEX
  5
6D6
  8
0
 10
31.78023411
 20
150.11724926
 30
0.0
  0
VERTEX
  5
6D7
  8
0
 10
33.34021553
 20
150.64427686
 30
0.0
  0
VERTEX
  5
6D8
  8
0
 10
35.54668693
 20
150.97384787
 30
0.0
  0
VERTEX
  5
6D9
  8
0
 10
38.06373305
 20
151.05578806
 30
0.0
  0
VERTEX
  5
6DA
  8
0
 10
40.50815643
 20
150.87762281
 30
0.0
  0
VERTEX
  5
6DB
  8
0
 10
42.50781577
 20
150.46647614
 30
0.0
  0
VERTEX
  5
6DC
  8
0
 10
43.75828107
 20
149.88494142
 30
0.0
  0
VERTEX
  5
6DD
  8
0
 10
44.06918031
 20
149.22155203
 30
0.0
  0
VERTEX
  5
6DE
  8
0
 10
43.39318191
 20
148.57730299
 30
0.0
  0
VERTEX
  5
6DF
  8
0
 10
41.83320049
 20
148.05027538
 30
0.0
  0
VERTEX
  5
6E0
  8
0
 10
41.17852888
 20
147.95248994
 30
0.0
  0
SEQEND
  5
6E1
  8
0
  0
LINE
  5
6E2
  8
0
 10
31.78023411
 20
149.19875999
 30
0.0
 11
31.78023411
 21
150.11724926
 31
0.0
  0
LINE
  5
6E3
  8
0
 10
33.34021553
 20
148.99189713
 30
0.0
 11
33.34021553
 21
150.64427686
 31
0.0
  0
LINE
  5
6E4
  8
0
 10
35.54668693
 20
148.69930584
 30
0.0
 11
35.54668693
 21
150.97384787
 31
0.0
  0
LINE
  5
6E5
  8
0
 10
38.06373305
 20
148.36553048
 30
0.0
 11
38.06373305
 21
151.05578806
 31
0.0
  0
LINE
  5
6E6
  8
0
 10
40.50815643
 20
148.04138534
 30
0.0
 11
40.50815643
 21
150.87762281
 31
0.0
  0
LINE
  5
6E7
  8
0
 10
42.50781577
 20
148.27818892
 30
0.0
 11
42.50781577
 21
150.46647614
 31
0.0
  0
LINE
  5
6E8
  8
0
 10
43.75828107
 20
148.92525467
 30
0.0
 11
43.75828107
 21
149.88494142
 31
0.0
  0
POLYLINE
  5
6E9
  8
0
 66
     1
 10
0.0
 20
0.0
 30
0.0
 70
     1
  0
VERTEX
  5
6EA
  8
0
 10
17.42388045
 20
155.36747056
 30
0.0
  0
VERTEX
  5
6EB
  8
0
 10
15.73158734
 20
155.49081574
 30
0.0
  0
VERTEX
  5
6EC
  8
0
 10
14.3472078
 20
155.77545574
 30
0.0
  0
VERTEX
  5
6ED
  8
0
 10
13.48150106
 20
156.1780567
 30
0.0
  0
VERTEX
  5
6EE
  8
0
 10
13.26626312
 20
156.63732628
 30
0.0
  0
VERTEX
  5
6EF
  8
0
 10
13.73426201
 20
157.08334485
 30
0.0
  0
VERTEX
  5
6F0
  8
0
 10
14.81424915
 20
157.44821011
 30
0.0
  0
VERTEX
  5
6F1
  8
0
 10
16.34180627
 20
157.67637465
 30
0.0
  0
VERTEX
  5
6F2
  8
0
 10
18.08437666
 20
157.73310248
 30
0.0
  0
VERTEX
  5
6F3
  8
0
 10
19.77666977
 20
157.6097573
 30
0.0
  0
VERTEX
  5
6F4
  8
0
 10
21.16104932
 20
157.3251173
 30
0.0
  0
VERTEX
  5
6F5
  8
0
 10
22.02675606
 20
156.92251634
 30
0.0
  0
VERTEX
  5
6F6
  8
0
 10
22.241994
 20
156.46324676
 30
0.0
  0
VERTEX
  5
6F7
  8
0
 10
21.7739951
 20
156.0172282
 30
0.0
  0
VERTEX
  5
6F8
  8
0
 10
20.69400797
 20
155.65236293
 30
0.0
  0
VERTEX
  5
6F9
  8
0
 10
19.16645084
 20
155.42419839
 30
0.0
  0
SEQEND
  5
6FA
  8
0
  0
LINE
  5
6FB
  8
0
 10
13.73426201
 20
156.06050904
 30
0.0
 11
13.73426201
 21
157.08334485
 31
0.0
  0
LINE
  5
6FC
  8
0
 10
14.81424915
 20
155.67942814
 30
0.0
 11
14.81424915
 21
157.44821011
 31
0.0
  0
LINE
  5
6FD
  8
0
 10
16.34180627
 20
155.44633907
 30
0.0
 11
16.34180627
 21
157.67637465
 31
0.0
  0
LINE
  5
6FE
  8
0
 10
18.08437666
 20
155.38897243
 30
0.0
 11
18.08437666
 21
157.73310248
 31
0.0
  0
LINE
  5
6FF
  8
0
 10
19.77666977
 20
155.51534413
 30
0.0
 11
19.77666977
 21
157.6097573
 31
0.0
  0
LINE
  5
700
  8
0
 10
21.16104932
 20
155.81014923
 30
0.0
 11
21.16104932
 21
157.3251173
 31
0.0
  0
LINE
  5
701
  8
0
 10
22.02675606
 20
156.25811783
 30
0.0
 11
22.02675606
 21
156.92251634
 31
0.0
  0
POLYLINE
  5
702
  8
0
 66
     1
 10
0.0
 20
0.0
 30
0.0
 70
     1
  0
VERTEX
  5
703
  8
0
 10
79.95513782
 20
147.07545221
 30
0.0
  0
VERTEX
  5
704
  8
0
 10
78.26284471
 20
147.19879738
 30
0.0
  0
VERTEX
  5
705
  8
0
 10
76.87846516
 20
147.48343738
 30
0.0
  0
VERTEX
  5
706
  8
0
 10
76.01275842
 20
147.88603835
 30
0.0
  0
VERTEX
  5
707
  8
0
 10
75.79752048
 20
148.34530793
 30
0.0
  0
VERTEX
  5
708
  8
0
 10
76.26551938
 20
148.79132649
 30
0.0
  0
VERTEX
  5
709
  8
0
 10
77.34550651
 20
149.15619175
 30
0.0
  0
VERTEX
  5
70A
  8
0
 10
78.87306364
 20
149.38435629
 30
0.0
  0
VERTEX
  5
70B
  8
0
 10
80.61563403
 20
149.44108412
 30
0.0
  0
VERTEX
  5
70C
  8
0
 10
82.30792714
 20
149.31773895
 30
0.0
  0
VERTEX
  5
70D
  8
0
 10
83.69230668
 20
149.03309895
 30
0.0
  0
VERTEX
  5
70E
  8
0
 10
84.55801342
 20
148.63049798
 30
0.0
  0
VERTEX
  5
70F
  8
0
 10
84.77325136
 20
148.17122841
 30
0.0
  0
VERTEX
  5
710
  8
0
 10
84.30525247
 20
147.72520984
 30
0.0
  0
VERTEX
  5
711
  8
0
 10
83.22526533
 20
147.36034458
 30
0.0
  0
VERTEX
  5
712
  8
0
 10
81.69770821
 20
147.13218004
 30
0.0
  0
SEQEND
  5
713
  8
0
  0
LINE
  5
714
  8
0
 10
76.26551938
 20
147.76849068
 30
0.0
 11
76.26551938
 21
148.79132649
 31
0.0
  0
LINE
  5
715
  8
0
 10
77.34550651
 20
147.38740978
 30
0.0
 11
77.34550651
 21
149.15619175
 31
0.0
  0
LINE
  5
716
  8
0
 10
78.87306364
 20
147.15432071
 30
0.0
 11
78.87306364
 21
149.38435629
 31
0.0
  0
LINE
  5
717
  8
0
 10
80.61563403
 20
147.09695407
 30
0.0
 11
80.61563403
 21
149.44108412
 31
0.0
  0
LINE
  5
718
  8
0
 10
82.30792714
 20
147.22332577
 30
0.0
 11
82.30792714
 21
149.31773895
 31
0.0
  0
LINE
  5
719
  8
0
 10
83.69230668
 20
147.51813087
 30
0.0
 11
83.69230668
 21
149.03309895
 31
0.0
  0
LINE
  5
71A
  8
0
 10
84.55801342
 20
147.96609947
 30
0.0
 11
84.55801342
 21
148.63049798
 31
0.0
  0
POLYLINE
  5
71B
  8
0
 66
     1
 10
0.0
 20
0.0
 30
0.0
  0
VERTEX
  5
71C
  8
0
 10
64.92976328
 20
141.78713038
 30
0.0
  0
VERTEX
  5
71D
  8
0
 10
65.25385134
 20
141.835538
 30
0.0
  0
VERTEX
  5
71E
  8
0
 10
66.60918386
 20
141.87965964
 30
0.0
  0
VERTEX
  5
71F
  8
0
 10
67.92541184
 20
141.78372451
 30
0.0
  0
VERTEX
  5
720
  8
0
 10
69.00215148
 20
141.56233784
 30
0.0
  0
VERTEX
  5
721
  8
0
 10
69.67547895
 20
141.24920376
 30
0.0
  0
VERTEX
  5
722
  8
0
 10
69.84288624
 20
140.89199409
 30
0.0
  0
VERTEX
  5
723
  8
0
 10
69.4788871
 20
140.54509076
 30
0.0
  0
VERTEX
  5
724
  8
0
 10
68.6388971
 20
140.26130666
 30
0.0
  0
VERTEX
  5
725
  8
0
 10
67.45079712
 20
140.08384535
 30
0.0
  0
VERTEX
  5
726
  8
0
 10
67.40388299
 20
140.08231811
 30
0.0
  0
SEQEND
  5
727
  8
0
  0
LINE
  5
728
  8
0
 10
65.25385134
 20
141.5291423
 30
0.0
 11
65.25385134
 21
141.835538
 31
0.0
  0
LINE
  5
729
  8
0
 10
66.60918386
 20
140.57460121
 30
0.0
 11
66.60918386
 21
141.87965964
 31
0.0
  0
LINE
  5
72A
  8
0
 10
67.92541184
 20
140.15473648
 30
0.0
 11
67.92541184
 21
141.78372451
 31
0.0
  0
LINE
  5
72B
  8
0
 10
69.00215148
 20
140.38402933
 30
0.0
 11
69.00215148
 21
141.56233784
 31
0.0
  0
LINE
  5
72C
  8
0
 10
69.67547895
 20
140.73244936
 30
0.0
 11
69.67547895
 21
141.24920376
 31
0.0
  0
POLYLINE
  5
72D
  8
0
 66
     1
 10
0.0
 20
0.0
 30
0.0
 70
     1
  0
VERTEX
  5
72E
  8
0
 10
62.16245275
 20
149.7074483
 30
0.0
  0
VERTEX
  5
72F
  8
0
 10
60.84622478
 20
149.80338344
 30
0.0
  0
VERTEX
  5
730
  8
0
 10
59.76948513
 20
150.0247701
 30
0.0
  0
VERTEX
  5
731
  8
0
 10
59.09615767
 20
150.33790419
 30
0.0
  0
VERTEX
  5
732
  8
0
 10
58.92875038
 20
150.69511386
 30
0.0
  0
VERTEX
  5
733
  8
0
 10
59.29274952
 20
151.04201719
 30
0.0
  0
VERTEX
  5
734
  8
0
 10
60.13273952
 20
151.32580128
 30
0.0
  0
VERTEX
  5
735
  8
0
 10
61.3208395
 20
151.50326259
 30
0.0
  0
VERTEX
  5
736
  8
0
 10
62.67617203
 20
151.54738424
 30
0.0
  0
VERTEX
  5
737
  8
0
 10
63.9924
 20
151.4514491
 30
0.0
  0
VERTEX
  5
738
  8
0
 10
65.06913965
 20
151.23006243
 30
0.0
  0
VERTEX
  5
739
  8
0
 10
65.74246711
 20
150.91692835
 30
0.0
  0
VERTEX
  5
73A
  8
0
 10
65.9098744
 20
150.55971868
 30
0.0
  0
VERTEX
  5
73B
  8
0
 10
65.54587526
 20
150.21281535
 30
0.0
  0
VERTEX
  5
73C
  8
0
 10
64.70588526
 20
149.92903125
 30
0.0
  0
VERTEX
  5
73D
  8
0
 10
63.51778528
 20
149.75156995
 30
0.0
  0
SEQEND
  5
73E
  8
0
  0
LINE
  5
73F
  8
0
 10
59.29274952
 20
150.24647823
 30
0.0
 11
59.29274952
 21
151.04201719
 31
0.0
  0
LINE
  5
740
  8
0
 10
60.13273952
 20
149.95008197
 30
0.0
 11
60.13273952
 21
151.32580128
 31
0.0
  0
LINE
  5
741
  8
0
 10
61.3208395
 20
149.76879047
 30
0.0
 11
61.3208395
 21
151.50326259
 31
0.0
  0
LINE
  5
742
  8
0
 10
62.67617203
 20
149.72417197
 30
0.0
 11
62.67617203
 21
151.54738424
 31
0.0
  0
LINE
  5
743
  8
0
 10
63.9924
 20
149.82246107
 30
0.0
 11
63.9924
 21
151.4514491
 31
0.0
  0
LINE
  5
744
  8
0
 10
65.06913965
 20
150.05175393
 30
0.0
 11
65.06913965
 21
151.23006243
 31
0.0
  0
LINE
  5
745
  8
0
 10
65.74246711
 20
150.40017395
 30
0.0
 11
65.74246711
 21
150.91692835
 31
0.0
  0
POLYLINE
  5
746
  8
0
 66
     1
 10
0.0
 20
0.0
 30
0.0
  0
VERTEX
  5
747
  8
0
 10
-2.81707189
 20
156.62280696
 30
0.0
  0
VERTEX
  5
748
  8
0
 10
12.36909062
 20
154.60903107
 30
0.0
  0
VERTEX
  5
749
  8
0
 10
14.36874996
 20
154.1978844
 30
0.0
  0
VERTEX
  5
74A
  8
0
 10
15.61921525
 20
153.61634968
 30
0.0
  0
VERTEX
  5
74B
  8
0
 10
15.93011449
 20
152.95296029
 30
0.0
  0
VERTEX
  5
74C
  8
0
 10
15.25411609
 20
152.30871125
 30
0.0
  0
VERTEX
  5
74D
  8
0
 10
13.69413468
 20
151.78168365
 30
0.0
  0
VERTEX
  5
74E
  8
0
 10
13.03946307
 20
151.68389821
 30
0.0
  0
SEQEND
  5
74F
  8
0
  0
POLYLINE
  5
750
  8
0
 66
     1
 10
0.0
 20
0.0
 30
0.0
  0
VERTEX
  5
751
  8
0
 10
-12.12874717
 20
155.02135327
 30
0.0
  0
VERTEX
  5
752
  8
0
 10
-12.22099261
 20
155.21818437
 30
0.0
  0
VERTEX
  5
753
  8
0
 10
-11.54499421
 20
155.86243341
 30
0.0
  0
VERTEX
  5
754
  8
0
 10
-9.98501279
 20
156.38946101
 30
0.0
  0
VERTEX
  5
755
  8
0
 10
-7.77854139
 20
156.71903201
 30
0.0
  0
VERTEX
  5
756
  8
0
 10
-5.26149527
 20
156.80097221
 30
0.0
  0
VERTEX
  5
757
  8
0
 10
-2.81707189
 20
156.62280696
 30
0.0
  0
SEQEND
  5
758
  8
0
  0
LINE
  5
759
  8
0
 10
14.36874996
 20
154.1978844
 30
0.0
 11
14.36874996
 21
152.00959718
 31
0.0
  0
LINE
  5
75A
  8
0
 10
15.61921525
 20
153.61634968
 30
0.0
 11
15.61921525
 21
152.65666293
 31
0.0
  0
LINE
  5
75B
  8
0
 10
-5.26149527
 20
156.80097221
 30
0.0
 11
-5.26149527
 21
154.11071463
 31
0.0
  0
LINE
  5
75C
  8
0
 10
-7.77854139
 20
156.71903201
 30
0.0
 11
-7.77854139
 21
154.44448999
 31
0.0
  0
LINE
  5
75D
  8
0
 10
-9.98501279
 20
156.38946101
 30
0.0
 11
-9.98501279
 21
154.73708128
 31
0.0
  0
LINE
  5
75E
  8
0
 10
-11.54499421
 20
155.86243341
 30
0.0
 11
-11.54499421
 21
154.94394413
 31
0.0
  0
POLYLINE
  5
75F
  8
0
 66
     1
 10
0.0
 20
0.0
 30
0.0
  0
VERTEX
  5
760
  8
0
 10
68.64722224
 20
147.14621455
 30
0.0
  0
VERTEX
  5
761
  8
0
 10
83.83338475
 20
145.13243866
 30
0.0
  0
VERTEX
  5
762
  8
0
 10
85.83304409
 20
144.72129199
 30
0.0
  0
VERTEX
  5
763
  8
0
 10
87.08350938
 20
144.13975727
 30
0.0
  0
VERTEX
  5
764
  8
0
 10
87.39440863
 20
143.47636788
 30
0.0
  0
VERTEX
  5
765
  8
0
 10
86.71841022
 20
142.83211884
 30
0.0
  0
VERTEX
  5
766
  8
0
 10
85.15842881
 20
142.30509124
 30
0.0
  0
VERTEX
  5
767
  8
0
 10
82.95195741
 20
141.97552024
 30
0.0
  0
VERTEX
  5
768
  8
0
 10
80.43491129
 20
141.89358004
 30
0.0
  0
VERTEX
  5
769
  8
0
 10
77.99048791
 20
142.07174529
 30
0.0
  0
VERTEX
  5
76A
  8
0
 10
62.8043254
 20
144.08552118
 30
0.0
  0
VERTEX
  5
76B
  8
0
 10
61.98231242
 20
144.25453392
 30
0.0
  0
SEQEND
  5
76C
  8
0
  0
POLYLINE
  5
76D
  8
0
 66
     1
 10
0.0
 20
0.0
 30
0.0
  0
VERTEX
  5
76E
  8
0
 10
59.33554696
 20
145.54476086
 30
0.0
  0
VERTEX
  5
76F
  8
0
 10
59.24330152
 20
145.74159196
 30
0.0
  0
VERTEX
  5
770
  8
0
 10
59.91929993
 20
146.385841
 30
0.0
  0
VERTEX
  5
771
  8
0
 10
61.47928134
 20
146.9128686
 30
0.0
  0
VERTEX
  5
772
  8
0
 10
63.68575274
 20
147.24243961
 30
0.0
  0
VERTEX
  5
773
  8
0
 10
66.20279886
 20
147.3243798
 30
0.0
  0
VERTEX
  5
774
  8
0
 10
68.64722224
 20
147.14621455
 30
0.0
  0
SEQEND
  5
775
  8
0
  0
LINE
  5
776
  8
0
 10
85.83304409
 20
144.72129199
 30
0.0
 11
85.83304409
 21
142.53300477
 31
0.0
  0
LINE
  5
777
  8
0
 10
87.08350938
 20
144.13975727
 30
0.0
 11
87.08350938
 21
143.18007053
 31
0.0
  0
LINE
  5
778
  8
0
 10
66.20279886
 20
147.3243798
 30
0.0
 11
66.20279886
 21
143.63486329
 31
0.0
  0
LINE
  5
779
  8
0
 10
63.68575274
 20
147.24243961
 30
0.0
 11
63.68575274
 21
143.96863865
 31
0.0
  0
LINE
  5
77A
  8
0
 10
61.47928134
 20
146.9128686
 30
0.0
 11
61.47928134
 21
144.70148122
 31
0.0
  0
LINE
  5
77B
  8
0
 10
59.91929993
 20
146.385841
 30
0.0
 11
59.91929993
 21
145.46735173
 31
0.0
  0
POLYLINE
  5
77C
  8
0
 66
     1
 10
0.0
 20
0.0
 30
0.0
 70
     1
  0
VERTEX
  5
77D
  8
0
 10
-40.84411697
 20
234.75765759
 30
0.0
  0
VERTEX
  5
77E
  8
0
 10
-40.2421224
 20
234.81599943
 30
0.0
  0
VERTEX
  5
77F
  8
0
 10
-39.73177605
 20
234.35145554
 30
0.0
  0
VERTEX
  5
780
  8
0
 10
-39.39077352
 20
233.4347485
 30
0.0
  0
VERTEX
  5
781
  8
0
 10
-39.27102936
 20
232.20543865
 30
0.0
  0
VERTEX
  5
782
  8
0
 10
-39.39077352
 20
230.85067727
 30
0.0
  0
VERTEX
  5
783
  8
0
 10
-39.73177605
 20
229.57671451
 30
0.0
  0
VERTEX
  5
784
  8
0
 10
-40.2421224
 20
228.57749963
 30
0.0
  0
VERTEX
  5
785
  8
0
 10
-40.84411697
 20
228.00515406
 30
0.0
  0
VERTEX
  5
786
  8
0
 10
-41.44611154
 20
227.94681221
 30
0.0
  0
VERTEX
  5
787
  8
0
 10
-41.95645789
 20
228.4113561
 30
0.0
  0
VERTEX
  5
788
  8
0
 10
-42.29746042
 20
229.32806314
 30
0.0
  0
VERTEX
  5
789
  8
0
 10
-42.41720458
 20
230.55737299
 30
0.0
  0
VERTEX
  5
78A
  8
0
 10
-42.29746042
 20
231.91213437
 30
0.0
  0
VERTEX
  5
78B
  8
0
 10
-41.95645789
 20
233.18609714
 30
0.0
  0
VERTEX
  5
78C
  8
0
 10
-41.44611154
 20
234.18531201
 30
0.0
  0
SEQEND
  5
78D
  8
0
  0
LINE
  5
78E
  8
0
 10
-39.73177605
 20
234.35145554
 30
0.0
 11
-41.08291133
 21
234.53062415
 31
0.0
  0
LINE
  5
78F
  8
0
 10
-39.39077352
 20
233.4347485
 30
0.0
 11
-41.67476907
 21
233.73761996
 31
0.0
  0
LINE
  5
790
  8
0
 10
-39.27102936
 20
232.20543865
 30
0.0
 11
-42.11790244
 21
232.58295103
 31
0.0
  0
LINE
  5
791
  8
0
 10
-39.39077352
 20
230.85067727
 30
0.0
 11
-42.3565194
 21
231.2439529
 31
0.0
  0
LINE
  5
792
  8
0
 10
-39.73177605
 20
229.57671451
 30
0.0
 11
-42.3555721
 21
229.92464554
 31
0.0
  0
LINE
  5
793
  8
0
 10
-40.2421224
 20
228.57749963
 30
0.0
 11
-42.11041967
 21
228.82524701
 31
0.0
  0
LINE
  5
794
  8
0
 10
-40.84411697
 20
228.00515406
 30
0.0
 11
-41.62378863
 21
228.10854318
 31
0.0
  0
POLYLINE
  5
795
  8
0
 66
     1
 10
0.0
 20
0.0
 30
0.0
 70
     1
  0
VERTEX
  5
796
  8
0
 10
-26.91105527
 20
224.69265357
 30
0.0
  0
VERTEX
  5
797
  8
0
 10
-26.30906071
 20
224.75099542
 30
0.0
  0
VERTEX
  5
798
  8
0
 10
-25.79871436
 20
224.28645153
 30
0.0
  0
VERTEX
  5
799
  8
0
 10
-25.45771183
 20
223.36974449
 30
0.0
  0
VERTEX
  5
79A
  8
0
 10
-25.33796766
 20
222.14043464
 30
0.0
  0
VERTEX
  5
79B
  8
0
 10
-25.45771183
 20
220.78567326
 30
0.0
  0
VERTEX
  5
79C
  8
0
 10
-25.79871436
 20
219.51171049
 30
0.0
  0
VERTEX
  5
79D
  8
0
 10
-26.30906071
 20
218.51249562
 30
0.0
  0
VERTEX
  5
79E
  8
0
 10
-26.91105527
 20
217.94015005
 30
0.0
  0
VERTEX
  5
79F
  8
0
 10
-27.51304984
 20
217.8818082
 30
0.0
  0
VERTEX
  5
7A0
  8
0
 10
-28.02339619
 20
218.34635209
 30
0.0
  0
VERTEX
  5
7A1
  8
0
 10
-28.36439872
 20
219.26305913
 30
0.0
  0
VERTEX
  5
7A2
  8
0
 10
-28.48414288
 20
220.49236898
 30
0.0
  0
VERTEX
  5
7A3
  8
0
 10
-28.36439872
 20
221.84713036
 30
0.0
  0
VERTEX
  5
7A4
  8
0
 10
-28.02339619
 20
223.12109313
 30
0.0
  0
VERTEX
  5
7A5
  8
0
 10
-27.51304984
 20
224.120308
 30
0.0
  0
SEQEND
  5
7A6
  8
0
  0
LINE
  5
7A7
  8
0
 10
-25.79871436
 20
224.28645153
 30
0.0
 11
-27.14984963
 21
224.46562014
 31
0.0
  0
LINE
  5
7A8
  8
0
 10
-25.45771183
 20
223.36974449
 30
0.0
 11
-27.74170737
 21
223.67261595
 31
0.0
  0
LINE
  5
7A9
  8
0
 10
-25.33796766
 20
222.14043464
 30
0.0
 11
-28.18484074
 21
222.51794702
 31
0.0
  0
LINE
  5
7AA
  8
0
 10
-25.45771183
 20
220.78567326
 30
0.0
 11
-28.42345771
 21
221.17894889
 31
0.0
  0
LINE
  5
7AB
  8
0
 10
-25.79871436
 20
219.51171049
 30
0.0
 11
-28.4225104
 21
219.85964153
 31
0.0
  0
LINE
  5
7AC
  8
0
 10
-26.30906071
 20
218.51249562
 30
0.0
 11
-28.17735797
 21
218.760243
 31
0.0
  0
LINE
  5
7AD
  8
0
 10
-26.91105527
 20
217.94015005
 30
0.0
 11
-27.69072694
 21
218.04353917
 31
0.0
  0
POLYLINE
  5
7AE
  8
0
 66
     1
 10
0.0
 20
0.0
 30
0.0
  0
VERTEX
  5
7AF
  8
0
 10
-39.31025406
 20
192.09310364
 30
0.0
  0
VERTEX
  5
7B0
  8
0
 10
-39.27102936
 20
191.69041748
 30
0.0
  0
VERTEX
  5
7B1
  8
0
 10
-39.31025406
 20
191.24663705
 30
0.0
  0
SEQEND
  5
7B2
  8
0
  0
LINE
  5
7B3
  8
0
 10
-39.27102936
 20
191.69041748
 30
0.0
 11
-39.31025406
 21
191.69561891
 31
0.0
  0
POLYLINE
  5
7B4
  8
0
 66
     1
 10
0.0
 20
0.0
 30
0.0
 70
     1
  0
VERTEX
  5
7B5
  8
0
 10
-26.91105527
 20
188.03620585
 30
0.0
  0
VERTEX
  5
7B6
  8
0
 10
-26.30906071
 20
188.0945477
 30
0.0
  0
VERTEX
  5
7B7
  8
0
 10
-25.79871436
 20
187.6300038
 30
0.0
  0
VERTEX
  5
7B8
  8
0
 10
-25.45771183
 20
186.71329676
 30
0.0
  0
VERTEX
  5
7B9
  8
0
 10
-25.33796766
 20
185.48398691
 30
0.0
  0
VERTEX
  5
7BA
  8
0
 10
-25.45771183
 20
184.12922554
 30
0.0
  0
VERTEX
  5
7BB
  8
0
 10
-25.79871436
 20
182.85526277
 30
0.0
  0
VERTEX
  5
7BC
  8
0
 10
-26.30906071
 20
181.8560479
 30
0.0
  0
VERTEX
  5
7BD
  8
0
 10
-26.91105527
 20
181.28370232
 30
0.0
  0
VERTEX
  5
7BE
  8
0
 10
-27.51304984
 20
181.22536047
 30
0.0
  0
VERTEX
  5
7BF
  8
0
 10
-28.02339619
 20
181.68990437
 30
0.0
  0
VERTEX
  5
7C0
  8
0
 10
-28.36439872
 20
182.60661141
 30
0.0
  0
VERTEX
  5
7C1
  8
0
 10
-28.48414288
 20
183.83592126
 30
0.0
  0
VERTEX
  5
7C2
  8
0
 10
-28.36439872
 20
185.19068263
 30
0.0
  0
VERTEX
  5
7C3
  8
0
 10
-28.02339619
 20
186.4646454
 30
0.0
  0
VERTEX
  5
7C4
  8
0
 10
-27.51304984
 20
187.46386027
 30
0.0
  0
SEQEND
  5
7C5
  8
0
  0
LINE
  5
7C6
  8
0
 10
-25.79871436
 20
187.6300038
 30
0.0
 11
-27.14984963
 21
187.80917241
 31
0.0
  0
LINE
  5
7C7
  8
0
 10
-25.45771183
 20
186.71329676
 30
0.0
 11
-27.74170737
 21
187.01616822
 31
0.0
  0
LINE
  5
7C8
  8
0
 10
-25.33796766
 20
185.48398691
 30
0.0
 11
-28.18484074
 21
185.8614993
 31
0.0
  0
LINE
  5
7C9
  8
0
 10
-25.45771183
 20
184.12922554
 30
0.0
 11
-28.42345771
 21
184.52250116
 31
0.0
  0
LINE
  5
7CA
  8
0
 10
-25.79871436
 20
182.85526277
 30
0.0
 11
-28.4225104
 21
183.2031938
 31
0.0
  0
LINE
  5
7CB
  8
0
 10
-26.30906071
 20
181.8560479
 30
0.0
 11
-28.17735797
 21
182.10379528
 31
0.0
  0
LINE
  5
7CC
  8
0
 10
-26.91105527
 20
181.28370232
 30
0.0
 11
-27.69072694
 21
181.38709144
 31
0.0
  0
POLYLINE
  5
7CD
  8
0
 66
     1
 10
0.0
 20
0.0
 30
0.0
 70
     1
  0
VERTEX
  5
7CE
  8
0
 10
-26.91105527
 20
243.02087744
 30
0.0
  0
VERTEX
  5
7CF
  8
0
 10
-26.13706226
 20
243.09588839
 30
0.0
  0
VERTEX
  5
7D0
  8
0
 10
-25.48090267
 20
242.49861766
 30
0.0
  0
VERTEX
  5
7D1
  8
0
 10
-25.04247084
 20
241.31999433
 30
0.0
  0
VERTEX
  5
7D2
  8
0
 10
-24.88851406
 20
239.73945309
 30
0.0
  0
VERTEX
  5
7D3
  8
0
 10
-25.04247084
 20
237.99761703
 30
0.0
  0
VERTEX
  5
7D4
  8
0
 10
-25.48090267
 20
236.35966491
 30
0.0
  0
VERTEX
  5
7D5
  8
0
 10
-26.13706226
 20
235.07496007
 30
0.0
  0
VERTEX
  5
7D6
  8
0
 10
-26.91105527
 20
234.33908719
 30
0.0
  0
VERTEX
  5
7D7
  8
0
 10
-27.68504829
 20
234.26407624
 30
0.0
  0
VERTEX
  5
7D8
  8
0
 10
-28.34120788
 20
234.86134696
 30
0.0
  0
VERTEX
  5
7D9
  8
0
 10
-28.77963971
 20
236.0399703
 30
0.0
  0
VERTEX
  5
7DA
  8
0
 10
-28.93359649
 20
237.62051153
 30
0.0
  0
VERTEX
  5
7DB
  8
0
 10
-28.77963971
 20
239.36234759
 30
0.0
  0
VERTEX
  5
7DC
  8
0
 10
-28.34120788
 20
241.00029972
 30
0.0
  0
VERTEX
  5
7DD
  8
0
 10
-27.68504829
 20
242.28500456
 30
0.0
  0
SEQEND
  5
7DE
  8
0
  0
LINE
  5
7DF
  8
0
 10
-25.48090267
 20
242.49861766
 30
0.0
 11
-27.21807659
 21
242.72897731
 31
0.0
  0
LINE
  5
7E0
  8
0
 10
-25.04247084
 20
241.31999433
 30
0.0
 11
-27.97903654
 21
241.70940048
 31
0.0
  0
LINE
  5
7E1
  8
0
 10
-24.88851406
 20
239.73945309
 30
0.0
 11
-28.54877945
 21
240.22482615
 31
0.0
  0
LINE
  5
7E2
  8
0
 10
-25.04247084
 20
237.99761703
 30
0.0
 11
-28.85557269
 21
238.50325712
 31
0.0
  0
LINE
  5
7E3
  8
0
 10
-25.48090267
 20
236.35966491
 30
0.0
 11
-28.85435472
 21
236.8070048
 31
0.0
  0
LINE
  5
7E4
  8
0
 10
-26.13706226
 20
235.07496007
 30
0.0
 11
-28.53915874
 21
235.39349241
 31
0.0
  0
LINE
  5
7E5
  8
0
 10
-26.91105527
 20
234.33908719
 30
0.0
 11
-27.91349027
 21
234.47201606
 31
0.0
  0
POLYLINE
  5
7E6
  8
0
 66
     1
 10
0.0
 20
0.0
 30
0.0
 70
     1
  0
VERTEX
  5
7E7
  8
0
 10
-26.91105527
 20
202.50585627
 30
0.0
  0
VERTEX
  5
7E8
  8
0
 10
-26.13706226
 20
202.58086722
 30
0.0
  0
VERTEX
  5
7E9
  8
0
 10
-25.48090267
 20
201.98359649
 30
0.0
  0
VERTEX
  5
7EA
  8
0
 10
-25.04247084
 20
200.80497316
 30
0.0
  0
VERTEX
  5
7EB
  8
0
 10
-24.88851406
 20
199.22443192
 30
0.0
  0
VERTEX
  5
7EC
  8
0
 10
-25.04247084
 20
197.48259587
 30
0.0
  0
VERTEX
  5
7ED
  8
0
 10
-25.48090267
 20
195.84464374
 30
0.0
  0
VERTEX
  5
7EE
  8
0
 10
-26.13706226
 20
194.5599389
 30
0.0
  0
VERTEX
  5
7EF
  8
0
 10
-26.91105527
 20
193.82406602
 30
0.0
  0
VERTEX
  5
7F0
  8
0
 10
-27.68504829
 20
193.74905507
 30
0.0
  0
VERTEX
  5
7F1
  8
0
 10
-28.34120788
 20
194.34632579
 30
0.0
  0
VERTEX
  5
7F2
  8
0
 10
-28.77963971
 20
195.52494913
 30
0.0
  0
VERTEX
  5
7F3
  8
0
 10
-28.93359649
 20
197.10549036
 30
0.0
  0
VERTEX
  5
7F4
  8
0
 10
-28.77963971
 20
198.84732642
 30
0.0
  0
VERTEX
  5
7F5
  8
0
 10
-28.34120788
 20
200.48527855
 30
0.0
  0
VERTEX
  5
7F6
  8
0
 10
-27.68504829
 20
201.76998339
 30
0.0
  0
SEQEND
  5
7F7
  8
0
  0
LINE
  5
7F8
  8
0
 10
-25.48090267
 20
201.98359649
 30
0.0
 11
-27.21807659
 21
202.21395614
 31
0.0
  0
LINE
  5
7F9
  8
0
 10
-25.04247084
 20
200.80497316
 30
0.0
 11
-27.97903654
 21
201.19437932
 31
0.0
  0
LINE
  5
7FA
  8
0
 10
-24.88851406
 20
199.22443192
 30
0.0
 11
-28.54877945
 21
199.70980498
 31
0.0
  0
LINE
  5
7FB
  8
0
 10
-25.04247084
 20
197.48259587
 30
0.0
 11
-28.85557269
 21
197.98823595
 31
0.0
  0
LINE
  5
7FC
  8
0
 10
-25.48090267
 20
195.84464374
 30
0.0
 11
-28.85435472
 21
196.29198363
 31
0.0
  0
LINE
  5
7FD
  8
0
 10
-26.13706226
 20
194.5599389
 30
0.0
 11
-28.53915874
 21
194.87847124
 31
0.0
  0
LINE
  5
7FE
  8
0
 10
-26.91105527
 20
193.82406602
 30
0.0
 11
-27.91349027
 21
193.95699489
 31
0.0
  0
POLYLINE
  5
7FF
  8
0
 66
     1
 10
0.0
 20
0.0
 30
0.0
  0
VERTEX
  5
800
  8
0
 10
-39.31025406
 20
217.55765934
 30
0.0
  0
VERTEX
  5
801
  8
0
 10
-38.97553254
 20
216.65783734
 30
0.0
  0
VERTEX
  5
802
  8
0
 10
-38.82157576
 20
215.0772961
 30
0.0
  0
VERTEX
  5
803
  8
0
 10
-38.97553254
 20
213.33546004
 30
0.0
  0
VERTEX
  5
804
  8
0
 10
-39.31025406
 20
212.08496268
 30
0.0
  0
SEQEND
  5
805
  8
0
  0
LINE
  5
806
  8
0
 10
-38.97553254
 20
216.65783734
 30
0.0
 11
-39.31025406
 21
216.70222341
 31
0.0
  0
LINE
  5
807
  8
0
 10
-38.82157576
 20
215.0772961
 30
0.0
 11
-39.31025406
 21
215.14209776
 31
0.0
  0
LINE
  5
808
  8
0
 10
-38.97553254
 20
213.33546004
 30
0.0
 11
-39.31025406
 21
213.37984612
 31
0.0
  0
POLYLINE
  5
809
  8
0
 66
     1
 10
0.0
 20
0.0
 30
0.0
  0
VERTEX
  5
80A
  8
0
 10
-39.31025406
 20
180.90121162
 30
0.0
  0
VERTEX
  5
80B
  8
0
 10
-38.97553254
 20
180.00138961
 30
0.0
  0
VERTEX
  5
80C
  8
0
 10
-38.82157576
 20
178.42084838
 30
0.0
  0
VERTEX
  5
80D
  8
0
 10
-38.97553254
 20
176.67901232
 30
0.0
  0
VERTEX
  5
80E
  8
0
 10
-39.31025406
 20
175.42851496
 30
0.0
  0
SEQEND
  5
80F
  8
0
  0
LINE
  5
810
  8
0
 10
-38.97553254
 20
180.00138961
 30
0.0
 11
-39.31025406
 21
180.04577569
 31
0.0
  0
LINE
  5
811
  8
0
 10
-38.82157576
 20
178.42084838
 30
0.0
 11
-39.31025406
 21
178.48565004
 31
0.0
  0
LINE
  5
812
  8
0
 10
-38.97553254
 20
176.67901232
 30
0.0
 11
-39.31025406
 21
176.72339839
 31
0.0
  0
POLYLINE
  5
813
  8
0
 66
     1
 10
0.0
 20
0.0
 30
0.0
 70
     1
  0
VERTEX
  5
814
  8
0
 10
-36.79903454
 20
224.33623545
 30
0.0
  0
VERTEX
  5
815
  8
0
 10
-36.57665252
 20
226.85222087
 30
0.0
  0
VERTEX
  5
816
  8
0
 10
-35.94336211
 20
229.21815172
 30
0.0
  0
VERTEX
  5
817
  8
0
 10
-34.99557603
 20
231.07383649
 30
0.0
  0
VERTEX
  5
818
  8
0
 10
-33.87758612
 20
232.13676398
 30
0.0
  0
VERTEX
  5
819
  8
0
 10
-32.75959621
 20
232.24511313
 30
0.0
  0
VERTEX
  5
81A
  8
0
 10
-31.81181013
 20
231.38238876
 30
0.0
  0
VERTEX
  5
81B
  8
0
 10
-31.17851972
 20
229.67993282
 30
0.0
  0
VERTEX
  5
81C
  8
0
 10
-30.9561377
 20
227.39692882
 30
0.0
  0
VERTEX
  5
81D
  8
0
 10
-30.9561377
 20
210.99799168
 30
0.0
  0
VERTEX
  5
81E
  8
0
 10
-31.17851972
 20
208.48200626
 30
0.0
  0
VERTEX
  5
81F
  8
0
 10
-31.81181013
 20
206.11607541
 30
0.0
  0
VERTEX
  5
820
  8
0
 10
-32.75959621
 20
204.26039064
 30
0.0
  0
VERTEX
  5
821
  8
0
 10
-33.87758612
 20
203.19746315
 30
0.0
  0
VERTEX
  5
822
  8
0
 10
-34.99557603
 20
203.089114
 30
0.0
  0
VERTEX
  5
823
  8
0
 10
-35.94336211
 20
203.95183837
 30
0.0
  0
VERTEX
  5
824
  8
0
 10
-36.57665252
 20
205.65429431
 30
0.0
  0
VERTEX
  5
825
  8
0
 10
-36.79903454
 20
207.93729831
 30
0.0
  0
SEQEND
  5
826
  8
0
  0
POLYLINE
  5
827
  8
0
 66
     1
 10
0.0
 20
0.0
 30
0.0
  0
VERTEX
  5
828
  8
0
 10
-36.61509927
 20
206.04899386
 30
0.0
  0
VERTEX
  5
829
  8
0
 10
-36.27832852
 20
206.70836243
 30
0.0
  0
VERTEX
  5
82A
  8
0
 10
-35.6450381
 20
209.07429329
 30
0.0
  0
VERTEX
  5
82B
  8
0
 10
-35.42265608
 20
211.5902787
 30
0.0
  0
VERTEX
  5
82C
  8
0
 10
-35.42265608
 20
227.98921584
 30
0.0
  0
VERTEX
  5
82D
  8
0
 10
-35.60659135
 20
229.8775203
 30
0.0
  0
SEQEND
  5
82E
  8
0
  0
LINE
  5
82F
  8
0
 10
-31.81181013
 20
231.38238876
 30
0.0
 11
-34.32106136
 21
231.71513046
 31
0.0
  0
LINE
  5
830
  8
0
 10
-31.17851972
 20
229.67993282
 30
0.0
 11
-35.42022573
 21
230.24240839
 31
0.0
  0
LINE
  5
831
  8
0
 10
-31.17851972
 20
208.48200626
 30
0.0
 11
-35.6450381
 21
209.07429329
 31
0.0
  0
LINE
  5
832
  8
0
 10
-31.81181013
 20
206.11607541
 30
0.0
 11
-36.27832852
 21
206.70836243
 31
0.0
  0
LINE
  5
833
  8
0
 10
-32.75959621
 20
204.26039064
 30
0.0
 11
-36.22929113
 21
204.72049292
 31
0.0
  0
LINE
  5
834
  8
0
 10
-33.87758612
 20
203.19746315
 30
0.0
 11
-35.32554778
 21
203.38947152
 31
0.0
  0
POLYLINE
  5
835
  8
0
 66
     1
 10
0.0
 20
0.0
 30
0.0
  0
VERTEX
  5
836
  8
0
 10
-17.69725641
 20
249.29432048
 30
0.0
  0
VERTEX
  5
837
  8
0
 10
-19.04561722
 20
248.58800663
 30
0.0
  0
VERTEX
  5
838
  8
0
 10
-19.04561722
 20
254.37586679
 30
0.0
  0
VERTEX
  5
839
  8
0
 10
-21.74233884
 20
256.82181253
 30
0.0
  0
VERTEX
  5
83A
  8
0
 10
-46.0128334
 20
244.10816316
 30
0.0
  0
VERTEX
  5
83B
  8
0
 10
-48.70955502
 20
238.83696201
 30
0.0
  0
VERTEX
  5
83C
  8
0
 10
-48.70955502
 20
233.04910184
 30
0.0
  0
VERTEX
  5
83D
  8
0
 10
-50.05791583
 20
232.34278799
 30
0.0
  0
VERTEX
  5
83E
  8
0
 10
-50.05791583
 20
226.55492782
 30
0.0
  0
VERTEX
  5
83F
  8
0
 10
-47.20849417
 20
228.04754462
 30
0.0
  0
VERTEX
  5
840
  8
0
 10
-43.31611179
 20
230.08649709
 30
0.0
  0
SEQEND
  5
841
  8
0
  0
POLYLINE
  5
842
  8
0
 66
     1
 10
0.0
 20
0.0
 30
0.0
  0
VERTEX
  5
843
  8
0
 10
-24.43906046
 20
239.97489104
 30
0.0
  0
VERTEX
  5
844
  8
0
 10
-20.54667808
 20
242.01384351
 30
0.0
  0
VERTEX
  5
845
  8
0
 10
-17.69725641
 20
243.50646031
 30
0.0
  0
VERTEX
  5
846
  8
0
 10
-17.69725641
 20
249.29432048
 30
0.0
  0
VERTEX
  5
847
  8
0
 10
-19.04561722
 20
249.47312118
 30
0.0
  0
SEQEND
  5
848
  8
0
  0
LINE
  5
849
  8
0
 10
-19.2386574
 20
240.39438895
 30
0.0
 11
-20.54667808
 21
242.01384351
 31
0.0
  0
LINE
  5
84A
  8
0
 10
-19.2386574
 20
240.39438895
 30
0.0
 11
-15.47800604
 21
234.84667381
 31
0.0
  0
LINE
  5
84B
  8
0
 10
-13.69139869
 20
231.85363511
 30
0.0
 11
-15.47800604
 21
234.84667381
 31
0.0
  0
LINE
  5
84C
  8
0
 10
-13.69139869
 20
172.04574672
 30
0.0
 11
-13.69139869
 21
231.85363511
 31
0.0
  0
LINE
  5
84D
  8
0
 10
-13.69139869
 20
172.04574672
 30
0.0
 11
-15.93866671
 21
170.86855696
 31
0.0
  0
LINE
  5
84E
  8
0
 10
84.11134508
 20
157.60132759
 30
0.0
 11
-15.93866671
 21
170.86855696
 31
0.0
  0
LINE
  5
84F
  8
0
 10
86.35861309
 20
158.77851734
 30
0.0
 11
84.11134508
 21
157.60132759
 31
0.0
  0
LINE
  5
850
  8
0
 10
88.91090931
 20
156.51078089
 30
0.0
 11
86.35861309
 21
158.77851734
 31
0.0
  0
LINE
  5
851
  8
0
 10
93.45239052
 20
151.99243858
 30
0.0
 11
88.91090931
 21
156.51078089
 31
0.0
  0
POLYLINE
  5
852
  8
0
 66
     1
 10
0.0
 20
0.0
 30
0.0
  0
VERTEX
  5
853
  8
0
 10
93.45239052
 20
151.99243858
 30
0.0
  0
VERTEX
  5
854
  8
0
 10
94.68949621
 20
150.52601272
 30
0.0
  0
VERTEX
  5
855
  8
0
 10
97.53891788
 20
152.01862952
 30
0.0
  0
VERTEX
  5
856
  8
0
 10
102.89873993
 20
151.30788509
 30
0.0
  0
VERTEX
  5
857
  8
0
 10
101.55037913
 20
150.60157124
 30
0.0
  0
VERTEX
  5
858
  8
0
 10
106.91020119
 20
149.89082681
 30
0.0
  0
VERTEX
  5
859
  8
0
 10
107.78669427
 20
148.00436948
 30
0.0
  0
VERTEX
  5
85A
  8
0
 10
83.51619971
 20
135.29072011
 30
0.0
  0
VERTEX
  5
85B
  8
0
 10
77.24626338
 20
134.35192202
 30
0.0
  0
VERTEX
  5
85C
  8
0
 10
71.88644132
 20
135.06266645
 30
0.0
  0
VERTEX
  5
85D
  8
0
 10
70.53808051
 20
134.3563526
 30
0.0
  0
VERTEX
  5
85E
  8
0
 10
65.17825845
 20
135.06709703
 30
0.0
  0
VERTEX
  5
85F
  8
0
 10
68.02768012
 20
136.55971383
 30
0.0
  0
SEQEND
  5
860
  8
0
  0
LINE
  5
861
  8
0
 10
66.27051949
 20
137.75371854
 30
0.0
 11
68.02768012
 21
136.55971383
 31
0.0
  0
LINE
  5
862
  8
0
 10
-44.03113332
 20
155.36396923
 30
0.0
 11
-43.34412943
 21
155.75622182
 31
0.0
  0
POLYLINE
  5
863
  8
0
 66
     1
 10
0.0
 20
0.0
 30
0.0
  0
VERTEX
  5
864
  8
0
 10
-43.34412943
 20
220.24952083
 30
0.0
  0
VERTEX
  5
865
  8
0
 10
-41.55752208
 20
217.25648213
 30
0.0
  0
VERTEX
  5
866
  8
0
 10
-39.31025406
 20
218.43367189
 30
0.0
  0
VERTEX
  5
867
  8
0
 10
-41.09686142
 20
221.42671058
 30
0.0
  0
VERTEX
  5
868
  8
0
 10
-42.63506091
 20
224.37978463
 30
0.0
  0
VERTEX
  5
869
  8
0
 10
-43.59695729
 20
227.06249638
 30
0.0
  0
VERTEX
  5
86A
  8
0
 10
-43.83611056
 20
229.06642731
 30
0.0
  0
SEQEND
  5
86B
  8
0
  0
LINE
  5
86C
  8
0
 10
-43.31611179
 20
230.08649709
 30
0.0
 11
-43.83611056
 21
229.06642731
 31
0.0
  0
POLYLINE
  5
86D
  8
0
 66
     1
 10
0.0
 20
0.0
 30
0.0
  0
VERTEX
  5
86E
  8
0
 10
-39.31025406
 20
158.73233317
 30
0.0
  0
VERTEX
  5
86F
  8
0
 10
-23.23907475
 20
167.150923
 30
0.0
  0
VERTEX
  5
870
  8
0
 10
-23.23907475
 20
233.4890645
 30
0.0
  0
SEQEND
  5
871
  8
0
  0
POLYLINE
  5
872
  8
0
 66
     1
 10
0.0
 20
0.0
 30
0.0
  0
VERTEX
  5
873
  8
0
 10
-24.43906046
 20
239.97489104
 30
0.0
  0
VERTEX
  5
874
  8
0
 10
-23.23907475
 20
239.8558033
 30
0.0
  0
VERTEX
  5
875
  8
0
 10
-21.54178906
 20
238.61568806
 30
0.0
  0
VERTEX
  5
876
  8
0
 10
-19.60559974
 20
236.44334162
 30
0.0
  0
VERTEX
  5
877
  8
0
 10
-17.72527406
 20
233.66948405
 30
0.0
  0
VERTEX
  5
878
  8
0
 10
-15.93866671
 20
230.67644535
 30
0.0
  0
SEQEND
  5
879
  8
0
  0
POLYLINE
  5
87A
  8
0
 66
     1
 10
0.0
 20
0.0
 30
0.0
  0
VERTEX
  5
87B
  8
0
 10
-15.93866671
 20
170.86855696
 30
0.0
  0
VERTEX
  5
87C
  8
0
 10
-15.93866671
 20
230.67644535
 30
0.0
  0
VERTEX
  5
87D
  8
0
 10
-13.69139869
 20
231.85363511
 30
0.0
  0
SEQEND
  5
87E
  8
0
  0
POLYLINE
  5
87F
  8
0
 66
     1
 10
0.0
 20
0.0
 30
0.0
  0
VERTEX
  5
880
  8
0
 10
86.6636413
 20
155.33359114
 30
0.0
  0
VERTEX
  5
881
  8
0
 10
88.9343819
 20
153.07441998
 30
0.0
  0
VERTEX
  5
882
  8
0
 10
90.51729664
 20
150.97997068
 30
0.0
  0
VERTEX
  5
883
  8
0
 10
91.17140111
 20
149.36910417
 30
0.0
  0
VERTEX
  5
884
  8
0
 10
90.79711383
 20
148.48706025
 30
0.0
  0
VERTEX
  5
885
  8
0
 10
94.68949621
 20
150.52601272
 30
0.0
  0
SEQEND
  5
886
  8
0
  0
LINE
  5
887
  8
0
 10
68.02768012
 20
136.55971383
 30
0.0
 11
71.9200625
 21
138.5986663
 31
0.0
  0
LINE
  5
888
  8
0
 10
-46.58810424
 20
150.22948048
 30
0.0
 11
-46.37160761
 21
150.59974995
 31
0.0
  0
POLYLINE
  5
889
  8
0
 66
     1
 10
0.0
 20
0.0
 30
0.0
  0
VERTEX
  5
88A
  8
0
 10
-45.37180819
 20
152.95618048
 30
0.0
  0
VERTEX
  5
88B
  8
0
 10
-45.02442599
 20
153.33126057
 30
0.0
  0
VERTEX
  5
88C
  8
0
 10
-44.66289742
 20
153.71373728
 30
0.0
  0
VERTEX
  5
88D
  8
0
 10
-44.52357126
 20
153.85843218
 30
0.0
  0
SEQEND
  5
88E
  8
0
  0
LINE
  5
88F
  8
0
 10
-46.42052842
 20
226.15566891
 30
0.0
 11
-43.34412943
 21
220.24952083
 31
0.0
  0
LINE
  5
890
  8
0
 10
-47.20849417
 20
228.04754462
 30
0.0
 11
-46.42052842
 21
226.15566891
 31
0.0
  0
POLYLINE
  5
891
  8
0
 66
     1
 10
0.0
 20
0.0
 30
0.0
  0
VERTEX
  5
892
  8
0
 10
-48.34432118
 20
152.35883465
 30
0.0
  0
VERTEX
  5
893
  8
0
 10
-45.70448756
 20
152.58881604
 30
0.0
  0
VERTEX
  5
894
  8
0
 10
-45.37180819
 20
152.95618048
 30
0.0
  0
SEQEND
  5
895
  8
0
  0
LINE
  5
896
  8
0
 10
-46.13405902
 20
151.01963774
 30
0.0
 11
-45.87408486
 21
151.48624056
 31
0.0
  0
LINE
  5
897
  8
0
 10
-46.13405902
 20
151.01963774
 30
0.0
 11
-46.37160761
 21
150.59974995
 31
0.0
  0
LINE
  5
898
  8
0
 10
-45.59047653
 20
151.99630941
 30
0.0
 11
-45.87408486
 21
151.48624056
 31
0.0
  0
LINE
  5
899
  8
0
 10
-45.59047653
 20
151.99630941
 30
0.0
 11
-45.28220022
 21
152.54627571
 31
0.0
  0
LINE
  5
89A
  8
0
 10
-44.94829344
 20
153.13245377
 30
0.0
 11
-45.28220022
 21
152.54627571
 31
0.0
  0
LINE
  5
89B
  8
0
 10
-44.94829344
 20
153.13245377
 30
0.0
 11
-44.58805639
 21
153.7507868
 31
0.0
  0
LINE
  5
89C
  8
0
 10
-44.20086595
 20
154.39712594
 30
0.0
 11
-44.58805639
 21
153.7507868
 31
0.0
  0
LINE
  5
89D
  8
0
 10
-44.20086595
 20
154.39712594
 30
0.0
 11
-43.78629772
 21
155.06711427
 31
0.0
  0
LINE
  5
89E
  8
0
 10
-43.34412943
 20
155.75622182
 30
0.0
 11
-43.78629772
 21
155.06711427
 31
0.0
  0
POLYLINE
  5
89F
  8
0
 66
     1
 10
0.0
 20
0.0
 30
0.0
  0
VERTEX
  5
8A0
  8
0
 10
61.04478592
 20
141.91362791
 30
0.0
  0
VERTEX
  5
8A1
  8
0
 10
58.4924897
 20
144.18136436
 30
0.0
  0
VERTEX
  5
8A2
  8
0
 10
-41.55752208
 20
157.44859374
 30
0.0
  0
VERTEX
  5
8A3
  8
0
 10
-41.55752208
 20
217.25648213
 30
0.0
  0
SEQEND
  5
8A4
  8
0
  0
POLYLINE
  5
8A5
  8
0
 66
     1
 10
0.0
 20
0.0
 30
0.0
  0
VERTEX
  5
8A6
  8
0
 10
-41.55752208
 20
157.44859374
 30
0.0
  0
VERTEX
  5
8A7
  8
0
 10
-39.31025406
 20
158.62578349
 30
0.0
  0
VERTEX
  5
8A8
  8
0
 10
60.73975772
 20
145.35855412
 30
0.0
  0
VERTEX
  5
8A9
  8
0
 10
63.29205394
 20
143.09081767
 30
0.0
  0
SEQEND
  5
8AA
  8
0
  0
LINE
  5
8AB
  8
0
 10
65.90492072
 20
141.01086298
 30
0.0
 11
63.29205394
 21
143.09081767
 31
0.0
  0
POLYLINE
  5
8AC
  8
0
 66
     1
 10
0.0
 20
0.0
 30
0.0
  0
VERTEX
  5
8AD
  8
0
 10
65.90492072
 20
141.01086298
 30
0.0
  0
VERTEX
  5
8AE
  8
0
 10
68.46212841
 20
139.42677901
 30
0.0
  0
VERTEX
  5
8AF
  8
0
 10
70.57436531
 20
138.57972818
 30
0.0
  0
SEQEND
  5
8B0
  8
0
  0
LINE
  5
8B1
  8
0
 10
71.9200625
 20
138.5986663
 30
0.0
 11
70.57436531
 21
138.57972818
 31
0.0
  0
LINE
  5
8B2
  8
0
 10
-21.54178906
 20
165.83967501
 30
0.0
 11
-36.12062807
 21
158.20282003
 31
0.0
  0
LINE
  5
8B3
  8
0
 10
-21.54178906
 20
165.83967501
 30
0.0
 11
-23.23907475
 21
167.150923
 31
0.0
  0
LINE
  5
8B4
  8
0
 10
-21.54178906
 20
165.83967501
 30
0.0
 11
-20.82181242
 21
164.22007345
 31
0.0
  0
POLYLINE
  5
8B5
  8
0
 66
     1
 10
0.0
 20
0.0
 30
0.0
  0
VERTEX
  5
8B6
  8
0
 10
-33.07883339
 20
157.79945988
 30
0.0
  0
VERTEX
  5
8B7
  8
0
 10
-20.82181242
 20
164.22007345
 30
0.0
  0
VERTEX
  5
8B8
  8
0
 10
85.27454721
 20
150.15106223
 30
0.0
  0
SEQEND
  5
8B9
  8
0
  0
LINE
  5
8BA
  8
0
 10
-21.54178906
 20
165.83967501
 30
0.0
 11
86.00172287
 21
151.57876275
 31
0.0
  0
POLYLINE
  5
8BB
  8
0
 66
     1
 10
0.0
 20
0.0
 30
0.0
  0
VERTEX
  5
8BC
  8
0
 10
-21.54178906
 20
165.83967501
 30
0.0
  0
VERTEX
  5
8BD
  8
0
 10
-19.60559974
 20
167.46747008
 30
0.0
  0
VERTEX
  5
8BE
  8
0
 10
86.49147955
 20
153.39836343
 30
0.0
  0
SEQEND
  5
8BF
  8
0
  0
LINE
  5
8C0
  8
0
 10
-19.60559974
 20
233.80585703
 30
0.0
 11
-19.60559974
 21
167.46747008
 31
0.0
  0
LINE
  5
8C1
  8
0
 10
-21.54178906
 20
233.74138823
 30
0.0
 11
-21.54178906
 21
165.83967501
 31
0.0
  0
LINE
  5
8C2
  8
0
 10
58.4924897
 20
144.18136436
 30
0.0
 11
60.73975772
 21
145.35855412
 31
0.0
  0
LINE
  5
8C3
  8
0
 10
-39.31025406
 20
218.43367189
 30
0.0
 11
-39.31025406
 21
158.62578349
 31
0.0
  0
LINE
  5
8C4
  8
0
 10
61.04478592
 20
141.91362791
 30
0.0
 11
66.27051949
 21
137.75371854
 31
0.0
  0
POLYLINE
  5
8C5
  8
0
 66
     1
 10
0.0
 20
0.0
 30
0.0
  0
VERTEX
  5
8C6
  8
0
 10
-45.70448756
 20
152.58881604
 30
0.0
  0
VERTEX
  5
8C7
  8
0
 10
-46.58810424
 20
150.22948048
 30
0.0
  0
VERTEX
  5
8C8
  8
0
 10
61.04478592
 20
135.95671613
 30
0.0
  0
SEQEND
  5
8C9
  8
0
  0
POLYLINE
  5
8CA
  8
0
 66
     1
 10
0.0
 20
0.0
 30
0.0
  0
VERTEX
  5
8CB
  8
0
 10
-46.58810424
 20
150.22948048
 30
0.0
  0
VERTEX
  5
8CC
  8
0
 10
-45.87290538
 20
149.79064227
 30
0.0
  0
VERTEX
  5
8CD
  8
0
 10
-45.13972609
 20
149.4064057
 30
0.0
  0
VERTEX
  5
8CE
  8
0
 10
-44.39025435
 20
149.07883471
 30
0.0
  0
VERTEX
  5
8CF
  8
0
 10
-43.62629892
 20
148.80957573
 30
0.0
  0
VERTEX
  5
8D0
  8
0
 10
-42.84977485
 20
148.59984447
 30
0.0
  0
SEQEND
  5
8D1
  8
0
  0
LINE
  5
8D2
  8
0
 10
61.04478592
 20
134.81915294
 30
0.0
 11
-42.06263428
 21
148.45068404
 31
0.0
  0
LINE
  5
8D3
  8
0
 10
-42.84977485
 20
148.59984447
 30
0.0
 11
-42.06263428
 21
148.45068404
 31
0.0
  0
LINE
  5
8D4
  8
0
 10
-48.06877606
 20
152.65750981
 30
0.0
 11
-48.34432118
 21
152.35883465
 31
0.0
  0
LINE
  5
8D5
  8
0
 10
-47.7364423
 20
152.96247375
 30
0.0
 11
-48.06877606
 21
152.65750981
 31
0.0
  0
LINE
  5
8D6
  8
0
 10
-47.34930117
 20
153.27489089
 30
0.0
 11
-47.7364423
 21
152.96247375
 31
0.0
  0
LINE
  5
8D7
  8
0
 10
-46.90973909
 20
153.59587105
 30
0.0
 11
-47.34930117
 21
153.27489089
 31
0.0
  0
LINE
  5
8D8
  8
0
 10
-46.42052842
 20
153.9264605
 30
0.0
 11
-46.90973909
 21
153.59587105
 31
0.0
  0
LINE
  5
8D9
  8
0
 10
-45.88458668
 20
154.26767793
 30
0.0
 11
-46.42052842
 21
153.9264605
 31
0.0
  0
LINE
  5
8DA
  8
0
 10
-45.30531028
 20
154.6204331
 30
0.0
 11
-45.88458668
 21
154.26767793
 31
0.0
  0
LINE
  5
8DB
  8
0
 10
-44.68622043
 20
154.98560199
 30
0.0
 11
-45.30531028
 21
154.6204331
 31
0.0
  0
LINE
  5
8DC
  8
0
 10
-44.03113332
 20
155.36396923
 30
0.0
 11
-44.68622043
 21
154.98560199
 31
0.0
  0
POLYLINE
  5
8DD
  8
0
 66
     1
 10
0.0
 20
0.0
 30
0.0
  0
VERTEX
  5
8DE
  8
0
 10
-48.34432118
 20
152.35883465
 30
0.0
  0
VERTEX
  5
8DF
  8
0
 10
-48.56126075
 20
153.05018305
 30
0.0
  0
VERTEX
  5
8E0
  8
0
 10
-48.71837845
 20
153.74540174
 30
0.0
  0
VERTEX
  5
8E1
  8
0
 10
-48.81463213
 20
154.44324447
 30
0.0
  0
SEQEND
  5
8E2
  8
0
  0
LINE
  5
8E3
  8
0
 10
-48.84942846
 20
155.14244522
 30
0.0
 11
-48.8257596
 21
220.97641774
 31
0.0
  0
LINE
  5
8E4
  8
0
 10
-48.81463213
 20
154.44324447
 30
0.0
 11
-48.84942846
 21
155.14244522
 31
0.0
  0
LINE
  5
8E5
  8
0
 10
84.11134508
 20
157.60132759
 30
0.0
 11
86.6636413
 21
155.33359114
 31
0.0
  0
LINE
  5
8E6
  8
0
 10
65.17825845
 20
130.24388022
 30
0.0
 11
65.17825845
 21
135.06709703
 31
0.0
  0
LINE
  5
8E7
  8
0
 10
70.53808051
 20
129.53313579
 30
0.0
 11
65.17825845
 21
130.24388022
 31
0.0
  0
LINE
  5
8E8
  8
0
 10
70.53808051
 20
129.53313579
 30
0.0
 11
70.53808051
 21
134.3563526
 31
0.0
  0
LINE
  5
8E9
  8
0
 10
71.88644132
 20
130.23944965
 30
0.0
 11
70.53808051
 21
129.53313579
 31
0.0
  0
LINE
  5
8EA
  8
0
 10
71.88644132
 20
130.23944965
 30
0.0
 11
71.88644132
 21
135.06266645
 31
0.0
  0
LINE
  5
8EB
  8
0
 10
77.24626338
 20
129.52870522
 30
0.0
 11
71.88644132
 21
130.23944965
 31
0.0
  0
LINE
  5
8EC
  8
0
 10
77.24626338
 20
129.52870522
 30
0.0
 11
77.24626338
 21
134.35192202
 31
0.0
  0
LINE
  5
8ED
  8
0
 10
83.51619971
 20
130.4675033
 30
0.0
 11
77.24626338
 21
129.52870522
 31
0.0
  0
LINE
  5
8EE
  8
0
 10
83.51619971
 20
130.4675033
 30
0.0
 11
83.51619971
 21
135.29072011
 31
0.0
  0
LINE
  5
8EF
  8
0
 10
107.78669427
 20
143.18115267
 30
0.0
 11
83.51619971
 21
130.4675033
 31
0.0
  0
LINE
  5
8F0
  8
0
 10
107.78669427
 20
143.18115267
 30
0.0
 11
107.78669427
 21
148.00436948
 31
0.0
  0
LINE
  5
8F1
  8
0
 10
102.89873993
 20
150.42277054
 30
0.0
 11
102.89873993
 21
151.30788509
 31
0.0
  0
LINE
  5
8F2
  8
0
 10
86.35861309
 20
158.77851734
 30
0.0
 11
-13.69139869
 21
172.04574672
 31
0.0
  0
POLYLINE
  5
8F3
  8
0
 66
     1
 10
0.0
 20
0.0
 30
0.0
  0
VERTEX
  5
8F4
  8
0
 10
-50.05791583
 20
226.55492782
 30
0.0
  0
VERTEX
  5
8F5
  8
0
 10
-54.52443421
 20
227.14721485
 30
0.0
  0
VERTEX
  5
8F6
  8
0
 10
-54.52443421
 20
232.93507501
 30
0.0
  0
VERTEX
  5
8F7
  8
0
 10
-53.17607341
 20
233.64138887
 30
0.0
  0
VERTEX
  5
8F8
  8
0
 10
-53.17607341
 20
239.42924903
 30
0.0
  0
VERTEX
  5
8F9
  8
0
 10
-50.47935179
 20
244.70045019
 30
0.0
  0
VERTEX
  5
8FA
  8
0
 10
-26.20885722
 20
257.41409956
 30
0.0
  0
SEQEND
  5
8FB
  8
0
  0
LINE
  5
8FC
  8
0
 10
-21.74233884
 20
256.82181253
 30
0.0
 11
-26.20885722
 21
257.41409956
 31
0.0
  0
LINE
  5
8FD
  8
0
 10
-46.0128334
 20
244.10816316
 30
0.0
 11
-50.47935179
 21
244.70045019
 31
0.0
  0
LINE
  5
8FE
  8
0
 10
-48.70955502
 20
238.83696201
 30
0.0
 11
-53.17607341
 21
239.42924903
 31
0.0
  0
LINE
  5
8FF
  8
0
 10
-48.70955502
 20
233.04910184
 30
0.0
 11
-53.17607341
 21
233.64138887
 31
0.0
  0
LINE
  5
900
  8
0
 10
-50.05791583
 20
232.34278799
 30
0.0
 11
-54.52443421
 21
232.93507501
 31
0.0
  0
POLYLINE
  5
901
  8
0
 66
     1
 10
0.0
 20
0.0
 30
0.0
  0
VERTEX
  5
902
  8
0
 10
-31.81181013
 20
186.52647246
 30
0.0
  0
VERTEX
  5
903
  8
0
 10
-31.17851972
 20
184.82401653
 30
0.0
  0
VERTEX
  5
904
  8
0
 10
-35.42022573
 20
185.38649209
 30
0.0
  0
SEQEND
  5
905
  8
0
  0
POLYLINE
  5
906
  8
0
 66
     1
 10
0.0
 20
0.0
 30
0.0
  0
VERTEX
  5
907
  8
0
 10
-34.32106136
 20
186.85921417
 30
0.0
  0
VERTEX
  5
908
  8
0
 10
-31.81181013
 20
186.52647246
 30
0.0
  0
VERTEX
  5
909
  8
0
 10
-32.75959621
 20
187.38919684
 30
0.0
  0
SEQEND
  5
90A
  8
0
  0
LINE
  5
90B
  8
0
 10
-33.87758612
 20
187.28084769
 30
0.0
 11
-32.75959621
 21
187.38919684
 31
0.0
  0
LINE
  5
90C
  8
0
 10
-34.99557603
 20
186.21792019
 30
0.0
 11
-33.87758612
 21
187.28084769
 31
0.0
  0
LINE
  5
90D
  8
0
 10
-35.94336211
 20
184.36223543
 30
0.0
 11
-34.99557603
 21
186.21792019
 31
0.0
  0
LINE
  5
90E
  8
0
 10
-36.57665252
 20
181.99630457
 30
0.0
 11
-35.94336211
 21
184.36223543
 31
0.0
  0
LINE
  5
90F
  8
0
 10
-36.79903454
 20
179.48031916
 30
0.0
 11
-36.57665252
 21
181.99630457
 31
0.0
  0
LINE
  5
910
  8
0
 10
-36.57665252
 20
177.19731515
 30
0.0
 11
-36.79903454
 21
179.48031916
 31
0.0
  0
LINE
  5
911
  8
0
 10
-35.94336211
 20
175.49485922
 30
0.0
 11
-36.57665252
 21
177.19731515
 31
0.0
  0
LINE
  5
912
  8
0
 10
-34.99557603
 20
174.63213484
 30
0.0
 11
-35.94336211
 21
175.49485922
 31
0.0
  0
LINE
  5
913
  8
0
 10
-33.87758612
 20
174.74048399
 30
0.0
 11
-34.99557603
 21
174.63213484
 31
0.0
  0
LINE
  5
914
  8
0
 10
-32.75959621
 20
175.80341149
 30
0.0
 11
-33.87758612
 21
174.74048399
 31
0.0
  0
LINE
  5
915
  8
0
 10
-31.81181013
 20
177.65909625
 30
0.0
 11
-32.75959621
 21
175.80341149
 31
0.0
  0
LINE
  5
916
  8
0
 10
-31.17851972
 20
180.02502711
 30
0.0
 11
-31.81181013
 21
177.65909625
 31
0.0
  0
LINE
  5
917
  8
0
 10
-30.9561377
 20
182.54101252
 30
0.0
 11
-31.17851972
 21
180.02502711
 31
0.0
  0
POLYLINE
  5
918
  8
0
 66
     1
 10
0.0
 20
0.0
 30
0.0
  0
VERTEX
  5
919
  8
0
 10
-31.17851972
 20
184.82401653
 30
0.0
  0
VERTEX
  5
91A
  8
0
 10
-30.9561377
 20
182.54101252
 30
0.0
  0
VERTEX
  5
91B
  8
0
 10
-35.42265608
 20
183.13329955
 30
0.0
  0
VERTEX
  5
91C
  8
0
 10
-35.60659135
 20
185.02160401
 30
0.0
  0
SEQEND
  5
91D
  8
0
  0
LINE
  5
91E
  8
0
 10
-35.6450381
 20
180.61731413
 30
0.0
 11
-35.42265608
 21
183.13329955
 31
0.0
  0
LINE
  5
91F
  8
0
 10
-31.17851972
 20
180.02502711
 30
0.0
 11
-35.6450381
 21
180.61731413
 31
0.0
  0
LINE
  5
920
  8
0
 10
-36.27832852
 20
178.25138328
 30
0.0
 11
-35.6450381
 21
180.61731413
 31
0.0
  0
LINE
  5
921
  8
0
 10
-31.81181013
 20
177.65909625
 30
0.0
 11
-36.27832852
 21
178.25138328
 31
0.0
  0
LINE
  5
922
  8
0
 10
-36.61509927
 20
177.5920147
 30
0.0
 11
-36.27832852
 21
178.25138328
 31
0.0
  0
LINE
  5
923
  8
0
 10
-32.75959621
 20
175.80341149
 30
0.0
 11
-36.22929113
 21
176.26351377
 31
0.0
  0
LINE
  5
924
  8
0
 10
-33.87758612
 20
174.74048399
 30
0.0
 11
-35.32554778
 21
174.93249236
 31
0.0
  0
ENDBLK
  8
0
  0
BLOCK
  8
0
  2
1X_BL_10X7_143X72_000_S23C
 70
     0
 10
0.0
 20
0.0
 30
0.0
  0
INSERT
  5
927
  8
0
  2
1X_BL_10X7_143X72_000_S23D
 10
71.36142632
 20
138.47800725
 30
0.0
  0
ENDBLK
  8
0
  0
BLOCK
  8
0
  2
1X_BL_10X7_143X72_000_S23D
 70
     0
 10
71.36142632
 20
138.47800725
 30
0.0
  0
LINE
  5
92A
  8
0
 10
71.36142632
 20
138.47800725
 30
0.0
 11
71.67484857
 21
138.51190553
 31
0.0
  0
POLYLINE
  5
92B
  8
0
 66
     1
 10
0.0
 20
0.0
 30
0.0
  0
VERTEX
  5
92C
  8
0
 10
71.36142632
 20
138.47800725
 30
0.0
  0
VERTEX
  5
92D
  8
0
 10
70.97825603
 20
138.50300789
 30
0.0
  0
VERTEX
  5
92E
  8
0
 10
70.52543928
 20
138.59172891
 30
0.0
  0
VERTEX
  5
92F
  8
0
 10
70.00598441
 20
138.74717034
 30
0.0
  0
VERTEX
  5
930
  8
0
 10
69.42613054
 20
138.97008787
 30
0.0
  0
VERTEX
  5
931
  8
0
 10
69.24327371
 20
139.04923236
 30
0.0
  0
VERTEX
  5
932
  8
0
 10
68.79437815
 20
139.25885884
 30
0.0
  0
VERTEX
  5
933
  8
0
 10
68.12106317
 20
139.60944226
 30
0.0
  0
VERTEX
  5
934
  8
0
 10
67.41831599
 20
140.01548013
 30
0.0
  0
VERTEX
  5
935
  8
0
 10
66.6995394
 20
140.46865098
 30
0.0
  0
VERTEX
  5
936
  8
0
 10
66.14410937
 20
140.84323334
 30
0.0
  0
VERTEX
  5
937
  8
0
 10
65.97797128
 20
140.95929805
 30
0.0
  0
VERTEX
  5
938
  8
0
 10
65.26597972
 20
141.47705478
 30
0.0
  0
VERTEX
  5
939
  8
0
 10
64.57503213
 20
142.01140534
 30
0.0
  0
VERTEX
  5
93A
  8
0
 10
63.91456055
 20
142.55235026
 30
0.0
  0
VERTEX
  5
93B
  8
0
 10
63.29205394
 20
143.09081767
 30
0.0
  0
VERTEX
  5
93C
  8
0
 10
61.04478592
 20
141.91362791
 30
0.0
  0
VERTEX
  5
93D
  8
0
 10
61.52569385
 20
141.32075977
 30
0.0
  0
VERTEX
  5
93E
  8
0
 10
64.78208255
 20
136.09823165
 30
0.0
  0
VERTEX
  5
93F
  8
0
 10
65.17825845
 20
135.06709703
 30
0.0
  0
VERTEX
  5
940
  8
0
 10
68.02768012
 20
136.55971383
 30
0.0
  0
SEQEND
  5
941
  8
0
  0
LINE
  5
942
  8
0
 10
71.67484857
 20
138.51190553
 30
0.0
 11
71.9200625
 21
138.5986663
 31
0.0
  0
POLYLINE
  5
943
  8
0
 66
     1
 10
0.0
 20
0.0
 30
0.0
  0
VERTEX
  5
944
  8
0
 10
64.78208255
 20
130.61206599
 30
0.0
  0
VERTEX
  5
945
  8
0
 10
65.17825845
 20
130.24388022
 30
0.0
  0
VERTEX
  5
946
  8
0
 10
65.17825845
 20
135.06709703
 30
0.0
  0
SEQEND
  5
947
  8
0
  0
LINE
  5
948
  8
0
 10
64.78208255
 20
130.61206599
 30
0.0
 11
61.52569385
 21
132.12646476
 31
0.0
  0
LINE
  5
949
  8
0
 10
61.04478592
 20
132.2671943
 30
0.0
 11
61.04478592
 21
141.91362791
 31
0.0
  0
LINE
  5
94A
  8
0
 10
61.52569385
 20
132.12646476
 30
0.0
 11
61.04478592
 21
132.2671943
 31
0.0
  0
LINE
  5
94B
  8
0
 10
90.98309106
 20
148.62617099
 30
0.0
 11
90.79711383
 21
148.48706025
 31
0.0
  0
POLYLINE
  5
94C
  8
0
 66
     1
 10
0.0
 20
0.0
 30
0.0
  0
VERTEX
  5
94D
  8
0
 10
90.98309106
 20
148.62617099
 30
0.0
  0
VERTEX
  5
94E
  8
0
 10
91.11200873
 20
148.82398429
 30
0.0
  0
VERTEX
  5
94F
  8
0
 10
91.17585569
 20
149.08314665
 30
0.0
  0
SEQEND
  5
950
  8
0
  0
LINE
  5
951
  8
0
 10
85.26905432
 20
150.14387
 30
0.0
 11
85.28040835
 21
150.15873662
 31
0.0
  0
POLYLINE
  5
952
  8
0
 66
     1
 10
0.0
 20
0.0
 30
0.0
  0
VERTEX
  5
953
  8
0
 10
91.17585569
 20
149.08314665
 30
0.0
  0
VERTEX
  5
954
  8
0
 10
91.16725991
 20
149.4045646
 30
0.0
  0
VERTEX
  5
955
  8
0
 10
91.08105117
 20
149.786954
 30
0.0
  0
VERTEX
  5
956
  8
0
 10
90.91499532
 20
150.22663196
 30
0.0
  0
VERTEX
  5
957
  8
0
 10
90.85023874
 20
150.36764167
 30
0.0
  0
SEQEND
  5
958
  8
0
  0
LINE
  5
959
  8
0
 10
90.66931435
 20
150.71763929
 30
0.0
 11
90.85023874
 21
150.36764167
 31
0.0
  0
LINE
  5
95A
  8
0
 10
90.34677699
 20
151.25197108
 30
0.0
 11
90.66931435
 21
150.71763929
 31
0.0
  0
LINE
  5
95B
  8
0
 10
89.95313775
 20
151.81992944
 30
0.0
 11
90.34677699
 21
151.25197108
 31
0.0
  0
LINE
  5
95C
  8
0
 10
89.49699659
 20
152.41067699
 30
0.0
 11
89.95313775
 21
151.81992944
 31
0.0
  0
LINE
  5
95D
  8
0
 10
89.10999941
 20
152.87349111
 30
0.0
 11
89.49699659
 21
152.41067699
 31
0.0
  0
LINE
  5
95E
  8
0
 10
88.98859776
 20
153.01298884
 30
0.0
 11
89.10999941
 21
152.87349111
 31
0.0
  0
LINE
  5
95F
  8
0
 10
88.43919283
 20
153.61591358
 30
0.0
 11
88.98859776
 21
153.01298884
 31
0.0
  0
LINE
  5
960
  8
0
 10
87.86091522
 20
154.20928422
 30
0.0
 11
88.43919283
 21
153.61591358
 31
0.0
  0
LINE
  5
961
  8
0
 10
87.26541657
 20
154.78426399
 30
0.0
 11
87.86091522
 21
154.20928422
 31
0.0
  0
LINE
  5
962
  8
0
 10
86.6636413
 20
155.33359114
 30
0.0
 11
87.26541657
 21
154.78426399
 31
0.0
  0
LINE
  5
963
  8
0
 10
86.6636413
 20
155.33359114
 30
0.0
 11
88.91090931
 21
156.51078089
 31
0.0
  0
LINE
  5
964
  8
0
 10
89.62628977
 20
156.04073684
 30
0.0
 11
88.91090931
 21
156.51078089
 31
0.0
  0
LINE
  5
965
  8
0
 10
96.18103429
 20
152.54599137
 30
0.0
 11
89.62628977
 21
156.04073684
 31
0.0
  0
LINE
  5
966
  8
0
 10
97.53891788
 20
152.01862952
 30
0.0
 11
96.18103429
 21
152.54599137
 31
0.0
  0
LINE
  5
967
  8
0
 10
97.53891788
 20
152.01862952
 30
0.0
 11
90.79711383
 21
148.48706025
 31
0.0
  0
LINE
  5
968
  8
0
 10
90.79711383
 20
143.66384345
 30
0.0
 11
90.79711383
 21
148.48706025
 31
0.0
  0
POLYLINE
  5
969
  8
0
 66
     1
 10
0.0
 20
0.0
 30
0.0
  0
VERTEX
  5
96A
  8
0
 10
84.41637328
 20
149.33318457
 30
0.0
  0
VERTEX
  5
96B
  8
0
 10
86.5432868
 20
149.05114313
 30
0.0
  0
VERTEX
  5
96C
  8
0
 10
88.67020031
 20
148.76910169
 30
0.0
  0
VERTEX
  5
96D
  8
0
 10
90.79711383
 20
148.48706025
 30
0.0
  0
SEQEND
  5
96E
  8
0
  0
LINE
  5
96F
  8
0
 10
86.48987687
 20
153.38812575
 30
0.0
 11
86.49403249
 21
153.41467125
 31
0.0
  0
LINE
  5
970
  8
0
 10
85.99083584
 20
151.54969341
 30
0.0
 11
86.0151844
 21
151.61470623
 31
0.0
  0
ENDBLK
  8
0
  0
BLOCK
  8
0
  2
1X_BL_10X7_143X72_000_S23E
 70
     0
 10
0.0
 20
0.0
 30
0.0
  0
INSERT
  5
973
  8
0
  2
1X_BL_10X7_143X72_000_S23F
 10
-43.51110525
 20
229.93884568
 30
0.0
  0
ENDBLK
  8
0
  0
BLOCK
  8
0
  2
1X_BL_10X7_143X72_000_S23F
 70
     0
 10
-43.51110525
 20
229.93884568
 30
0.0
  0
LINE
  5
976
  8
0
 10
-43.51110525
 20
229.93884568
 30
0.0
 11
-43.31611179
 21
230.08649709
 31
0.0
  0
POLYLINE
  5
977
  8
0
 66
     1
 10
0.0
 20
0.0
 30
0.0
  0
VERTEX
  5
978
  8
0
 10
-43.51110525
 20
229.93884568
 30
0.0
  0
VERTEX
  5
979
  8
0
 10
-43.66770732
 20
229.7148082
 30
0.0
  0
VERTEX
  5
97A
  8
0
 10
-43.77924833
 20
229.41046744
 30
0.0
  0
VERTEX
  5
97B
  8
0
 10
-43.83978567
 20
229.02356283
 30
0.0
  0
VERTEX
  5
97C
  8
0
 10
-43.84456832
 20
228.55498143
 30
0.0
  0
VERTEX
  5
97D
  8
0
 10
-43.79046908
 20
228.00925206
 30
0.0
  0
VERTEX
  5
97E
  8
0
 10
-43.76278637
 20
227.83312396
 30
0.0
  0
SEQEND
  5
97F
  8
0
  0
LINE
  5
980
  8
0
 10
-43.67632372
 20
227.39364702
 30
0.0
 11
-43.76278637
 21
227.83312396
 31
0.0
  0
LINE
  5
981
  8
0
 10
-43.50312156
 20
226.71785679
 30
0.0
 11
-43.67632372
 21
227.39364702
 31
0.0
  0
LINE
  5
982
  8
0
 10
-43.27401078
 20
225.9940481
 30
0.0
 11
-43.50312156
 21
226.71785679
 31
0.0
  0
LINE
  5
983
  8
0
 10
-42.99410998
 20
225.23635607
 30
0.0
 11
-43.27401078
 21
225.9940481
 31
0.0
  0
LINE
  5
984
  8
0
 10
-42.74845767
 20
224.63965239
 30
0.0
 11
-42.99410998
 21
225.23635607
 31
0.0
  0
LINE
  5
985
  8
0
 10
-42.67014921
 20
224.45933444
 30
0.0
 11
-42.74845767
 21
224.63965239
 31
0.0
  0
LINE
  5
986
  8
0
 10
-42.30999072
 20
223.67714515
 30
0.0
 11
-42.67014921
 21
224.45933444
 31
0.0
  0
LINE
  5
987
  8
0
 10
-41.92209502
 20
222.90343438
 30
0.0
 11
-42.30999072
 21
223.67714515
 31
0.0
  0
LINE
  5
988
  8
0
 10
-41.51499899
 20
222.14998938
 30
0.0
 11
-41.92209502
 21
222.90343438
 31
0.0
  0
LINE
  5
989
  8
0
 10
-41.09686142
 20
221.42671058
 30
0.0
 11
-41.51499899
 21
222.14998938
 31
0.0
  0
LINE
  5
98A
  8
0
 10
-41.09686142
 20
221.42671058
 30
0.0
 11
-43.34412943
 21
220.24952083
 31
0.0
  0
LINE
  5
98B
  8
0
 10
-43.88006663
 20
220.88954332
 30
0.0
 11
-43.34412943
 21
220.24952083
 31
0.0
  0
LINE
  5
98C
  8
0
 10
-48.96314117
 20
225.77833485
 30
0.0
 11
-43.88006663
 21
220.88954332
 31
0.0
  0
LINE
  5
98D
  8
0
 10
-50.05791583
 20
226.55492782
 30
0.0
 11
-48.96314117
 21
225.77833485
 31
0.0
  0
LINE
  5
98E
  8
0
 10
-50.05791583
 20
226.55492782
 30
0.0
 11
-47.20849417
 21
228.04754462
 31
0.0
  0
LINE
  5
98F
  8
0
 10
-54.52443421
 20
227.14721485
 30
0.0
 11
-50.05791583
 21
226.55492782
 31
0.0
  0
LINE
  5
990
  8
0
 10
-52.39440246
 20
222.01859512
 30
0.0
 11
-54.04358037
 21
226.45203145
 31
0.0
  0
POLYLINE
  5
991
  8
0
 66
     1
 10
0.0
 20
0.0
 30
0.0
  0
VERTEX
  5
992
  8
0
 10
-43.34412943
 20
220.24952083
 30
0.0
  0
VERTEX
  5
993
  8
0
 10
-52.2771662
 20
221.43409488
 30
0.0
  0
VERTEX
  5
994
  8
0
 10
-52.39440246
 20
222.01859512
 30
0.0
  0
SEQEND
  5
995
  8
0
  0
LINE
  5
996
  8
0
 10
-54.04358037
 20
226.45203145
 30
0.0
 11
-54.52443421
 21
227.14721485
 31
0.0
  0
LINE
  5
997
  8
0
 10
-43.31611179
 20
226.2792233
 30
0.0
 11
-43.31611179
 21
227.78972718
 31
0.0
  0
LINE
  5
998
  8
0
 10
-23.91712492
 20
240.06078525
 30
0.0
 11
-24.20286276
 21
240.05311115
 31
0.0
  0
POLYLINE
  5
999
  8
0
 66
     1
 10
0.0
 20
0.0
 30
0.0
  0
VERTEX
  5
99A
  8
0
 10
-23.91712492
 20
240.06078525
 30
0.0
  0
VERTEX
  5
99B
  8
0
 10
-23.58164866
 20
239.9906062
 30
0.0
  0
VERTEX
  5
99C
  8
0
 10
-23.19796504
 20
239.83639852
 30
0.0
  0
VERTEX
  5
99D
  8
0
 10
-22.76950155
 20
239.59476509
 30
0.0
  0
VERTEX
  5
99E
  8
0
 10
-22.3016043
 20
239.26579616
 30
0.0
  0
VERTEX
  5
99F
  8
0
 10
-22.15582122
 20
239.15153339
 30
0.0
  0
VERTEX
  5
9A0
  8
0
 10
-21.80138752
 20
238.85242748
 30
0.0
  0
VERTEX
  5
9A1
  8
0
 10
-21.27740775
 20
238.3603856
 30
0.0
  0
VERTEX
  5
9A2
  8
0
 10
-20.73918901
 20
237.79849741
 30
0.0
  0
VERTEX
  5
9A3
  8
0
 10
-20.19665277
 20
237.1783821
 30
0.0
  0
VERTEX
  5
9A4
  8
0
 10
-19.78256734
 20
236.66991043
 30
0.0
  0
VERTEX
  5
9A5
  8
0
 10
-19.65952274
 20
236.51302521
 30
0.0
  0
VERTEX
  5
9A6
  8
0
 10
-19.1367776
 20
235.81600396
 30
0.0
  0
VERTEX
  5
9A7
  8
0
 10
-18.63621192
 20
235.10131327
 30
0.0
  0
VERTEX
  5
9A8
  8
0
 10
-18.16414298
 20
234.3819031
 30
0.0
  0
VERTEX
  5
9A9
  8
0
 10
-17.72527406
 20
233.66948405
 30
0.0
  0
VERTEX
  5
9AA
  8
0
 10
-15.47800604
 20
234.84667381
 30
0.0
  0
VERTEX
  5
9AB
  8
0
 10
-15.77947071
 20
235.60952039
 30
0.0
  0
VERTEX
  5
9AC
  8
0
 10
-17.56418943
 20
242.22609457
 30
0.0
  0
VERTEX
  5
9AD
  8
0
 10
-17.69725641
 20
243.50646031
 30
0.0
  0
VERTEX
  5
9AE
  8
0
 10
-24.43906046
 20
239.97489104
 30
0.0
  0
SEQEND
  5
9AF
  8
0
  0
LINE
  5
9B0
  8
0
 10
-24.20286276
 20
240.05311115
 30
0.0
 11
-24.43906046
 21
239.97489104
 31
0.0
  0
LINE
  5
9B1
  8
0
 10
-24.43906046
 20
235.38135123
 30
0.0
 11
-24.43906046
 21
233.08458132
 31
0.0
  0
LINE
  5
9B2
  8
0
 10
-24.43906046
 20
237.67812114
 30
0.0
 11
-24.43906046
 21
235.38135123
 31
0.0
  0
LINE
  5
9B3
  8
0
 10
-24.43906046
 20
239.97489104
 30
0.0
 11
-24.43906046
 21
237.67812114
 31
0.0
  0
LINE
  5
9B4
  8
0
 10
-19.58961421
 20
233.80536912
 30
0.0
 11
-19.61633632
 21
233.80618473
 31
0.0
  0
LINE
  5
9B5
  8
0
 10
-21.50302659
 20
233.7447652
 30
0.0
 11
-21.57576868
 21
233.73842794
 31
0.0
  0
LINE
  5
9B6
  8
0
 10
-23.22966294
 20
233.49139297
 30
0.0
 11
-23.24927639
 21
233.48654063
 31
0.0
  0
ENDBLK
  8
0
  0
BLOCK
  8
0
  2
DVI_FIGURE_00052
 70
     0
 10
0.0
 20
0.0
 30
0.0
  0
INSERT
  5
9B9
  8
0
  2
VIEW_2_00053
 10
0.0
 20
0.0
 30
0.0
  0
INSERT
  5
9BA
  8
0
  2
VIEW_3_00058
 10
0.0
 20
0.0
 30
0.0
  0
INSERT
  5
9BB
  8
0
  2
VIEW_4_00075
 10
0.0
 20
0.0
 30
0.0
  0
ENDBLK
  8
0
  0
BLOCK
  8
0
  2
VIEW_2_00053
 70
     0
 10
0.0
 20
0.0
 30
0.0
  0
INSERT
  5
9BE
  8
0
  2
PART_0_00054
 10
0.0
 20
0.0
 30
0.0
  0
ENDBLK
  8
0
  0
BLOCK
  8
0
  2
PART_0_00054
 70
     0
 10
0.0
 20
0.0
 30
0.0
  0
INSERT
  5
9C1
  8
0
  2
_D1
 10
139.51485568
 20
317.8015204
 30
0.0
  0
INSERT
  5
9C2
  8
0
  2
_D2
 10
220.63510257
 20
309.61537267
 30
0.0
  0
INSERT
  5
9C3
  8
0
  2
_D3
 10
306.28697456
 20
272.20592471
 30
0.0
  0
ENDBLK
  8
0
  0
BLOCK
  8
0
  2
VIEW_3_00058
 70
     0
 10
0.0
 20
0.0
 30
0.0
  0
INSERT
  5
9DE
  8
0
  2
PART_0_00059
 10
0.0
 20
0.0
 30
0.0
  0
ENDBLK
  8
0
  0
BLOCK
  8
0
  2
PART_0_00059
 70
     0
 10
0.0
 20
0.0
 30
0.0
  0
INSERT
  5
9E1
  8
0
  2
_D4
 10
170.83573254
 20
209.94923222
 30
0.0
  0
INSERT
  5
9E2
  8
0
  2
_D5
 10
284.09502024
 20
255.13395692
 30
0.0
  0
INSERT
  5
9E3
  8
0
  2
_D6
 10
261.59502024
 20
255.13395692
 30
0.0
  0
INSERT
  5
9E4
  8
0
  2
_D7
 10
241.59502024
 20
255.13395692
 30
0.0
  0
INSERT
  5
9E5
  8
0
  2
_D8
 10
216.59502024
 20
255.13395692
 30
0.0
  0
INSERT
  5
9E6
  8
0
  2
_D9
 10
191.59502024
 20
255.13395692
 30
0.0
  0
INSERT
  5
9E7
  8
0
  2
_D10
 10
164.09502024
 20
255.13395692
 30
0.0
  0
INSERT
  5
9E8
  8
0
  2
_D11
 10
284.09502024
 20
168.46235933
 30
0.0
  0
INSERT
  5
9E9
  8
0
  2
_D12
 10
251.59502024
 20
168.46235933
 30
0.0
  0
INSERT
  5
9EA
  8
0
  2
_D13
 10
211.59502024
 20
168.46235933
 30
0.0
  0
INSERT
  5
9EB
  8
0
  2
_D14
 10
169.09502024
 20
168.46235933
 30
0.0
  0
INSERT
  5
9EC
  8
0
  2
SHAPE_00071
 10
278.01485568
 20
227.36906767
 30
0.0
  0
INSERT
  5
9ED
  8
0
  2
SHAPE_00072
 10
276.74843405
 20
197.70845968
 30
0.0
  0
INSERT
  5
9EE
  8
0
  2
SHAPE_00073
 10
240.01485568
 20
211.86906767
 30
0.0
  0
INSERT
  5
9EF
  8
0
  2
SHAPE_00074
 10
208.02007264
 20
214.35650998
 30
0.0
  0
ENDBLK
  8
0
  0
BLOCK
  8
0
  2
SHAPE_00071
 70
     0
 10
278.01485568
 20
227.36906767
 30
0.0
  0
LINE
  5
A4A
  8
DIM49
 62
     5
 10
278.01485568
 20
227.36906767
 30
0.0
 11
280.76193603
 21
224.39860322
 31
0.0
  0
TEXT
  5
A4B
  8
TXT_DIM49
 10
280.76193603
 20
223.14860322
 30
0.0
 40
2.5
  1
Ø9
  7
ARIAL
  0
ENDBLK
  8
0
  0
BLOCK
  8
0
  2
SHAPE_00072
 70
     0
 10
276.74843405
 20
197.70845968
 30
0.0
  0
LINE
  5
A4E
  8
DIM49
 62
     5
 10
276.74843405
 20
197.70845968
 30
0.0
 11
280.43552936
 21
200.00857153
 31
0.0
  0
TEXT
  5
A4F
  8
TXT_DIM49
 10
280.43552936
 20
198.75857153
 30
0.0
 40
2.5
  1
Ø7
  7
ARIAL
  0
ENDBLK
  8
0
  0
BLOCK
  8
0
  2
SHAPE_00073
 70
     0
 10
240.01485568
 20
211.86906767
 30
0.0
  0
LINE
  5
A52
  8
DIM49
 62
     5
 10
240.01485568
 20
211.86906767
 30
0.0
 11
244.00595637
 21
209.38395616
 31
0.0
  0
TEXT
  5
A53
  8
TXT_DIM49
 10
244.00595637
 20
208.13395616
 30
0.0
 40
2.5
  1
Ø13
  7
ARIAL
  0
ENDBLK
  8
0
  0
BLOCK
  8
0
  2
SHAPE_00074
 70
     0
 10
208.02007264
 20
214.35650998
 30
0.0
  0
LINE
  5
A56
  8
DIM49
 62
     5
 10
208.02007264
 20
214.35650998
 30
0.0
 11
210.374752
 21
220.60322601
 31
0.0
  0
TEXT
  5
A57
  8
TXT_DIM49
 10
210.374752
 20
219.35322601
 30
0.0
 40
2.5
  1
Slobgat 13x30
  7
ARIAL
  0
ENDBLK
  8
0
  0
BLOCK
  8
0
  2
VIEW_4_00075
 70
     0
 10
0.0
 20
0.0
 30
0.0
  0
INSERT
  5
A5A
  8
0
  2
PART_0_00076
 10
0.0
 20
0.0
 30
0.0
  0
ENDBLK
  8
0
  0
BLOCK
  8
0
  2
PART_0_00076
 70
     0
 10
0.0
 20
0.0
 30
0.0
  0
INSERT
  5
A5D
  8
0
  2
_D15
 10
-1.94448792
 20
360.74600699
 30
0.0
  0
INSERT
  5
A5E
  8
0
  2
_D16
 10
-1.94448792
 20
343.74600699
 30
0.0
  0
INSERT
  5
A5F
  8
0
  2
_D17
 10
-1.94448792
 20
322.74600699
 30
0.0
  0
INSERT
  5
A60
  8
0
  2
_D18
 10
-1.94448792
 20
303.74600699
 30
0.0
  0
INSERT
  5
A61
  8
0
  2
_D19
 10
-1.94448792
 20
282.74600699
 30
0.0
  0
INSERT
  5
A62
  8
0
  2
_D20
 10
43.04078269
 20
262.16584243
 30
0.0
  0
INSERT
  5
A63
  8
0
  2
_D21
 10
43.04078269
 20
366.42054051
 30
0.0
  0
INSERT
  5
A64
  8
0
  2
SHAPE_00084
 10
26.27863763
 20
357.84782295
 30
0.0
  0
INSERT
  5
A65
  8
0
  2
SHAPE_00085
 10
59.12122613
 20
357.8994208
 30
0.0
  0
INSERT
  5
A66
  8
0
  2
SHAPE_00086
 10
44.96061814
 20
292.16584243
 30
0.0
  0
INSERT
  5
A67
  8
0
  2
SHAPE_00087
 10
51.46061814
 20
328.16584243
 30
0.0
  0
ENDBLK
  8
0
  0
BLOCK
  8
0
  2
SHAPE_00084
 70
     0
 10
26.27863763
 20
357.84782295
 30
0.0
  0
LINE
  5
AA2
  8
DIM49
 62
     5
 10
26.27863763
 20
357.84782295
 30
0.0
 11
22.62776351
 21
361.61326802
 31
0.0
  0
TEXT
  5
AA3
  8
TXT_DIM49
 10
18.02285521
 20
360.36326802
 30
0.0
 40
2.5
  1
Ø9
  7
ARIAL
  0
ENDBLK
  8
0
  0
BLOCK
  8
0
  2
SHAPE_00085
 70
     0
 10
59.12122613
 20
357.8994208
 30
0.0
  0
LINE
  5
AA6
  8
DIM49
 62
     5
 10
59.12122613
 20
357.8994208
 30
0.0
 11
56.71506905
 21
361.01501875
 31
0.0
  0
TEXT
  5
AA7
  8
TXT_DIM49
 10
52.11016074
 20
359.76501875
 30
0.0
 40
2.5
  1
Ø7
  7
ARIAL
  0
ENDBLK
  8
0
  0
BLOCK
  8
0
  2
SHAPE_00086
 70
     0
 10
44.96061814
 20
292.16584243
 30
0.0
  0
LINE
  5
AAA
  8
DIM49
 62
     5
 10
44.96061814
 20
292.16584243
 30
0.0
 11
43.41895792
 21
286.02241933
 31
0.0
  0
TEXT
  5
AAB
  8
TXT_DIM49
 10
36.89421412
 20
284.77241933
 30
0.0
 40
2.5
  1
Ø13
  7
ARIAL
  0
ENDBLK
  8
0
  0
BLOCK
  8
0
  2
SHAPE_00087
 70
     0
 10
51.46061814
 20
328.16584243
 30
0.0
  0
LINE
  5
AAE
  8
DIM49
 62
     5
 10
51.46061814
 20
328.16584243
 30
0.0
 11
55.4665126
 21
323.59243854
 31
0.0
  0
TEXT
  5
AAF
  8
TXT_DIM49
 10
55.4665126
 20
322.34243854
 30
0.0
 40
2.5
  1
Slobgat 13x30
  7
ARIAL
  0
ENDBLK
  8
0
  0
ENDSEC
  0
SECTION
  2
ENTITIES
  0
INSERT
  5
AB1
  8
0
  2
_ZBL0001_00001
 10
0.0
 20
0.0
 30
0.0
  0
INSERT
  5
AB2
  8
0
  2
_ANS0002_00016
 10
0.0
 20
0.0
 30
0.0
  0
INSERT
  5
AB3
  8
0
  2
_ANS0003_00025
 10
0.0
 20
0.0
 30
0.0
  0
INSERT
  5
AB4
  8
0
  2
_ANS0004_00034
 10
0.0
 20
0.0
 30
0.0
  0
INSERT
  5
AB5
  8
0
  2
_ANS0005_00043
 10
0.0
 20
0.0
 30
0.0
  0
INSERT
  5
AB6
  8
0
  2
DVI_FIGURE_00052
 10
0.0
 20
0.0
 30
0.0
  0
ENDSEC
  0
EOF
