  0
SECTION
  2
HEADER
  9
$ACADVER
  1
AC1006
  9
$DWGCODEPAGE
  3
ansi_1252
  9
$INSBASE
 10
0.0
 20
0.0
 30
0.0
  9
$EXTMIN
 10
125.44882582
 20
-6.7849772
  9
$EXTMAX
 10
602.40761134
 20
290.2150228
  9
$LIMMIN
 10
125.44882582
 20
-6.7849772
  9
$LIMMAX
 10
602.40761134
 20
290.2150228
  9
$ORTHOMODE
 70
     0
  9
$REGENMODE
 70
     1
  9
$FILLMODE
 70
     1
  9
$QTEXTMODE
 70
     0
  9
$MIRRTEXT
 70
     1
  9
$DRAGMODE
 70
     2
  9
$LTSCALE
 40
1.0
  9
$OSMODE
 70
    37
  9
$ATTMODE
 70
     1
  9
$TEXTSIZE
 40
1.0
  9
$TRACEWID
 40
0.05
  9
$TEXTSTYLE
  7
STANDARD
  9
$CLAYER
  8
0
  9
$CELTYPE
  6
BYBLOCK
  9
$CECOLOR
 62
   256
  9
$DIMSCALE
 40
1.0
  9
$DIMASZ
 40
0.18
  9
$DIMEXO
 40
0.0625
  9
$DIMDLI
 40
0.38
  9
$DIMRND
 40
0.0
  9
$DIMDLE
 40
0.0
  9
$DIMEXE
 40
0.18
  9
$DIMTP
 40
0.0
  9
$DIMTM
 40
0.0
  9
$DIMTXT
 40
0.18
  9
$DIMCEN
 40
0.09
  9
$DIMTSZ
 40
0.0
  9
$DIMTOL
 70
     0
  9
$DIMLIM
 70
     0
  9
$DIMTIH
 70
     1
  9
$DIMTOH
 70
     1
  9
$DIMSE1
 70
     0
  9
$DIMSE2
 70
     0
  9
$DIMTAD
 70
     0
  9
$DIMZIN
 70
     0
  9
$DIMBLK
  1

  9
$DIMASO
 70
     1
  9
$DIMSHO
 70
     1
  9
$DIMPOST
  1

  9
$DIMAPOST
  1

  9
$DIMALT
 70
     0
  9
$DIMALTD
 70
     2
  9
$DIMALTF
 40
25.4
  9
$DIMLFAC
 40
1.0
  9
$DIMTOFL
 70
     0
  9
$DIMTVP
 40
0.0
  9
$DIMTIX
 70
     0
  9
$DIMSOXD
 70
     0
  9
$DIMSAH
 70
     0
  9
$DIMBLK1
  1

  9
$DIMBLK2
  1

  9
$LUNITS
 70
     2
  9
$LUPREC
 70
     4
  9
$SKETCHINC
 40
0.1
  9
$FILLETRAD
 40
0.5
  9
$AUNITS
 70
     0
  9
$AUPREC
 70
     0
  9
$MENU
  1
.
  9
$ELEVATION
 40
0.0
  9
$THICKNESS
 40
0.0
  9
$LIMCHECK
 70
     0
  9
$CHAMFERA
 40
0.0
  9
$CHAMFERB
 40
0.0
  9
$SKPOLY
 70
     0
  9
$TDCREATE
 40
2447893.125
  9
$TDUPDATE
 40
2460791.47471419
  9
$TDINDWG
 40
0.0
  9
$TDUSRTIMER
 40
0.0
  9
$USRTIMER
 70
     1
  9
$ANGBASE
 50
0.0
  9
$ANGDIR
 70
     0
  9
$PDMODE
 70
     0
  9
$PDSIZE
 40
0.0
  9
$PLINEWID
 40
0.0
  9
$COORDS
 70
     1
  9
$SPLFRAME
 70
     0
  9
$SPLINETYPE
 70
     6
  9
$SPLINESEGS
 70
     8
  9
$ATTDIA
 70
     0
  9
$ATTREQ
 70
     1
  9
$HANDLING
 70
     1
  9
$HANDSEED
  5
B55
  9
$SURFTAB1
 70
     6
  9
$SURFTAB2
 70
     6
  9
$SURFTYPE
 70
     6
  9
$SURFU
 70
     6
  9
$SURFV
 70
     6
  9
$UCSNAME
  2

  9
$UCSORG
 10
0.0
 20
0.0
 30
0.0
  9
$UCSXDIR
 10
1.0
 20
0.0
 30
0.0
  9
$UCSYDIR
 10
0.0
 20
1.0
 30
0.0
  9
$USERI1
 70
     0
  9
$USERI2
 70
     0
  9
$USERI3
 70
     0
  9
$USERI4
 70
     0
  9
$USERI5
 70
     0
  9
$USERR1
 40
0.0
  9
$USERR2
 40
0.0
  9
$USERR3
 40
0.0
  9
$USERR4
 40
0.0
  9
$USERR5
 40
0.0
  9
$WORLDVIEW
 70
     1
  0
ENDSEC
  0
SECTION
  2
TABLES
  0
TABLE
  2
VPORT
 70
     1
  0
VPORT
  2
*ACTIVE
 70
     0
 10
0.0
 20
0.0
 11
1.0
 21
1.0
 12
363.92821858
 22
141.7150228
 13
0.0
 23
0.0
 14
1.0
 24
1.0
 15
0.0
 25
0.0
 16
0.0
 26
0.0
 36
1.0
 17
0.0
 27
0.0
 37
0.0
 40
297.0
 41
1.605921837
 42
50.0
 43
0.0
 44
0.0
 50
0.0
 51
0.0
 71
     0
 72
   100
 73
     1
 74
     1
 75
     0
 76
     0
 77
     0
 78
     0
  0
ENDTAB
  0
TABLE
  2
LTYPE
 70
    19
  0
LTYPE
  2
CONTINUOUS
 70
     0
  3
Solid line
 72
    65
 73
     0
 40
0.0
  0
LTYPE
  2
DOT
 70
     0
  3
..............
 72
    65
 73
     2
 40
2.0
 49
0.5
 49
-1.5
  0
LTYPE
  2
HIDDEN
 70
     0
  3
-- -- -- -- --
 72
    65
 73
     2
 40
7.0
 49
4.0
 49
-3.0
  0
LTYPE
  2
DASHDOT
 70
     0
  3
--.--.--.--.--
 72
    65
 73
     4
 40
8.5
 49
4.0
 49
-2.0
 49
0.5
 49
-2.0
  0
LTYPE
  2
STRICHPUNKT2
 70
     0
  3
--.--.--.--.--
 72
    65
 73
     4
 40
18.5
 49
10.0
 49
-4.0
 49
0.5
 49
-4.0
  0
LTYPE
  2
STRICHPUNKT3
 70
     0
  3
--.--.--.--.--
 72
    65
 73
     4
 40
35.5
 49
25.0
 49
-5.0
 49
0.5
 49
-5.0
  0
LTYPE
  2
PHANTOM
 70
     0
  3
--..--..--..--
 72
    65
 73
     6
 40
23.0
 49
10.0
 49
-4.0
 49
0.5
 49
-4.0
 49
0.5
 49
-4.0
  0
LTYPE
  2
PHANTOM2
 70
     0
  3
--..--..--..--
 72
    65
 73
     6
 40
33.0
 49
20.0
 49
-4.0
 49
0.5
 49
-4.0
 49
0.5
 49
-4.0
  0
LTYPE
  2
PHANTOM3
 70
     0
  3
--..--..--..--
 72
    65
 73
     6
 40
50.0
 49
37.0
 49
-4.0
 49
0.5
 49
-4.0
 49
0.5
 49
-4.0
  0
LTYPE
  2
STR3PKT
 70
     0
  3
--...--...--...
 72
    65
 73
     8
 40
31.5
 49
20.0
 49
-2.5
 49
0.5
 49
-2.5
 49
0.5
 49
-2.5
 49
0.5
 49
-2.5
  0
LTYPE
  2
2STRPKT
 70
     0
  3
--.--.--.--.--
 72
    65
 73
     6
 40
28.0
 49
10.0
 49
-2.5
 49
10.0
 49
-2.5
 49
0.5
 49
-2.5
  0
LTYPE
  2
GESTRICHELT2
 70
     0
  3
-- -- -- -- --
 72
    65
 73
     2
 40
25.0
 49
10.0
 49
-15.0
  0
LTYPE
  2
2STR2PKT
 70
     0
  3
--..--..--..--
 72
    65
 73
     8
 40
31.0
 49
10.0
 49
-2.5
 49
10.0
 49
-2.5
 49
0.5
 49
-2.5
 49
0.5
 49
-2.5
  0
LTYPE
  2
STR3PKT2
 70
     0
  3
--...--...--...
 72
    65
 73
     8
 40
21.0
 49
10.0
 49
-2.5
 49
0.5
 49
-2.5
 49
0.5
 49
-2.5
 49
0.5
 49
-2.0
  0
LTYPE
  2
2STR3PKT
 70
     0
  3
--...--...--...
 72
    65
 73
    10
 40
34.0
 49
10.0
 49
-2.5
 49
10.0
 49
-2.5
 49
0.5
 49
-2.5
 49
0.5
 49
-2.5
 49
0.5
 49
-2.5
  0
LTYPE
  2
STRKSTR
 70
     0
  3
-- - -- - -- -
 72
    65
 73
     4
 40
30.0
 49
20.0
 49
-2.5
 49
5.0
 49
-2.5
  0
LTYPE
  2
STRKSTR2
 70
     0
  3
-- - -- - -- -
 72
    65
 73
     6
 40
37.5
 49
20.0
 49
-2.5
 49
5.0
 49
-2.5
 49
5.0
 49
-2.5
  0
LTYPE
  2
STRKSTR3
 70
     0
  3
-- - -- - -- -
 72
    65
 73
     8
 40
45.0
 49
20.0
 49
-2.5
 49
5.0
 49
-2.5
 49
5.0
 49
-2.5
 49
5.0
 49
-2.5
  0
LTYPE
  2
PUNKT2
 70
     0
  3
..............
 72
    65
 73
     2
 40
3.5
 49
0.5
 49
-3.0
  0
ENDTAB
  0
TABLE
  2
LAYER
 70
    15
  0
LAYER
  2
0
 70
     0
 62
     7
  6
CONTINUOUS
  0
LAYER
  2
LE_GREEN
 70
     0
 62
     3
  6
CONTINUOUS
  0
LAYER
  2
LE_RED
 70
     0
 62
     1
  6
CONTINUOUS
  0
LAYER
  2
LE_ALL
 70
     0
 62
     7
  6
CONTINUOUS
  0
LAYER
  2
LE_HIDDEN1
 70
     0
 62
     3
  6
HIDDEN
  0
LAYER
  2
LE_HIDDEN
 70
     0
 62
     7
  6
CONTINUOUS
  0
LAYER
  2
LE_MIDDLE
 70
     0
 62
     7
  6
CONTINUOUS
  0
LAYER
  2
TXT_YELLOW
 70
     0
 62
     2
  6
CONTINUOUS
  0
LAYER
  2
TXT_DIM49
 70
     0
 62
     2
  6
CONTINUOUS
  0
LAYER
  2
TXT_ALL
 70
     0
 62
     7
  6
CONTINUOUS
  0
LAYER
  2
DIM49
 70
     0
 62
     4
  6
CONTINUOUS
  0
LAYER
  2
HATCH
 70
     0
 62
     3
  6
CONTINUOUS
  0
LAYER
  2
APPLE
 70
     0
 62
     7
  6
CONTINUOUS
  0
LAYER
  2
10
 70
     0
 62
     7
  6
CONTINUOUS
  0
LAYER
  2
49
 70
     0
 62
     7
  6
CONTINUOUS
  0
ENDTAB
  0
TABLE
  2
STYLE
 70
     5
  0
STYLE
  2
MONOTXT
 70
     0
 40
0.0
 41
1.0
 50
0.0
 71
     0
 42
1.0
  3
monotxt.shx
  4

  0
STYLE
  2
STANDARD
 70
     0
 40
0.0
 41
1.0
 50
0.0
 71
     0
 42
1.0
  3
txt
  4

  0
STYLE
  2
ARIAL
 70
     0
 40
0.0
 41
1.0
 50
0.0
 71
     0
 42
1.0
  3
arial.ttf
  4

  0
STYLE
  2
ARIAL_NARROW
 70
     0
 40
0.0
 41
1.0
 50
0.0
 71
     0
 42
1.0
  3
ArialN.ttf
  4

  0
STYLE
  2
ISOCPEUR
 70
     0
 40
0.0
 41
1.0
 50
0.0
 71
     0
 42
1.0
  3
ISOCPEUR.ttf
  4

  0
ENDTAB
  0
TABLE
  2
VIEW
 70
     0
  0
ENDTAB
  0
TABLE
  2
UCS
 70
     0
  0
ENDTAB
  0
ENDSEC
  0
SECTION
  2
BLOCKS
  0
BLOCK
  8
0
  2
_D1
 70
     0
 10
306.45522494
 20
237.38631511
 30
0.0
  0
TEXT
  5
9A6
  8
TXT_DIM49
 10
306.45522494
 20
237.38631511
 30
0.0
 40
2.5
  1
150
  7
ARIAL
  0
LINE
  5
9A7
  8
DIM49
 10
235.33497806
 20
236.88631511
 30
0.0
 11
233.33497806
 21
234.88631511
 31
0.0
  0
LINE
  5
9A8
  8
DIM49
 10
383.58497806
 20
235.13631511
 30
0.0
 11
385.08497806
 21
236.63631511
 31
0.0
  0
LINE
  5
9A9
  8
DIM49
 10
234.33497806
 20
235.88631511
 30
0.0
 11
384.33497806
 21
235.88631511
 31
0.0
  0
LINE
  5
9AA
  8
DIM49
 10
234.33497806
 20
237.88631511
 30
0.0
 11
234.33497806
 21
233.88631511
 31
0.0
  0
LINE
  5
9AB
  8
DIM49
 10
384.33497806
 20
237.88631511
 30
0.0
 11
384.33497806
 21
233.88631511
 31
0.0
  0
ENDBLK
  8
0
  0
BLOCK
  8
0
  2
_D2
 70
     0
 10
226.05717634
 20
281.54633915
 30
0.0
  0
TEXT
  5
9AE
  8
TXT_DIM49
 10
226.05717634
 20
281.54633915
 30
0.0
 40
2.5
  1
75
 50
90.00020741
  7
ARIAL
  0
LINE
  5
9AF
  8
DIM49
 10
228.55717634
 20
319.9661746
 30
0.0
 11
226.55717634
 21
321.9661746
 31
0.0
  0
LINE
  5
9B0
  8
DIM49
 10
226.80717634
 20
246.7161746
 30
0.0
 11
228.30717634
 21
245.2161746
 31
0.0
  0
LINE
  5
9B1
  8
DIM49
 10
227.55717634
 20
320.9661746
 30
0.0
 11
227.55717634
 21
245.9661746
 31
0.0
  0
LINE
  5
9B2
  8
DIM49
 10
229.55717634
 20
320.9661746
 30
0.0
 11
225.55717634
 21
320.9661746
 31
0.0
  0
LINE
  5
9B3
  8
DIM49
 10
229.55717634
 20
245.9661746
 30
0.0
 11
225.55717634
 21
245.9661746
 31
0.0
  0
ENDBLK
  8
0
  0
BLOCK
  8
0
  2
_D3
 70
     0
 10
391.05717634
 20
247.50625687
 30
0.0
  0
TEXT
  5
9B6
  8
TXT_DIM49
 10
391.05717634
 20
247.50625687
 30
0.0
 40
2.5
  1
5
 50
90.00020741
  7
ARIAL
  0
LINE
  5
9B7
  8
DIM49
 10
393.55717634
 20
249.9661746
 30
0.0
 11
391.55717634
 21
251.9661746
 31
0.0
  0
LINE
  5
9B8
  8
DIM49
 10
391.80717634
 20
246.7161746
 30
0.0
 11
393.30717634
 21
245.2161746
 31
0.0
  0
LINE
  5
9B9
  8
DIM49
 10
392.55717634
 20
250.9661746
 30
0.0
 11
392.55717634
 21
245.9661746
 31
0.0
  0
LINE
  5
9BA
  8
DIM49
 10
390.55717634
 20
250.9661746
 30
0.0
 11
394.55717634
 21
250.9661746
 31
0.0
  0
LINE
  5
9BB
  8
DIM49
 10
390.55717634
 20
245.9661746
 30
0.0
 11
394.55717634
 21
245.9661746
 31
0.0
  0
ENDBLK
  8
0
  0
BLOCK
  8
0
  2
_D4
 70
     0
 10
249.91514261
 20
227.3668735
 30
0.0
  0
TEXT
  5
9D2
  8
TXT_DIM49
 10
249.91514261
 20
227.3668735
 30
0.0
 40
2.5
  1
35
  7
ARIAL
  0
LINE
  5
9D3
  8
DIM49
 10
235.33497806
 20
226.8668735
 30
0.0
 11
233.33497806
 21
224.8668735
 31
0.0
  0
LINE
  5
9D4
  8
DIM49
 10
268.58497806
 20
225.1168735
 30
0.0
 11
270.08497806
 21
226.6168735
 31
0.0
  0
LINE
  5
9D5
  8
DIM49
 10
234.33497806
 20
225.8668735
 30
0.0
 11
269.33497806
 21
225.8668735
 31
0.0
  0
LINE
  5
9D6
  8
DIM49
 10
234.33497806
 20
223.8668735
 30
0.0
 11
234.33497806
 21
227.8668735
 31
0.0
  0
LINE
  5
9D7
  8
DIM49
 10
269.33497806
 20
223.8668735
 30
0.0
 11
269.33497806
 21
227.8668735
 31
0.0
  0
ENDBLK
  8
0
  0
BLOCK
  8
0
  2
_D5
 70
     0
 10
277.41514261
 20
227.3668735
 30
0.0
  0
TEXT
  5
9DA
  8
TXT_DIM49
 10
277.41514261
 20
227.3668735
 30
0.0
 40
2.5
  1
20
  7
ARIAL
  0
LINE
  5
9DB
  8
DIM49
 10
270.33497806
 20
226.8668735
 30
0.0
 11
268.33497806
 21
224.8668735
 31
0.0
  0
LINE
  5
9DC
  8
DIM49
 10
288.58497806
 20
225.1168735
 30
0.0
 11
290.08497806
 21
226.6168735
 31
0.0
  0
LINE
  5
9DD
  8
DIM49
 10
269.33497806
 20
225.8668735
 30
0.0
 11
289.33497806
 21
225.8668735
 31
0.0
  0
LINE
  5
9DE
  8
DIM49
 10
269.33497806
 20
223.8668735
 30
0.0
 11
269.33497806
 21
227.8668735
 31
0.0
  0
LINE
  5
9DF
  8
DIM49
 10
289.33497806
 20
223.8668735
 30
0.0
 11
289.33497806
 21
227.8668735
 31
0.0
  0
ENDBLK
  8
0
  0
BLOCK
  8
0
  2
_D6
 70
     0
 10
302.41514261
 20
227.3668735
 30
0.0
  0
TEXT
  5
9E2
  8
TXT_DIM49
 10
302.41514261
 20
227.3668735
 30
0.0
 40
2.5
  1
30
  7
ARIAL
  0
LINE
  5
9E3
  8
DIM49
 10
290.33497806
 20
226.8668735
 30
0.0
 11
288.33497806
 21
224.8668735
 31
0.0
  0
LINE
  5
9E4
  8
DIM49
 10
318.58497806
 20
225.1168735
 30
0.0
 11
320.08497806
 21
226.6168735
 31
0.0
  0
LINE
  5
9E5
  8
DIM49
 10
289.33497806
 20
225.8668735
 30
0.0
 11
319.33497806
 21
225.8668735
 31
0.0
  0
LINE
  5
9E6
  8
DIM49
 10
289.33497806
 20
223.8668735
 30
0.0
 11
289.33497806
 21
227.8668735
 31
0.0
  0
LINE
  5
9E7
  8
DIM49
 10
319.33497806
 20
223.8668735
 30
0.0
 11
319.33497806
 21
227.8668735
 31
0.0
  0
ENDBLK
  8
0
  0
BLOCK
  8
0
  2
_D7
 70
     0
 10
327.41514261
 20
227.3668735
 30
0.0
  0
TEXT
  5
9EA
  8
TXT_DIM49
 10
327.41514261
 20
227.3668735
 30
0.0
 40
2.5
  1
20
  7
ARIAL
  0
LINE
  5
9EB
  8
DIM49
 10
320.33497806
 20
226.8668735
 30
0.0
 11
318.33497806
 21
224.8668735
 31
0.0
  0
LINE
  5
9EC
  8
DIM49
 10
338.58497806
 20
225.1168735
 30
0.0
 11
340.08497806
 21
226.6168735
 31
0.0
  0
LINE
  5
9ED
  8
DIM49
 10
319.33497806
 20
225.8668735
 30
0.0
 11
339.33497806
 21
225.8668735
 31
0.0
  0
LINE
  5
9EE
  8
DIM49
 10
319.33497806
 20
223.8668735
 30
0.0
 11
319.33497806
 21
227.8668735
 31
0.0
  0
LINE
  5
9EF
  8
DIM49
 10
339.33497806
 20
223.8668735
 30
0.0
 11
339.33497806
 21
227.8668735
 31
0.0
  0
ENDBLK
  8
0
  0
BLOCK
  8
0
  2
_D8
 70
     0
 10
347.41514261
 20
227.3668735
 30
0.0
  0
TEXT
  5
9F2
  8
TXT_DIM49
 10
347.41514261
 20
227.3668735
 30
0.0
 40
2.5
  1
20
  7
ARIAL
  0
LINE
  5
9F3
  8
DIM49
 10
340.33497806
 20
226.8668735
 30
0.0
 11
338.33497806
 21
224.8668735
 31
0.0
  0
LINE
  5
9F4
  8
DIM49
 10
358.58497806
 20
225.1168735
 30
0.0
 11
360.08497806
 21
226.6168735
 31
0.0
  0
LINE
  5
9F5
  8
DIM49
 10
339.33497806
 20
225.8668735
 30
0.0
 11
359.33497806
 21
225.8668735
 31
0.0
  0
LINE
  5
9F6
  8
DIM49
 10
339.33497806
 20
223.8668735
 30
0.0
 11
339.33497806
 21
227.8668735
 31
0.0
  0
LINE
  5
9F7
  8
DIM49
 10
359.33497806
 20
223.8668735
 30
0.0
 11
359.33497806
 21
227.8668735
 31
0.0
  0
ENDBLK
  8
0
  0
BLOCK
  8
0
  2
_D9
 70
     0
 10
363.29014261
 20
227.3668735
 30
0.0
  0
TEXT
  5
9FA
  8
TXT_DIM49
 10
363.29014261
 20
227.3668735
 30
0.0
 40
2.5
  1
12
  7
ARIAL
  0
LINE
  5
9FB
  8
DIM49
 10
360.33497806
 20
226.8668735
 30
0.0
 11
358.33497806
 21
224.8668735
 31
0.0
  0
LINE
  5
9FC
  8
DIM49
 10
370.33497806
 20
225.1168735
 30
0.0
 11
371.83497806
 21
226.6168735
 31
0.0
  0
LINE
  5
9FD
  8
DIM49
 10
359.33497806
 20
225.8668735
 30
0.0
 11
371.08497806
 21
225.8668735
 31
0.0
  0
LINE
  5
9FE
  8
DIM49
 10
359.33497806
 20
223.8668735
 30
0.0
 11
359.33497806
 21
227.8668735
 31
0.0
  0
LINE
  5
9FF
  8
DIM49
 10
371.08497806
 20
223.8668735
 30
0.0
 11
371.08497806
 21
227.8668735
 31
0.0
  0
ENDBLK
  8
0
  0
BLOCK
  8
0
  2
_D10
 70
     0
 10
375.79014261
 20
227.3668735
 30
0.0
  0
TEXT
  5
A02
  8
TXT_DIM49
 10
375.79014261
 20
227.3668735
 30
0.0
 40
2.5
  1
13
  7
ARIAL
  0
LINE
  5
A03
  8
DIM49
 10
372.08497806
 20
226.8668735
 30
0.0
 11
370.08497806
 21
224.8668735
 31
0.0
  0
LINE
  5
A04
  8
DIM49
 10
383.58497806
 20
225.1168735
 30
0.0
 11
385.08497806
 21
226.6168735
 31
0.0
  0
LINE
  5
A05
  8
DIM49
 10
371.08497806
 20
225.8668735
 30
0.0
 11
384.33497806
 21
225.8668735
 31
0.0
  0
LINE
  5
A06
  8
DIM49
 10
371.08497806
 20
223.8668735
 30
0.0
 11
371.08497806
 21
227.8668735
 31
0.0
  0
LINE
  5
A07
  8
DIM49
 10
384.33497806
 20
223.8668735
 30
0.0
 11
384.33497806
 21
227.8668735
 31
0.0
  0
ENDBLK
  8
0
  0
BLOCK
  8
0
  2
_D11
 70
     0
 10
397.26282223
 20
178.00918138
 30
0.0
  0
TEXT
  5
A0A
  8
TXT_DIM49
 10
397.26282223
 20
178.00918138
 30
0.0
 40
2.5
  1
47
 50
90.00020741
  7
ARIAL
  0
LINE
  5
A0B
  8
DIM49
 10
399.76282223
 20
202.42901683
 30
0.0
 11
397.76282223
 21
204.42901683
 31
0.0
  0
LINE
  5
A0C
  8
DIM49
 10
398.01282223
 20
157.17901683
 30
0.0
 11
399.51282223
 21
155.67901683
 31
0.0
  0
LINE
  5
A0D
  8
DIM49
 10
398.76282223
 20
203.42901683
 30
0.0
 11
398.76282223
 21
156.42901683
 31
0.0
  0
LINE
  5
A0E
  8
DIM49
 10
396.76282223
 20
203.42901683
 30
0.0
 11
400.76282223
 21
203.42901683
 31
0.0
  0
LINE
  5
A0F
  8
DIM49
 10
396.76282223
 20
156.42901683
 30
0.0
 11
400.76282223
 21
156.42901683
 31
0.0
  0
ENDBLK
  8
0
  0
BLOCK
  8
0
  2
_D12
 70
     0
 10
298.60681929
 20
185.75918138
 30
0.0
  0
TEXT
  5
A12
  8
TXT_DIM49
 10
298.60681929
 20
185.75918138
 30
0.0
 40
2.5
  1
16
 50
90.00020741
  7
ARIAL
  0
LINE
  5
A13
  8
DIM49
 10
301.10681929
 20
194.42901683
 30
0.0
 11
299.10681929
 21
196.42901683
 31
0.0
  0
LINE
  5
A14
  8
DIM49
 10
299.35681929
 20
180.67901683
 30
0.0
 11
300.85681929
 21
179.17901683
 31
0.0
  0
LINE
  5
A15
  8
DIM49
 10
300.10681929
 20
195.42901683
 30
0.0
 11
300.10681929
 21
179.92901683
 31
0.0
  0
LINE
  5
A16
  8
DIM49
 10
298.10681929
 20
195.42901683
 30
0.0
 11
302.10681929
 21
195.42901683
 31
0.0
  0
LINE
  5
A17
  8
DIM49
 10
298.10681929
 20
179.92901683
 30
0.0
 11
302.10681929
 21
179.92901683
 31
0.0
  0
ENDBLK
  8
0
  0
BLOCK
  8
0
  2
_D13
 70
     0
 10
298.60681929
 20
170.25918138
 30
0.0
  0
TEXT
  5
A1A
  8
TXT_DIM49
 10
298.60681929
 20
170.25918138
 30
0.0
 40
2.5
  1
16
 50
90.00020741
  7
ARIAL
  0
LINE
  5
A1B
  8
DIM49
 10
301.10681929
 20
178.92901683
 30
0.0
 11
299.10681929
 21
180.92901683
 31
0.0
  0
LINE
  5
A1C
  8
DIM49
 10
299.35681929
 20
165.17901683
 30
0.0
 11
300.85681929
 21
163.67901683
 31
0.0
  0
LINE
  5
A1D
  8
DIM49
 10
300.10681929
 20
179.92901683
 30
0.0
 11
300.10681929
 21
164.42901683
 31
0.0
  0
LINE
  5
A1E
  8
DIM49
 10
298.10681929
 20
179.92901683
 30
0.0
 11
302.10681929
 21
179.92901683
 31
0.0
  0
LINE
  5
A1F
  8
DIM49
 10
298.10681929
 20
164.42901683
 30
0.0
 11
302.10681929
 21
164.42901683
 31
0.0
  0
ENDBLK
  8
0
  0
BLOCK
  8
0
  2
_D14
 70
     0
 10
254.33497806
 20
178.00918138
 30
0.0
  0
TEXT
  5
A26
  8
TXT_DIM49
 10
254.33497806
 20
178.00918138
 30
0.0
 40
2.5
  1
31
 50
90.00020741
  7
ARIAL
  0
LINE
  5
A27
  8
DIM49
 10
256.83497806
 20
194.42901683
 30
0.0
 11
254.83497806
 21
196.42901683
 31
0.0
  0
LINE
  5
A28
  8
DIM49
 10
255.08497806
 20
165.17901683
 30
0.0
 11
256.58497806
 21
163.67901683
 31
0.0
  0
LINE
  5
A29
  8
DIM49
 10
255.83497806
 20
195.42901683
 30
0.0
 11
255.83497806
 21
164.42901683
 31
0.0
  0
LINE
  5
A2A
  8
DIM49
 10
257.83497806
 20
195.42901683
 30
0.0
 11
253.83497806
 21
195.42901683
 31
0.0
  0
LINE
  5
A2B
  8
DIM49
 10
257.83497806
 20
164.42901683
 30
0.0
 11
253.83497806
 21
164.42901683
 31
0.0
  0
ENDBLK
  8
0
  0
BLOCK
  8
0
  2
_D15
 70
     0
 10
97.81833355
 20
311.04633915
 30
0.0
  0
TEXT
  5
A4C
  8
TXT_DIM49
 10
97.81833355
 20
311.04633915
 30
0.0
 40
2.5
  1
16
 50
90.00020741
  7
ARIAL
  0
LINE
  5
A4D
  8
DIM49
 10
100.31833355
 20
319.9661746
 30
0.0
 11
98.31833355
 21
321.9661746
 31
0.0
  0
LINE
  5
A4E
  8
DIM49
 10
98.56833355
 20
305.7161746
 30
0.0
 11
100.06833355
 21
304.2161746
 31
0.0
  0
LINE
  5
A4F
  8
DIM49
 10
99.31833355
 20
320.9661746
 30
0.0
 11
99.31833355
 21
304.9661746
 31
0.0
  0
LINE
  5
A50
  8
DIM49
 10
101.31833355
 20
320.9661746
 30
0.0
 11
97.31833355
 21
320.9661746
 31
0.0
  0
LINE
  5
A51
  8
DIM49
 10
101.31833355
 20
304.9661746
 30
0.0
 11
97.31833355
 21
304.9661746
 31
0.0
  0
ENDBLK
  8
0
  0
BLOCK
  8
0
  2
_D16
 70
     0
 10
97.81833355
 20
294.04633915
 30
0.0
  0
TEXT
  5
A54
  8
TXT_DIM49
 10
97.81833355
 20
294.04633915
 30
0.0
 40
2.5
  1
18
 50
90.00020741
  7
ARIAL
  0
LINE
  5
A55
  8
DIM49
 10
100.31833355
 20
303.9661746
 30
0.0
 11
98.31833355
 21
305.9661746
 31
0.0
  0
LINE
  5
A56
  8
DIM49
 10
98.56833355
 20
287.7161746
 30
0.0
 11
100.06833355
 21
286.2161746
 31
0.0
  0
LINE
  5
A57
  8
DIM49
 10
99.31833355
 20
304.9661746
 30
0.0
 11
99.31833355
 21
286.9661746
 31
0.0
  0
LINE
  5
A58
  8
DIM49
 10
101.31833355
 20
304.9661746
 30
0.0
 11
97.31833355
 21
304.9661746
 31
0.0
  0
LINE
  5
A59
  8
DIM49
 10
101.31833355
 20
286.9661746
 30
0.0
 11
97.31833355
 21
286.9661746
 31
0.0
  0
ENDBLK
  8
0
  0
BLOCK
  8
0
  2
_D17
 70
     0
 10
97.81833355
 20
276.04633915
 30
0.0
  0
TEXT
  5
A5C
  8
TXT_DIM49
 10
97.81833355
 20
276.04633915
 30
0.0
 40
2.5
  1
18
 50
90.00020741
  7
ARIAL
  0
LINE
  5
A5D
  8
DIM49
 10
100.31833355
 20
285.9661746
 30
0.0
 11
98.31833355
 21
287.9661746
 31
0.0
  0
LINE
  5
A5E
  8
DIM49
 10
98.56833355
 20
269.7161746
 30
0.0
 11
100.06833355
 21
268.2161746
 31
0.0
  0
LINE
  5
A5F
  8
DIM49
 10
99.31833355
 20
286.9661746
 30
0.0
 11
99.31833355
 21
268.9661746
 31
0.0
  0
LINE
  5
A60
  8
DIM49
 10
101.31833355
 20
286.9661746
 30
0.0
 11
97.31833355
 21
286.9661746
 31
0.0
  0
LINE
  5
A61
  8
DIM49
 10
101.31833355
 20
268.9661746
 30
0.0
 11
97.31833355
 21
268.9661746
 31
0.0
  0
ENDBLK
  8
0
  0
BLOCK
  8
0
  2
_D18
 70
     0
 10
97.81833355
 20
255.54633915
 30
0.0
  0
TEXT
  5
A64
  8
TXT_DIM49
 10
97.81833355
 20
255.54633915
 30
0.0
 40
2.5
  1
23
 50
90.00020741
  7
ARIAL
  0
LINE
  5
A65
  8
DIM49
 10
100.31833355
 20
267.9661746
 30
0.0
 11
98.31833355
 21
269.9661746
 31
0.0
  0
LINE
  5
A66
  8
DIM49
 10
98.56833355
 20
246.7161746
 30
0.0
 11
100.06833355
 21
245.2161746
 31
0.0
  0
LINE
  5
A67
  8
DIM49
 10
99.31833355
 20
268.9661746
 30
0.0
 11
99.31833355
 21
245.9661746
 31
0.0
  0
LINE
  5
A68
  8
DIM49
 10
101.31833355
 20
268.9661746
 30
0.0
 11
97.31833355
 21
268.9661746
 31
0.0
  0
LINE
  5
A69
  8
DIM49
 10
101.31833355
 20
245.9661746
 30
0.0
 11
97.31833355
 21
245.9661746
 31
0.0
  0
ENDBLK
  8
0
  0
BLOCK
  8
0
  2
_D19
 70
     0
 10
140.669245
 20
260.41274511
 30
0.0
  0
TEXT
  5
A74
  8
TXT_DIM49
 10
140.669245
 20
260.41274511
 30
0.0
 40
2.5
  1
31
  7
ARIAL
  0
LINE
  5
A75
  8
DIM49
 10
128.08908045
 20
259.91274511
 30
0.0
 11
126.08908045
 21
257.91274511
 31
0.0
  0
LINE
  5
A76
  8
DIM49
 10
157.33908045
 20
258.16274511
 30
0.0
 11
158.83908045
 21
259.66274511
 31
0.0
  0
LINE
  5
A77
  8
DIM49
 10
127.08908045
 20
258.91274511
 30
0.0
 11
158.08908045
 21
258.91274511
 31
0.0
  0
LINE
  5
A78
  8
DIM49
 10
127.08908045
 20
260.91274511
 30
0.0
 11
127.08908045
 21
256.91274511
 31
0.0
  0
LINE
  5
A79
  8
DIM49
 10
158.08908045
 20
260.91274511
 30
0.0
 11
158.08908045
 21
256.91274511
 31
0.0
  0
ENDBLK
  8
0
  0
BLOCK
  8
0
  2
_D20
 70
     0
 10
140.669245
 20
239.9661746
 30
0.0
  0
TEXT
  5
A7C
  8
TXT_DIM49
 10
140.669245
 20
239.9661746
 30
0.0
 40
2.5
  1
72
  7
ARIAL
  0
LINE
  5
A7D
  8
DIM49
 10
107.58908045
 20
239.4661746
 30
0.0
 11
105.58908045
 21
237.4661746
 31
0.0
  0
LINE
  5
A7E
  8
DIM49
 10
177.83908045
 20
237.7161746
 30
0.0
 11
179.33908045
 21
239.2161746
 31
0.0
  0
LINE
  5
A7F
  8
DIM49
 10
106.58908045
 20
238.4661746
 30
0.0
 11
178.58908045
 21
238.4661746
 31
0.0
  0
LINE
  5
A80
  8
DIM49
 10
106.58908045
 20
240.4661746
 30
0.0
 11
106.58908045
 21
236.4661746
 31
0.0
  0
LINE
  5
A81
  8
DIM49
 10
178.58908045
 20
240.4661746
 30
0.0
 11
178.58908045
 21
236.4661746
 31
0.0
  0
ENDBLK
  8
0
  0
BLOCK
  8
0
  2
_ZBL0001_00001
 70
     0
 10
0.0
 20
0.0
 30
0.0
  0
INSERT
  5
1AC
  8
0
  2
DINA3_VIETNAM_00002
 10
19.90849801
 20
65.08835091
 30
0.0
  0
ENDBLK
  8
0
  0
BLOCK
  8
0
  2
DINA3_VIETNAM_00002
 70
     0
 10
19.90849801
 20
65.08835091
 30
0.0
  0
POLYLINE
  5
1AF
  8
0
 66
     1
 10
0.0
 20
0.0
 30
0.0
 70
     1
  0
VERTEX
  5
1B0
  8
0
 10
19.90849801
 20
65.08835091
 30
0.0
  0
VERTEX
  5
1B1
  8
0
 10
439.90849801
 20
65.08835091
 30
0.0
  0
VERTEX
  5
1B2
  8
0
 10
439.90849801
 20
362.08835091
 30
0.0
  0
VERTEX
  5
1B3
  8
0
 10
19.90849801
 20
362.08835091
 30
0.0
  0
SEQEND
  5
1B4
  8
0
  0
POLYLINE
  5
1B5
  8
0
 66
     1
 10
0.0
 20
0.0
 30
0.0
 70
     1
  0
VERTEX
  5
1B6
  8
0
 10
24.90849801
 20
70.08835091
 30
0.0
  0
VERTEX
  5
1B7
  8
0
 10
434.90849801
 20
70.08835091
 30
0.0
  0
VERTEX
  5
1B8
  8
0
 10
434.90849801
 20
357.08835091
 30
0.0
  0
VERTEX
  5
1B9
  8
0
 10
24.90849801
 20
357.08835091
 30
0.0
  0
SEQEND
  5
1BA
  8
0
  0
LINE
  5
1BB
  8
0
 10
249.90849801
 20
70.08835091
 30
0.0
 11
249.90849801
 21
65.08835091
 31
0.0
  0
LINE
  5
1BC
  8
0
 10
249.90849801
 20
357.08835091
 30
0.0
 11
249.90849801
 21
362.08835091
 31
0.0
  0
LINE
  5
1BD
  8
0
 10
39.90849801
 20
70.08835091
 30
0.0
 11
39.90849801
 21
65.08835091
 31
0.0
  0
LINE
  5
1BE
  8
0
 10
39.90849801
 20
357.08835091
 30
0.0
 11
39.90849801
 21
362.08835091
 31
0.0
  0
TEXT
  5
1BF
  8
TXT_ALL
 62
     4
 10
438.90849801
 20
66.08835091
 30
0.0
 40
2.5
  1

 50
90.00020741
  0
POLYLINE
  5
1C0
  8
0
 66
     1
 10
0.0
 20
0.0
 30
0.0
  0
VERTEX
  5
1C1
  8
0
 10
434.90849801
 20
347.08835091
 30
0.0
  0
VERTEX
  5
1C2
  8
0
 10
365.91519801
 20
347.08835091
 30
0.0
  0
VERTEX
  5
1C3
  8
0
 10
365.91519801
 20
357.08835091
 30
0.0
  0
SEQEND
  5
1C4
  8
0
  0
LINE
  5
1C5
  8
0
 10
367.81849801
 20
89.58835091
 30
0.0
 11
227.92849801
 21
89.58835091
 31
0.0
  0
LINE
  5
1C6
  8
0
 10
227.92849801
 20
79.83835091
 30
0.0
 11
367.81849801
 21
79.83835091
 31
0.0
  0
POLYLINE
  5
1C7
  8
0
 66
     1
 10
0.0
 20
0.0
 30
0.0
  0
VERTEX
  5
1C8
  8
0
 10
227.92849801
 20
89.58835091
 30
0.0
  0
VERTEX
  5
1C9
  8
0
 10
227.92849801
 20
79.83835091
 30
0.0
  0
VERTEX
  5
1CA
  8
0
 10
227.92849801
 20
70.08835091
 30
0.0
  0
SEQEND
  5
1CB
  8
0
  0
POLYLINE
  5
1CC
  8
0
 66
     1
 10
0.0
 20
0.0
 30
0.0
  0
VERTEX
  5
1CD
  8
0
 10
297.87349801
 20
89.58835091
 30
0.0
  0
VERTEX
  5
1CE
  8
0
 10
297.87349801
 20
79.83835091
 30
0.0
  0
VERTEX
  5
1CF
  8
0
 10
297.87349801
 20
70.08835091
 30
0.0
  0
SEQEND
  5
1D0
  8
0
  0
INSERT
  5
1D1
  8
0
  2
FLEX_00003
 10
229.92849801
 20
84.71335091
 30
0.0
  0
INSERT
  5
1D2
  8
0
  2
FLEX_00005
 10
229.92849801
 20
74.96335091
 30
0.0
  0
INSERT
  5
1D3
  8
0
  2
FLEX_00007
 10
299.87349801
 20
74.96335091
 30
0.0
  0
INSERT
  5
1D4
  8
0
  2
FLEX_00009
 10
299.87349801
 20
84.71335091
 30
0.0
  0
INSERT
  5
1D5
  8
0
  2
SCHRIFE_00011
 10
28.35045826
 20
352.08835091
 30
0.0
  0
INSERT
  5
1D6
  8
0
  2
_B_M_P___00015
 10
416.75092408
 20
65.19835091
 30
0.0
  0
ENDBLK
  8
0
  0
BLOCK
  8
0
  2
FLEX_00003
 70
     0
 10
229.92849801
 20
84.71335091
 30
0.0
  0
INSERT
  5
1D9
  8
0
  2
TFIELD_00004
 10
229.92849801
 20
84.71335091
 30
0.0
  0
ENDBLK
  8
0
  0
BLOCK
  8
0
  2
TFIELD_00004
 70
     0
 10
229.92849801
 20
84.71335091
 30
0.0
  0
TEXT
  5
1DC
  8
TXT_ALL
 10
229.92849801
 20
83.41335096
 30
0.0
 40
2.5999999
  1
E-mail: verkoop@jonkers-bouwmetaal.nl
  7
ARIAL
  0
ENDBLK
  8
0
  0
BLOCK
  8
0
  2
FLEX_00005
 70
     0
 10
229.92849801
 20
74.96335091
 30
0.0
  0
INSERT
  5
1DF
  8
0
  2
TFIELD_00006
 10
229.92849801
 20
74.96335091
 30
0.0
  0
ENDBLK
  8
0
  0
BLOCK
  8
0
  2
TFIELD_00006
 70
     0
 10
229.92849801
 20
74.96335091
 30
0.0
  0
TEXT
  5
1E2
  8
TXT_ALL
 10
229.92849801
 20
73.66335096
 30
0.0
 40
2.5999999
  1
Telefoon: 0527-685156
  7
ARIAL
  0
ENDBLK
  8
0
  0
BLOCK
  8
0
  2
FLEX_00007
 70
     0
 10
299.87349801
 20
74.96335091
 30
0.0
  0
INSERT
  5
1E5
  8
0
  2
TFIELD_00008
 10
299.87349801
 20
74.96335091
 30
0.0
  0
ENDBLK
  8
0
  0
BLOCK
  8
0
  2
TFIELD_00008
 70
     0
 10
299.87349801
 20
74.96335091
 30
0.0
  0
TEXT
  5
1E8
  8
TXT_ALL
 10
299.87349801
 20
73.66335096
 30
0.0
 40
2.5999999
  1
Website: www.jonkers-bouwmetaal.nl
  7
ARIAL
  0
ENDBLK
  8
0
  0
BLOCK
  8
0
  2
FLEX_00009
 70
     0
 10
299.87349801
 20
84.71335091
 30
0.0
  0
INSERT
  5
1EB
  8
0
  2
TFIELD_00010
 10
299.87349801
 20
84.71335091
 30
0.0
  0
ENDBLK
  8
0
  0
BLOCK
  8
0
  2
TFIELD_00010
 70
     0
 10
299.87349801
 20
84.71335091
 30
0.0
  0
TEXT
  5
1EE
  8
TXT_ALL
 10
299.87349801
 20
83.41335096
 30
0.0
 40
2.5999999
  1
Adres: Hoornse Hop 10, 8321 WX Urk
  7
ARIAL
  0
ENDBLK
  8
0
  0
BLOCK
  8
0
  2
SCHRIFE_00011
 70
     0
 10
28.35045826
 20
352.08835091
 30
0.0
  0
TEXT
  5
1F1
  8
TXT_ALL
 10
28.35045826
 20
350.83835091
 30
0.0
 40
2.5
  1
Art. nr. 91012365
  7
ARIAL
  0
TEXT
  5
1F2
  8
TXT_ALL
 10
71.08849508
 20
350.83835091
 30
0.0
 40
2.5
  1
Omschrijving: HXL02-anker 150x75 72x5
  7
ARIAL
  0
LINE
  5
1F3
  8
0
 10
434.90849801
 20
347.08835091
 30
0.0
 11
24.90849801
 21
347.08835091
 31
0.0
  0
LINE
  5
1F4
  8
0
 10
67.92849801
 20
347.08835091
 30
0.0
 11
67.92849801
 21
357.08835091
 31
0.0
  0
LINE
  5
1F5
  8
0
 10
227.92849801
 20
347.08835091
 30
0.0
 11
227.92849801
 21
357.08835091
 31
0.0
  0
TEXT
  5
1F6
  8
TXT_ALL
 10
298.92219801
 20
350.83835091
 30
0.0
 40
2.5
  1
Behandeling: N.V.T.
  7
ARIAL
  0
LINE
  5
1F7
  8
0
 10
367.81849801
 20
89.58835091
 30
0.0
 11
434.90849801
 21
89.58835091
 31
0.0
  0
LINE
  5
1F8
  8
0
 10
367.81849801
 20
70.08835091
 30
0.0
 11
367.81849801
 21
89.58835091
 31
0.0
  0
LINE
  5
1F9
  8
0
 10
367.81849801
 20
70.08835091
 30
0.0
 11
367.81849801
 21
89.58835091
 31
0.0
  0
TEXT
  5
1FA
  8
TXT_ALL
 10
162.2736961
 20
71.24288432
 30
0.0
 40
2.5
  1

  0
TEXT
  5
1FB
  8
TXT_ALL
 10
283.40887906
 20
81.33835091
 30
0.0
 40
2.5
  1

  0
POLYLINE
  5
1FC
  8
0
 66
     1
 10
0.0
 20
0.0
 30
0.0
  0
VERTEX
  5
1FD
  8
0
 10
365.91519801
 20
347.08835091
 30
0.0
  0
VERTEX
  5
1FE
  8
0
 10
296.92219801
 20
347.08835091
 30
0.0
  0
VERTEX
  5
1FF
  8
0
 10
296.92219801
 20
357.08835091
 30
0.0
  0
SEQEND
  5
200
  8
0
  0
TEXT
  5
201
  8
TXT_ALL
 10
367.91519801
 20
350.83835091
 30
0.0
 40
2.5
  1
Verpakkingshoeveelheid: 25 st.
  7
ARIAL
  0
TEXT
  5
202
  8
TXT_ALL
 10
229.92849801
 20
350.83835091
 30
0.0
 40
2.5
  1
Materiaal: Sendzimir Verzinkt
  7
ARIAL
  0
INSERT
  5
203
  8
0
  2
FLEX_00012
 10
409.48373342
 20
66.08884106
 30
0.0
  0
INSERT
  5
204
  8
0
  2
_B_M_P___00014
 10
368.57786532
 20
70.88103297
 30
0.0
  0
ENDBLK
  8
0
  0
BLOCK
  8
0
  2
FLEX_00012
 70
     0
 10
409.48373342
 20
66.08884106
 30
0.0
  0
INSERT
  5
207
  8
0
  2
TFIELD_00013
 10
402.69014523
 20
67.58884106
 30
0.0
  0
ENDBLK
  8
0
  0
BLOCK
  8
0
  2
TFIELD_00013
 70
     0
 10
402.69014523
 20
67.58884106
 30
0.0
  0
TEXT
  5
20A
  8
TXT_ALL
 10
402.69014523
 20
66.83884106
 30
0.0
 40
1.5
  1
Onderdeel van
  7
ARIAL
  0
ENDBLK
  8
0
  0
BLOCK
  8
0
  2
_B_M_P___00014
 70
     0
 10
368.57786532
 20
70.88103297
 30
0.0
  0
ENDBLK
  8
0
  0
BLOCK
  8
0
  2
_B_M_P___00015
 70
     0
 10
416.75092408
 20
65.19835091
 30
0.0
  0
ENDBLK
  8
0
  0
BLOCK
  8
0
  2
_ANS0002_00016
 70
     0
 10
0.0
 20
0.0
 30
0.0
  0
INSERT
  5
211
  8
0
  2
_A3D0002_00017
 10
0.0
 20
0.0
 30
0.0
  0
ENDBLK
  8
0
  0
BLOCK
  8
0
  2
_A3D0002_00017
 70
     0
 10
0.0
 20
0.0
 30
0.0
  0
INSERT
  5
214
  8
0
  2
SVH03-ANKER_00018
 10
0.0
 20
0.0
 30
0.0
  0
ENDBLK
  8
0
  0
BLOCK
  8
0
  2
SVH03-ANKER_00018
 70
     0
 10
0.0
 20
0.0
 30
0.0
  0
INSERT
  5
217
  8
0
  2
1X_PLAAT_5MM-215_210X72_00
 10
0.0
 20
0.0
 30
0.0
  0
INSERT
  5
218
  8
0
  2
1X_BL_10X7_143X72_000_S235
 10
0.0
 20
0.0
 30
0.0
  0
INSERT
  5
219
  8
0
  2
1X_BL_10X7_143X72_000_S231
 10
0.0
 20
0.0
 30
0.0
  0
ENDBLK
  8
0
  0
BLOCK
  8
0
  2
1X_PLAAT_5MM-215_210X72_00
 70
     0
 10
0.0
 20
0.0
 30
0.0
  0
INSERT
  5
21C
  8
0
  2
1X_PLAAT_5MM-215_210X72_01
 10
234.33497806
 20
310.9661746
 30
0.0
  0
ENDBLK
  8
0
  0
BLOCK
  8
0
  2
1X_PLAAT_5MM-215_210X72_01
 70
     0
 10
234.33497806
 20
310.9661746
 30
0.0
  0
LINE
  5
21F
  8
0
 10
234.33497806
 20
310.9661746
 30
0.0
 11
239.33497806
 21
310.9661746
 31
0.0
  0
LINE
  5
220
  8
0
 10
239.33497806
 20
304.9661746
 30
0.0
 11
239.33497806
 21
310.9661746
 31
0.0
  0
LINE
  5
221
  8
0
 10
234.33497806
 20
304.9661746
 30
0.0
 11
239.33497806
 21
304.9661746
 31
0.0
  0
LINE
  5
222
  8
0
 10
234.33497806
 20
304.9661746
 30
0.0
 11
234.33497806
 21
310.9661746
 31
0.0
  0
LINE
  5
223
  8
0
 10
319.33497806
 20
245.9661746
 30
0.0
 11
319.33497806
 21
250.9661746
 31
0.0
  0
LINE
  5
224
  8
0
 10
239.33497806
 20
304.9661746
 30
0.0
 11
234.33497806
 21
304.9661746
 31
0.0
  0
LINE
  5
225
  8
0
 10
380.33497806
 20
250.9661746
 30
0.0
 11
374.33497806
 21
250.9661746
 31
0.0
  0
LINE
  5
226
  8
0
 10
380.33497806
 20
245.9661746
 30
0.0
 11
380.33497806
 21
250.9661746
 31
0.0
  0
LINE
  5
227
  8
0
 10
380.33497806
 20
245.9661746
 30
0.0
 11
374.33497806
 21
245.9661746
 31
0.0
  0
LINE
  5
228
  8
0
 10
384.33497806
 20
245.9661746
 30
0.0
 11
380.33497806
 21
245.9661746
 31
0.0
  0
POLYLINE
  5
229
  8
0
 66
     1
 10
0.0
 20
0.0
 30
0.0
  0
VERTEX
  5
22A
  8
0
 10
384.33497806
 20
245.9661746
 30
0.0
  0
VERTEX
  5
22B
  8
0
 10
384.33497806
 20
250.9661746
 30
0.0
  0
VERTEX
  5
22C
  8
0
 10
380.33497806
 20
250.9661746
 30
0.0
  0
SEQEND
  5
22D
  8
0
  0
LINE
  5
22E
  8
0
 10
234.33497806
 20
320.9661746
 30
0.0
 11
239.33497806
 21
320.9661746
 31
0.0
  0
LINE
  5
22F
  8
0
 10
239.33497806
 20
316.9661746
 30
0.0
 11
239.33497806
 21
320.9661746
 31
0.0
  0
LINE
  5
230
  8
0
 10
234.33497806
 20
316.9661746
 30
0.0
 11
239.33497806
 21
316.9661746
 31
0.0
  0
LINE
  5
231
  8
0
 10
234.33497806
 20
316.9661746
 30
0.0
 11
234.33497806
 21
320.9661746
 31
0.0
  0
LINE
  5
232
  8
0
 10
234.33497806
 20
310.9661746
 30
0.0
 11
234.33497806
 21
316.9661746
 31
0.0
  0
LINE
  5
233
  8
0
 10
239.33497806
 20
310.9661746
 30
0.0
 11
239.33497806
 21
316.9661746
 31
0.0
  0
POLYLINE
  5
234
  8
0
 66
     1
 10
0.0
 20
0.0
 30
0.0
  0
VERTEX
  5
235
  8
0
 10
244.33497806
 20
245.9661746
 30
0.0
  0
VERTEX
  5
236
  8
0
 10
243.55039045
 20
245.99703675
 30
0.0
  0
VERTEX
  5
237
  8
0
 10
242.77063515
 20
246.08930694
 30
0.0
  0
VERTEX
  5
238
  8
0
 10
242.00052884
 20
246.24249061
 30
0.0
  0
VERTEX
  5
239
  8
0
 10
241.2448186
 20
246.45564351
 30
0.0
  0
VERTEX
  5
23A
  8
0
 10
240.50814373
 20
246.72737927
 30
0.0
  0
VERTEX
  5
23B
  8
0
 10
239.79508974
 20
247.05614086
 30
0.0
  0
VERTEX
  5
23C
  8
0
 10
239.11000004
 20
247.43978684
 30
0.0
  0
VERTEX
  5
23D
  8
0
 10
238.45713544
 20
247.87601702
 30
0.0
  0
VERTEX
  5
23E
  8
0
 10
237.8405203
 20
248.36214241
 30
0.0
  0
VERTEX
  5
23F
  8
0
 10
237.26391024
 20
248.89510679
 30
0.0
  0
VERTEX
  5
240
  8
0
 10
239.22988999
 20
250.86108654
 30
0.0
  0
SEQEND
  5
241
  8
0
  0
LINE
  5
242
  8
0
 10
236.73094587
 20
249.47171684
 30
0.0
 11
237.26391024
 21
248.89510679
 31
0.0
  0
LINE
  5
243
  8
0
 10
236.24482048
 20
250.08833198
 30
0.0
 11
236.73094587
 21
249.47171684
 31
0.0
  0
LINE
  5
244
  8
0
 10
235.8085903
 20
250.74119658
 30
0.0
 11
236.24482048
 21
250.08833198
 31
0.0
  0
LINE
  5
245
  8
0
 10
235.42494432
 20
251.42628628
 30
0.0
 11
235.8085903
 21
250.74119658
 31
0.0
  0
LINE
  5
246
  8
0
 10
235.09618273
 20
252.13934027
 30
0.0
 11
235.42494432
 21
251.42628628
 31
0.0
  0
LINE
  5
247
  8
0
 10
234.82444697
 20
252.87601514
 30
0.0
 11
235.09618273
 21
252.13934027
 31
0.0
  0
LINE
  5
248
  8
0
 10
234.61129407
 20
253.63172538
 30
0.0
 11
234.82444697
 21
252.87601514
 31
0.0
  0
LINE
  5
249
  8
0
 10
234.4581104
 20
254.40183169
 30
0.0
 11
234.61129407
 21
253.63172538
 31
0.0
  0
POLYLINE
  5
24A
  8
0
 66
     1
 10
0.0
 20
0.0
 30
0.0
  0
VERTEX
  5
24B
  8
0
 10
234.4581104
 20
254.40183169
 30
0.0
  0
VERTEX
  5
24C
  8
0
 10
234.36584021
 20
255.181587
 30
0.0
  0
VERTEX
  5
24D
  8
0
 10
234.33497806
 20
255.9661746
 30
0.0
  0
SEQEND
  5
24E
  8
0
  0
POLYLINE
  5
24F
  8
0
 66
     1
 10
0.0
 20
0.0
 30
0.0
  0
VERTEX
  5
250
  8
0
 10
374.33497806
 20
245.9661746
 30
0.0
  0
VERTEX
  5
251
  8
0
 10
374.33497806
 20
250.9661746
 30
0.0
  0
VERTEX
  5
252
  8
0
 10
319.33497806
 20
250.9661746
 30
0.0
  0
SEQEND
  5
253
  8
0
  0
LINE
  5
254
  8
0
 10
319.33497806
 20
245.9661746
 30
0.0
 11
319.33497806
 21
250.9661746
 31
0.0
  0
LINE
  5
255
  8
0
 10
374.33497806
 20
245.9661746
 30
0.0
 11
319.33497806
 21
245.9661746
 31
0.0
  0
LINE
  5
256
  8
0
 10
244.33497806
 20
245.9661746
 30
0.0
 11
243.82446925
 21
245.99703675
 31
0.0
  0
LINE
  5
257
  8
0
 10
312.19212091
 20
245.9661746
 30
0.0
 11
244.33497806
 21
245.9661746
 31
0.0
  0
LINE
  5
258
  8
0
 10
243.31396044
 20
246.08930694
 30
0.0
 11
243.82446925
 21
245.99703675
 31
0.0
  0
POLYLINE
  5
259
  8
0
 66
     1
 10
0.0
 20
0.0
 30
0.0
  0
VERTEX
  5
25A
  8
0
 10
243.31396044
 20
246.08930694
 30
0.0
  0
VERTEX
  5
25B
  8
0
 10
242.80345164
 20
246.24249061
 30
0.0
  0
VERTEX
  5
25C
  8
0
 10
242.29294283
 20
246.45564351
 30
0.0
  0
SEQEND
  5
25D
  8
0
  0
LINE
  5
25E
  8
0
 10
241.78243403
 20
246.72737927
 30
0.0
 11
242.29294283
 21
246.45564351
 31
0.0
  0
LINE
  5
25F
  8
0
 10
241.27192522
 20
247.05614086
 30
0.0
 11
241.78243403
 21
246.72737927
 31
0.0
  0
LINE
  5
260
  8
0
 10
240.76141641
 20
247.43978684
 30
0.0
 11
241.27192522
 21
247.05614086
 31
0.0
  0
LINE
  5
261
  8
0
 10
240.25090761
 20
247.87601702
 30
0.0
 11
240.76141641
 21
247.43978684
 31
0.0
  0
LINE
  5
262
  8
0
 10
239.7403988
 20
248.36214241
 30
0.0
 11
240.25090761
 21
247.87601702
 31
0.0
  0
LINE
  5
263
  8
0
 10
239.22988999
 20
248.89510679
 30
0.0
 11
239.7403988
 21
248.36214241
 31
0.0
  0
LINE
  5
264
  8
0
 10
312.19212091
 20
248.89510679
 30
0.0
 11
239.22988999
 21
248.89510679
 31
0.0
  0
POLYLINE
  5
265
  8
0
 66
     1
 10
0.0
 20
0.0
 30
0.0
  0
VERTEX
  5
266
  8
0
 10
239.7403988
 20
249.47171684
 30
0.0
  0
VERTEX
  5
267
  8
0
 10
239.22988999
 20
248.89510679
 30
0.0
  0
VERTEX
  5
268
  8
0
 10
239.22988999
 20
250.86108654
 30
0.0
  0
SEQEND
  5
269
  8
0
  0
LINE
  5
26A
  8
0
 10
244.33497806
 20
255.9661746
 30
0.0
 11
243.55039045
 21
255.45566579
 31
0.0
  0
LINE
  5
26B
  8
0
 10
240.25090761
 20
250.08833198
 30
0.0
 11
239.7403988
 21
249.47171684
 31
0.0
  0
LINE
  5
26C
  8
0
 10
239.74040064
 20
251.37159534
 30
0.0
 11
239.22988999
 21
250.86108654
 31
0.0
  0
LINE
  5
26D
  8
0
 10
240.25088767
 20
251.88210415
 30
0.0
 11
239.74040064
 21
251.37159534
 31
0.0
  0
LINE
  5
26E
  8
0
 10
240.76139806
 20
252.39261295
 30
0.0
 11
240.25088767
 21
251.88210415
 31
0.0
  0
LINE
  5
26F
  8
0
 10
241.27192581
 20
252.90312176
 30
0.0
 11
240.76139806
 21
252.39261295
 31
0.0
  0
LINE
  5
270
  8
0
 10
241.78243466
 20
253.41363057
 30
0.0
 11
241.27192581
 21
252.90312176
 31
0.0
  0
LINE
  5
271
  8
0
 10
242.29295464
 20
253.92413937
 30
0.0
 11
241.78243466
 21
253.41363057
 31
0.0
  0
LINE
  5
272
  8
0
 10
242.803457
 20
254.43464818
 30
0.0
 11
242.29295464
 21
253.92413937
 31
0.0
  0
LINE
  5
273
  8
0
 10
243.31396
 20
254.94515699
 30
0.0
 11
242.803457
 21
254.43464818
 31
0.0
  0
LINE
  5
274
  8
0
 10
243.82446939
 20
255.45566579
 30
0.0
 11
243.31396
 21
254.94515699
 31
0.0
  0
POLYLINE
  5
275
  8
0
 66
     1
 10
0.0
 20
0.0
 30
0.0
  0
VERTEX
  5
276
  8
0
 10
245.33497806
 20
297.82331746
 30
0.0
  0
VERTEX
  5
277
  8
0
 10
246.33497806
 20
296.39474603
 30
0.0
  0
VERTEX
  5
278
  8
0
 10
246.33497806
 20
257.9661746
 30
0.0
  0
SEQEND
  5
279
  8
0
  0
LINE
  5
27A
  8
0
 10
309.33497806
 20
257.9661746
 30
0.0
 11
246.33497806
 21
257.9661746
 31
0.0
  0
LINE
  5
27B
  8
0
 10
309.33497806
 20
257.9661746
 30
0.0
 11
312.19212091
 21
255.9661746
 31
0.0
  0
LINE
  5
27C
  8
0
 10
240.76141641
 20
250.74119658
 30
0.0
 11
240.25090761
 21
250.08833198
 31
0.0
  0
LINE
  5
27D
  8
0
 10
241.27192522
 20
251.42628628
 30
0.0
 11
240.76141641
 21
250.74119658
 31
0.0
  0
LINE
  5
27E
  8
0
 10
241.78243403
 20
252.13934027
 30
0.0
 11
241.27192522
 21
251.42628628
 31
0.0
  0
LINE
  5
27F
  8
0
 10
242.29294283
 20
252.87601514
 30
0.0
 11
241.78243403
 21
252.13934027
 31
0.0
  0
LINE
  5
280
  8
0
 10
242.80345164
 20
253.63172538
 30
0.0
 11
242.29294283
 21
252.87601514
 31
0.0
  0
LINE
  5
281
  8
0
 10
243.31396044
 20
254.40183169
 30
0.0
 11
242.80345164
 21
253.63172538
 31
0.0
  0
LINE
  5
282
  8
0
 10
243.82446925
 20
255.181587
 30
0.0
 11
243.31396044
 21
254.40183169
 31
0.0
  0
LINE
  5
283
  8
0
 10
244.33497806
 20
255.9661746
 30
0.0
 11
243.82446925
 21
255.181587
 31
0.0
  0
LINE
  5
284
  8
0
 10
241.2448186
 20
253.92413937
 30
0.0
 11
240.50814373
 21
253.41363057
 31
0.0
  0
LINE
  5
285
  8
0
 10
242.00052884
 20
254.43464818
 30
0.0
 11
241.2448186
 21
253.92413937
 31
0.0
  0
LINE
  5
286
  8
0
 10
242.77063515
 20
254.94515699
 30
0.0
 11
242.00052884
 21
254.43464818
 31
0.0
  0
LINE
  5
287
  8
0
 10
243.55039045
 20
255.45566579
 30
0.0
 11
242.77063515
 21
254.94515699
 31
0.0
  0
LINE
  5
288
  8
0
 10
237.26391024
 20
250.86108654
 30
0.0
 11
239.22988999
 21
250.86108654
 31
0.0
  0
LINE
  5
289
  8
0
 10
237.8405203
 20
251.37159534
 30
0.0
 11
237.26391024
 21
250.86108654
 31
0.0
  0
LINE
  5
28A
  8
0
 10
238.45713544
 20
251.88210415
 30
0.0
 11
237.8405203
 21
251.37159534
 31
0.0
  0
LINE
  5
28B
  8
0
 10
239.11000004
 20
252.39261295
 30
0.0
 11
238.45713544
 21
251.88210415
 31
0.0
  0
LINE
  5
28C
  8
0
 10
239.79508974
 20
252.90312176
 30
0.0
 11
239.11000004
 21
252.39261295
 31
0.0
  0
LINE
  5
28D
  8
0
 10
240.50814373
 20
253.41363057
 30
0.0
 11
239.79508974
 21
252.90312176
 31
0.0
  0
POLYLINE
  5
28E
  8
0
 66
     1
 10
0.0
 20
0.0
 30
0.0
  0
VERTEX
  5
28F
  8
0
 10
237.26391024
 20
250.86108654
 30
0.0
  0
VERTEX
  5
290
  8
0
 10
236.73094587
 20
251.37159534
 30
0.0
  0
VERTEX
  5
291
  8
0
 10
236.24482048
 20
251.88210415
 30
0.0
  0
VERTEX
  5
292
  8
0
 10
235.8085903
 20
252.39261295
 30
0.0
  0
VERTEX
  5
293
  8
0
 10
235.42494432
 20
252.90312176
 30
0.0
  0
VERTEX
  5
294
  8
0
 10
235.09618273
 20
253.41363057
 30
0.0
  0
VERTEX
  5
295
  8
0
 10
234.82444697
 20
253.92413937
 30
0.0
  0
VERTEX
  5
296
  8
0
 10
234.61129407
 20
254.43464818
 30
0.0
  0
VERTEX
  5
297
  8
0
 10
234.4581104
 20
254.94515699
 30
0.0
  0
VERTEX
  5
298
  8
0
 10
234.36584021
 20
255.45566579
 30
0.0
  0
VERTEX
  5
299
  8
0
 10
234.33497806
 20
255.9661746
 30
0.0
  0
SEQEND
  5
29A
  8
0
  0
LINE
  5
29B
  8
0
 10
234.33497806
 20
304.9661746
 30
0.0
 11
234.33497806
 21
255.9661746
 31
0.0
  0
ENDBLK
  8
0
  0
BLOCK
  8
0
  2
1X_BL_10X7_143X72_000_S235
 70
     0
 10
0.0
 20
0.0
 30
0.0
  0
INSERT
  5
29E
  8
0
  2
1X_BL_10X7_143X72_000_S230
 10
235.33497806
 20
303.98439229
 30
0.0
  0
ENDBLK
  8
0
  0
BLOCK
  8
0
  2
1X_BL_10X7_143X72_000_S230
 70
     0
 10
235.33497806
 20
303.98439229
 30
0.0
  0
POLYLINE
  5
2A1
  8
0
 66
     1
 10
0.0
 20
0.0
 30
0.0
  0
VERTEX
  5
2A2
  8
0
 10
235.33497806
 20
303.98439229
 30
0.0
  0
VERTEX
  5
2A3
  8
0
 10
235.33497806
 20
304.9661746
 30
0.0
  0
VERTEX
  5
2A4
  8
0
 10
240.33497806
 20
304.9661746
 30
0.0
  0
VERTEX
  5
2A5
  8
0
 10
241.02222567
 20
303.98439229
 30
0.0
  0
SEQEND
  5
2A6
  8
0
  0
LINE
  5
2A7
  8
0
 10
235.33497806
 20
298.49290408
 30
0.0
 11
235.33497806
 21
303.98439229
 31
0.0
  0
POLYLINE
  5
2A8
  8
0
 66
     1
 10
0.0
 20
0.0
 30
0.0
  0
VERTEX
  5
2A9
  8
0
 10
241.02222567
 20
303.98439229
 30
0.0
  0
VERTEX
  5
2AA
  8
0
 10
244.86626742
 20
298.49290408
 30
0.0
  0
VERTEX
  5
2AB
  8
0
 10
245.33497806
 20
297.82331746
 30
0.0
  0
SEQEND
  5
2AC
  8
0
  0
LINE
  5
2AD
  8
0
 10
235.33497806
 20
297.82331746
 30
0.0
 11
235.33497806
 21
298.49290408
 31
0.0
  0
LINE
  5
2AE
  8
0
 10
245.33497806
 20
297.82331746
 30
0.0
 11
235.33497806
 21
297.82331746
 31
0.0
  0
ENDBLK
  8
0
  0
BLOCK
  8
0
  2
1X_BL_10X7_143X72_000_S231
 70
     0
 10
0.0
 20
0.0
 30
0.0
  0
INSERT
  5
2B1
  8
0
  2
1X_BL_10X7_143X72_000_S232
 10
318.35319575
 20
251.65342221
 30
0.0
  0
ENDBLK
  8
0
  0
BLOCK
  8
0
  2
1X_BL_10X7_143X72_000_S232
 70
     0
 10
318.35319575
 20
251.65342221
 30
0.0
  0
LINE
  5
2B4
  8
0
 10
318.35319575
 20
251.65342221
 30
0.0
 11
319.33497806
 21
250.9661746
 31
0.0
  0
POLYLINE
  5
2B5
  8
0
 66
     1
 10
0.0
 20
0.0
 30
0.0
  0
VERTEX
  5
2B6
  8
0
 10
318.35319575
 20
245.9661746
 30
0.0
  0
VERTEX
  5
2B7
  8
0
 10
319.33497806
 20
245.9661746
 30
0.0
  0
VERTEX
  5
2B8
  8
0
 10
319.33497806
 20
250.9661746
 30
0.0
  0
SEQEND
  5
2B9
  8
0
  0
LINE
  5
2BA
  8
0
 10
318.35319575
 20
245.9661746
 30
0.0
 11
312.86170754
 21
245.9661746
 31
0.0
  0
LINE
  5
2BB
  8
0
 10
312.86170754
 20
255.49746396
 30
0.0
 11
318.35319575
 21
251.65342221
 31
0.0
  0
LINE
  5
2BC
  8
0
 10
312.19212091
 20
255.9661746
 30
0.0
 11
312.86170754
 21
255.49746396
 31
0.0
  0
POLYLINE
  5
2BD
  8
0
 66
     1
 10
0.0
 20
0.0
 30
0.0
  0
VERTEX
  5
2BE
  8
0
 10
312.86170754
 20
245.9661746
 30
0.0
  0
VERTEX
  5
2BF
  8
0
 10
312.19212091
 20
245.9661746
 30
0.0
  0
VERTEX
  5
2C0
  8
0
 10
312.19212091
 20
255.9661746
 30
0.0
  0
SEQEND
  5
2C1
  8
0
  0
ENDBLK
  8
0
  0
BLOCK
  8
0
  2
_ANS0003_00025
 70
     0
 10
0.0
 20
0.0
 30
0.0
  0
INSERT
  5
2C4
  8
0
  2
_A3D0003_00026
 10
0.0
 20
0.0
 30
0.0
  0
ENDBLK
  8
0
  0
BLOCK
  8
0
  2
_A3D0003_00026
 70
     0
 10
0.0
 20
0.0
 30
0.0
  0
INSERT
  5
2C7
  8
0
  2
SVH03-ANKER_00027
 10
0.0
 20
0.0
 30
0.0
  0
ENDBLK
  8
0
  0
BLOCK
  8
0
  2
SVH03-ANKER_00027
 70
     0
 10
0.0
 20
0.0
 30
0.0
  0
INSERT
  5
2CA
  8
0
  2
1X_PLAAT_5MM-215_210X72_02
 10
0.0
 20
0.0
 30
0.0
  0
INSERT
  5
2CB
  8
0
  2
1X_BL_10X7_143X72_000_S233
 10
0.0
 20
0.0
 30
0.0
  0
ENDBLK
  8
0
  0
BLOCK
  8
0
  2
1X_PLAAT_5MM-215_210X72_02
 70
     0
 10
0.0
 20
0.0
 30
0.0
  0
INSERT
  5
2CE
  8
0
  2
1X_PLAAT_5MM-215_210X72_03
 10
239.33497806
 20
143.92901683
 30
0.0
  0
ENDBLK
  8
0
  0
BLOCK
  8
0
  2
1X_PLAAT_5MM-215_210X72_03
 70
     0
 10
239.33497806
 20
143.92901683
 30
0.0
  0
LINE
  5
2D1
  8
0
 10
239.33497806
 20
143.92901683
 30
0.0
 11
239.33497806
 21
146.92901683
 31
0.0
  0
LINE
  5
2D2
  8
0
 10
234.33497806
 20
143.92901683
 30
0.0
 11
239.33497806
 21
143.92901683
 31
0.0
  0
LINE
  5
2D3
  8
0
 10
234.33497806
 20
143.92901683
 30
0.0
 11
234.33497806
 21
146.92901683
 31
0.0
  0
LINE
  5
2D4
  8
0
 10
234.33497806
 20
215.92901683
 30
0.0
 11
239.33497806
 21
215.92901683
 31
0.0
  0
LINE
  5
2D5
  8
0
 10
239.33497806
 20
212.92901683
 30
0.0
 11
239.33497806
 21
215.92901683
 31
0.0
  0
LINE
  5
2D6
  8
0
 10
234.33497806
 20
212.92901683
 30
0.0
 11
234.33497806
 21
215.92901683
 31
0.0
  0
POLYLINE
  5
2D7
  8
0
 66
     1
 10
0.0
 20
0.0
 30
0.0
  0
VERTEX
  5
2D8
  8
0
 10
239.33497806
 20
200.92901683
 30
0.0
  0
VERTEX
  5
2D9
  8
0
 10
239.71558039
 20
202.84243399
 30
0.0
  0
VERTEX
  5
2DA
  8
0
 10
240.33497806
 20
203.92901683
 30
0.0
  0
VERTEX
  5
2DB
  8
0
 10
240.33497808
 20
210.09416822
 30
0.0
  0
VERTEX
  5
2DC
  8
0
 10
239.33497806
 20
209.58927086
 30
0.0
  0
SEQEND
  5
2DD
  8
0
  0
LINE
  5
2DE
  8
0
 10
240.50814373
 20
210.16781215
 30
0.0
 11
240.33497808
 21
210.09416822
 31
0.0
  0
LINE
  5
2DF
  8
0
 10
244.33497806
 20
210.92901683
 30
0.0
 11
240.50814373
 21
210.16781215
 31
0.0
  0
LINE
  5
2E0
  8
0
 10
246.33497806
 20
210.92901683
 30
0.0
 11
244.33497806
 21
210.92901683
 31
0.0
  0
LINE
  5
2E1
  8
0
 10
246.33497806
 20
205.92901683
 30
0.0
 11
246.33497806
 21
210.92901683
 31
0.0
  0
POLYLINE
  5
2E2
  8
0
 66
     1
 10
0.0
 20
0.0
 30
0.0
  0
VERTEX
  5
2E3
  8
0
 10
246.33497806
 20
205.92901683
 30
0.0
  0
VERTEX
  5
2E4
  8
0
 10
244.33497806
 20
205.92901683
 30
0.0
  0
VERTEX
  5
2E5
  8
0
 10
242.42156089
 20
205.54841449
 30
0.0
  0
SEQEND
  5
2E6
  8
0
  0
LINE
  5
2E7
  8
0
 10
240.79944415
 20
204.46455073
 30
0.0
 11
242.42156089
 21
205.54841449
 31
0.0
  0
LINE
  5
2E8
  8
0
 10
240.33497806
 20
203.92901683
 30
0.0
 11
240.79944415
 21
204.46455073
 31
0.0
  0
POLYLINE
  5
2E9
  8
0
 66
     1
 10
0.0
 20
0.0
 30
0.0
  0
VERTEX
  5
2EA
  8
0
 10
240.33497806
 20
155.92901683
 30
0.0
  0
VERTEX
  5
2EB
  8
0
 10
239.71558039
 20
157.01559966
 30
0.0
  0
VERTEX
  5
2EC
  8
0
 10
239.33497806
 20
158.92901683
 30
0.0
  0
SEQEND
  5
2ED
  8
0
  0
LINE
  5
2EE
  8
0
 10
240.33497808
 20
149.76386543
 30
0.0
 11
239.33497806
 21
150.26876279
 31
0.0
  0
POLYLINE
  5
2EF
  8
0
 66
     1
 10
0.0
 20
0.0
 30
0.0
  0
VERTEX
  5
2F0
  8
0
 10
240.33497808
 20
149.76386543
 30
0.0
  0
VERTEX
  5
2F1
  8
0
 10
240.33497806
 20
155.92901683
 30
0.0
  0
VERTEX
  5
2F2
  8
0
 10
240.79944415
 20
155.39348292
 30
0.0
  0
SEQEND
  5
2F3
  8
0
  0
LINE
  5
2F4
  8
0
 10
242.42156089
 20
154.30961916
 30
0.0
 11
240.79944415
 21
155.39348292
 31
0.0
  0
LINE
  5
2F5
  8
0
 10
244.33497806
 20
153.92901683
 30
0.0
 11
242.42156089
 21
154.30961916
 31
0.0
  0
LINE
  5
2F6
  8
0
 10
246.33497806
 20
153.92901683
 30
0.0
 11
244.33497806
 21
153.92901683
 31
0.0
  0
LINE
  5
2F7
  8
0
 10
246.33497806
 20
148.92901683
 30
0.0
 11
246.33497806
 21
153.92901683
 31
0.0
  0
LINE
  5
2F8
  8
0
 10
244.33497806
 20
148.92901683
 30
0.0
 11
246.33497806
 21
148.92901683
 31
0.0
  0
LINE
  5
2F9
  8
0
 10
240.50814373
 20
149.6902215
 30
0.0
 11
244.33497806
 21
148.92901683
 31
0.0
  0
LINE
  5
2FA
  8
0
 10
240.33497808
 20
149.76386543
 30
0.0
 11
240.50814373
 21
149.6902215
 31
0.0
  0
LINE
  5
2FB
  8
0
 10
234.33497806
 20
212.92901683
 30
0.0
 11
239.33497806
 21
212.92901683
 31
0.0
  0
LINE
  5
2FC
  8
0
 10
239.33497806
 20
206.92901683
 30
0.0
 11
239.33497806
 21
212.92901683
 31
0.0
  0
LINE
  5
2FD
  8
0
 10
234.33497806
 20
206.92901683
 30
0.0
 11
239.33497806
 21
206.92901683
 31
0.0
  0
LINE
  5
2FE
  8
0
 10
234.33497806
 20
206.92901683
 30
0.0
 11
234.33497806
 21
212.92901683
 31
0.0
  0
LINE
  5
2FF
  8
0
 10
234.33497806
 20
152.92901683
 30
0.0
 11
234.33497806
 21
206.92901683
 31
0.0
  0
POLYLINE
  5
300
  8
0
 66
     1
 10
0.0
 20
0.0
 30
0.0
  0
VERTEX
  5
301
  8
0
 10
234.33497806
 20
152.92901683
 30
0.0
  0
VERTEX
  5
302
  8
0
 10
239.33497806
 20
152.92901683
 30
0.0
  0
VERTEX
  5
303
  8
0
 10
239.33497806
 20
206.92901683
 30
0.0
  0
SEQEND
  5
304
  8
0
  0
LINE
  5
305
  8
0
 10
239.33497806
 20
146.92901683
 30
0.0
 11
239.33497806
 21
152.92901683
 31
0.0
  0
LINE
  5
306
  8
0
 10
234.33497806
 20
146.92901683
 30
0.0
 11
239.33497806
 21
146.92901683
 31
0.0
  0
LINE
  5
307
  8
0
 10
234.33497806
 20
146.92901683
 30
0.0
 11
234.33497806
 21
152.92901683
 31
0.0
  0
POLYLINE
  5
308
  8
0
 66
     1
 10
0.0
 20
0.0
 30
0.0
 70
     1
  0
VERTEX
  5
309
  8
0
 10
270.67437007
 20
192.19543846
 30
0.0
  0
VERTEX
  5
30A
  8
0
 10
269.33497806
 20
191.92901683
 30
0.0
  0
VERTEX
  5
30B
  8
0
 10
267.99558604
 20
192.19543846
 30
0.0
  0
VERTEX
  5
30C
  8
0
 10
266.86010432
 20
192.95414309
 30
0.0
  0
VERTEX
  5
30D
  8
0
 10
266.10139969
 20
194.08962481
 30
0.0
  0
VERTEX
  5
30E
  8
0
 10
265.83497806
 20
195.42901683
 30
0.0
  0
VERTEX
  5
30F
  8
0
 10
266.10139969
 20
196.76840884
 30
0.0
  0
VERTEX
  5
310
  8
0
 10
266.86010432
 20
197.90389056
 30
0.0
  0
VERTEX
  5
311
  8
0
 10
267.99558604
 20
198.66259519
 30
0.0
  0
VERTEX
  5
312
  8
0
 10
269.33497806
 20
198.92901683
 30
0.0
  0
VERTEX
  5
313
  8
0
 10
270.67437007
 20
198.66259519
 30
0.0
  0
VERTEX
  5
314
  8
0
 10
271.80985179
 20
197.90389056
 30
0.0
  0
VERTEX
  5
315
  8
0
 10
272.56855642
 20
196.76840884
 30
0.0
  0
VERTEX
  5
316
  8
0
 10
272.83497806
 20
195.42901683
 30
0.0
  0
VERTEX
  5
317
  8
0
 10
272.56855642
 20
194.08962481
 30
0.0
  0
VERTEX
  5
318
  8
0
 10
271.80985179
 20
192.95414309
 30
0.0
  0
SEQEND
  5
319
  8
0
  0
POLYLINE
  5
31A
  8
0
 66
     1
 10
0.0
 20
0.0
 30
0.0
 70
     1
  0
VERTEX
  5
31B
  8
0
 10
372.42437007
 20
153.19543846
 30
0.0
  0
VERTEX
  5
31C
  8
0
 10
371.08497806
 20
152.92901683
 30
0.0
  0
VERTEX
  5
31D
  8
0
 10
369.74558604
 20
153.19543846
 30
0.0
  0
VERTEX
  5
31E
  8
0
 10
368.61010432
 20
153.95414309
 30
0.0
  0
VERTEX
  5
31F
  8
0
 10
367.85139969
 20
155.08962481
 30
0.0
  0
VERTEX
  5
320
  8
0
 10
367.58497806
 20
156.42901683
 30
0.0
  0
VERTEX
  5
321
  8
0
 10
367.85139969
 20
157.76840884
 30
0.0
  0
VERTEX
  5
322
  8
0
 10
368.61010432
 20
158.90389056
 30
0.0
  0
VERTEX
  5
323
  8
0
 10
369.74558604
 20
159.66259519
 30
0.0
  0
VERTEX
  5
324
  8
0
 10
371.08497806
 20
159.92901683
 30
0.0
  0
VERTEX
  5
325
  8
0
 10
372.42437007
 20
159.66259519
 30
0.0
  0
VERTEX
  5
326
  8
0
 10
373.55985179
 20
158.90389056
 30
0.0
  0
VERTEX
  5
327
  8
0
 10
374.31855642
 20
157.76840884
 30
0.0
  0
VERTEX
  5
328
  8
0
 10
374.58497806
 20
156.42901683
 30
0.0
  0
VERTEX
  5
329
  8
0
 10
374.31855642
 20
155.08962481
 30
0.0
  0
VERTEX
  5
32A
  8
0
 10
373.55985179
 20
153.95414309
 30
0.0
  0
SEQEND
  5
32B
  8
0
  0
POLYLINE
  5
32C
  8
0
 66
     1
 10
0.0
 20
0.0
 30
0.0
 70
     1
  0
VERTEX
  5
32D
  8
0
 10
372.42437007
 20
200.19543846
 30
0.0
  0
VERTEX
  5
32E
  8
0
 10
371.08497806
 20
199.92901683
 30
0.0
  0
VERTEX
  5
32F
  8
0
 10
369.74558604
 20
200.19543846
 30
0.0
  0
VERTEX
  5
330
  8
0
 10
368.61010432
 20
200.95414309
 30
0.0
  0
VERTEX
  5
331
  8
0
 10
367.85139969
 20
202.08962481
 30
0.0
  0
VERTEX
  5
332
  8
0
 10
367.58497806
 20
203.42901683
 30
0.0
  0
VERTEX
  5
333
  8
0
 10
367.85139969
 20
204.76840884
 30
0.0
  0
VERTEX
  5
334
  8
0
 10
368.61010432
 20
205.90389056
 30
0.0
  0
VERTEX
  5
335
  8
0
 10
369.74558604
 20
206.66259519
 30
0.0
  0
VERTEX
  5
336
  8
0
 10
371.08497806
 20
206.92901683
 30
0.0
  0
VERTEX
  5
337
  8
0
 10
372.42437007
 20
206.66259519
 30
0.0
  0
VERTEX
  5
338
  8
0
 10
373.55985179
 20
205.90389056
 30
0.0
  0
VERTEX
  5
339
  8
0
 10
374.31855642
 20
204.76840884
 30
0.0
  0
VERTEX
  5
33A
  8
0
 10
374.58497806
 20
203.42901683
 30
0.0
  0
VERTEX
  5
33B
  8
0
 10
374.31855642
 20
202.08962481
 30
0.0
  0
VERTEX
  5
33C
  8
0
 10
373.55985179
 20
200.95414309
 30
0.0
  0
SEQEND
  5
33D
  8
0
  0
POLYLINE
  5
33E
  8
0
 66
     1
 10
0.0
 20
0.0
 30
0.0
 70
     1
  0
VERTEX
  5
33F
  8
0
 10
271.82242037
 20
173.92379986
 30
0.0
  0
VERTEX
  5
340
  8
0
 10
269.33497806
 20
173.42901683
 30
0.0
  0
VERTEX
  5
341
  8
0
 10
266.84753575
 20
173.92379986
 30
0.0
  0
VERTEX
  5
342
  8
0
 10
264.73878398
 20
175.33282275
 30
0.0
  0
VERTEX
  5
343
  8
0
 10
263.3297611
 20
177.44157452
 30
0.0
  0
VERTEX
  5
344
  8
0
 10
262.83497806
 20
179.92901683
 30
0.0
  0
VERTEX
  5
345
  8
0
 10
263.3297611
 20
182.41645914
 30
0.0
  0
VERTEX
  5
346
  8
0
 10
264.73878398
 20
184.5252109
 30
0.0
  0
VERTEX
  5
347
  8
0
 10
266.84753575
 20
185.93423379
 30
0.0
  0
VERTEX
  5
348
  8
0
 10
269.33497806
 20
186.42901683
 30
0.0
  0
VERTEX
  5
349
  8
0
 10
271.82242037
 20
185.93423379
 30
0.0
  0
VERTEX
  5
34A
  8
0
 10
273.93117213
 20
184.5252109
 30
0.0
  0
VERTEX
  5
34B
  8
0
 10
275.34019502
 20
182.41645914
 30
0.0
  0
VERTEX
  5
34C
  8
0
 10
275.83497806
 20
179.92901683
 30
0.0
  0
VERTEX
  5
34D
  8
0
 10
275.34019502
 20
177.44157452
 30
0.0
  0
VERTEX
  5
34E
  8
0
 10
273.93117213
 20
175.33282275
 30
0.0
  0
SEQEND
  5
34F
  8
0
  0
POLYLINE
  5
350
  8
0
 66
     1
 10
0.0
 20
0.0
 30
0.0
 70
     1
  0
VERTEX
  5
351
  8
0
 10
320.67437007
 20
161.19543846
 30
0.0
  0
VERTEX
  5
352
  8
0
 10
319.33497806
 20
160.92901683
 30
0.0
  0
VERTEX
  5
353
  8
0
 10
317.99558604
 20
161.19543846
 30
0.0
  0
VERTEX
  5
354
  8
0
 10
316.86010432
 20
161.95414309
 30
0.0
  0
VERTEX
  5
355
  8
0
 10
316.10139969
 20
163.08962481
 30
0.0
  0
VERTEX
  5
356
  8
0
 10
315.83497806
 20
164.42901683
 30
0.0
  0
VERTEX
  5
357
  8
0
 10
316.10139969
 20
165.76840884
 30
0.0
  0
VERTEX
  5
358
  8
0
 10
316.86010432
 20
166.90389056
 30
0.0
  0
VERTEX
  5
359
  8
0
 10
317.99558604
 20
167.66259519
 30
0.0
  0
VERTEX
  5
35A
  8
0
 10
319.33497806
 20
167.92901683
 30
0.0
  0
VERTEX
  5
35B
  8
0
 10
320.67437007
 20
167.66259519
 30
0.0
  0
VERTEX
  5
35C
  8
0
 10
321.80985179
 20
166.90389056
 30
0.0
  0
VERTEX
  5
35D
  8
0
 10
322.56855642
 20
165.76840884
 30
0.0
  0
VERTEX
  5
35E
  8
0
 10
322.83497806
 20
164.42901683
 30
0.0
  0
VERTEX
  5
35F
  8
0
 10
322.56855642
 20
163.08962481
 30
0.0
  0
VERTEX
  5
360
  8
0
 10
321.80985179
 20
161.95414309
 30
0.0
  0
SEQEND
  5
361
  8
0
  0
POLYLINE
  5
362
  8
0
 66
     1
 10
0.0
 20
0.0
 30
0.0
 70
     1
  0
VERTEX
  5
363
  8
0
 10
290.67437007
 20
161.19543846
 30
0.0
  0
VERTEX
  5
364
  8
0
 10
289.33497806
 20
160.92901683
 30
0.0
  0
VERTEX
  5
365
  8
0
 10
287.99558604
 20
161.19543846
 30
0.0
  0
VERTEX
  5
366
  8
0
 10
286.86010432
 20
161.95414309
 30
0.0
  0
VERTEX
  5
367
  8
0
 10
286.10139969
 20
163.08962481
 30
0.0
  0
VERTEX
  5
368
  8
0
 10
285.83497806
 20
164.42901683
 30
0.0
  0
VERTEX
  5
369
  8
0
 10
286.10139969
 20
165.76840884
 30
0.0
  0
VERTEX
  5
36A
  8
0
 10
286.86010432
 20
166.90389056
 30
0.0
  0
VERTEX
  5
36B
  8
0
 10
287.99558604
 20
167.66259519
 30
0.0
  0
VERTEX
  5
36C
  8
0
 10
289.33497806
 20
167.92901683
 30
0.0
  0
VERTEX
  5
36D
  8
0
 10
290.67437007
 20
167.66259519
 30
0.0
  0
VERTEX
  5
36E
  8
0
 10
291.80985179
 20
166.90389056
 30
0.0
  0
VERTEX
  5
36F
  8
0
 10
292.56855642
 20
165.76840884
 30
0.0
  0
VERTEX
  5
370
  8
0
 10
292.83497806
 20
164.42901683
 30
0.0
  0
VERTEX
  5
371
  8
0
 10
292.56855642
 20
163.08962481
 30
0.0
  0
VERTEX
  5
372
  8
0
 10
291.80985179
 20
161.95414309
 30
0.0
  0
SEQEND
  5
373
  8
0
  0
POLYLINE
  5
374
  8
0
 66
     1
 10
0.0
 20
0.0
 30
0.0
 70
     1
  0
VERTEX
  5
375
  8
0
 10
340.67437007
 20
192.19543846
 30
0.0
  0
VERTEX
  5
376
  8
0
 10
339.33497806
 20
191.92901683
 30
0.0
  0
VERTEX
  5
377
  8
0
 10
337.99558604
 20
192.19543846
 30
0.0
  0
VERTEX
  5
378
  8
0
 10
336.86010432
 20
192.95414309
 30
0.0
  0
VERTEX
  5
379
  8
0
 10
336.10139969
 20
194.08962481
 30
0.0
  0
VERTEX
  5
37A
  8
0
 10
335.83497806
 20
195.42901683
 30
0.0
  0
VERTEX
  5
37B
  8
0
 10
336.10139969
 20
196.76840884
 30
0.0
  0
VERTEX
  5
37C
  8
0
 10
336.86010432
 20
197.90389056
 30
0.0
  0
VERTEX
  5
37D
  8
0
 10
337.99558604
 20
198.66259519
 30
0.0
  0
VERTEX
  5
37E
  8
0
 10
339.33497806
 20
198.92901683
 30
0.0
  0
VERTEX
  5
37F
  8
0
 10
340.67437007
 20
198.66259519
 30
0.0
  0
VERTEX
  5
380
  8
0
 10
341.80985179
 20
197.90389056
 30
0.0
  0
VERTEX
  5
381
  8
0
 10
342.56855642
 20
196.76840884
 30
0.0
  0
VERTEX
  5
382
  8
0
 10
342.83497806
 20
195.42901683
 30
0.0
  0
VERTEX
  5
383
  8
0
 10
342.56855642
 20
194.08962481
 30
0.0
  0
VERTEX
  5
384
  8
0
 10
341.80985179
 20
192.95414309
 30
0.0
  0
SEQEND
  5
385
  8
0
  0
POLYLINE
  5
386
  8
0
 66
     1
 10
0.0
 20
0.0
 30
0.0
 70
     1
  0
VERTEX
  5
387
  8
0
 10
360.67437007
 20
161.19543846
 30
0.0
  0
VERTEX
  5
388
  8
0
 10
359.33497806
 20
160.92901683
 30
0.0
  0
VERTEX
  5
389
  8
0
 10
357.99558604
 20
161.19543846
 30
0.0
  0
VERTEX
  5
38A
  8
0
 10
356.86010432
 20
161.95414309
 30
0.0
  0
VERTEX
  5
38B
  8
0
 10
356.10139969
 20
163.08962481
 30
0.0
  0
VERTEX
  5
38C
  8
0
 10
355.83497806
 20
164.42901683
 30
0.0
  0
VERTEX
  5
38D
  8
0
 10
356.10139969
 20
165.76840884
 30
0.0
  0
VERTEX
  5
38E
  8
0
 10
356.86010432
 20
166.90389056
 30
0.0
  0
VERTEX
  5
38F
  8
0
 10
357.99558604
 20
167.66259519
 30
0.0
  0
VERTEX
  5
390
  8
0
 10
359.33497806
 20
167.92901683
 30
0.0
  0
VERTEX
  5
391
  8
0
 10
360.67437007
 20
167.66259519
 30
0.0
  0
VERTEX
  5
392
  8
0
 10
361.80985179
 20
166.90389056
 30
0.0
  0
VERTEX
  5
393
  8
0
 10
362.56855642
 20
165.76840884
 30
0.0
  0
VERTEX
  5
394
  8
0
 10
362.83497806
 20
164.42901683
 30
0.0
  0
VERTEX
  5
395
  8
0
 10
362.56855642
 20
163.08962481
 30
0.0
  0
VERTEX
  5
396
  8
0
 10
361.80985179
 20
161.95414309
 30
0.0
  0
SEQEND
  5
397
  8
0
  0
POLYLINE
  5
398
  8
0
 66
     1
 10
0.0
 20
0.0
 30
0.0
 70
     1
  0
VERTEX
  5
399
  8
0
 10
361.0570535
 20
191.27155893
 30
0.0
  0
VERTEX
  5
39A
  8
0
 10
359.33497806
 20
190.92901683
 30
0.0
  0
VERTEX
  5
39B
  8
0
 10
357.61290261
 20
191.27155893
 30
0.0
  0
VERTEX
  5
39C
  8
0
 10
356.15299754
 20
192.24703631
 30
0.0
  0
VERTEX
  5
39D
  8
0
 10
355.17752016
 20
193.70694138
 30
0.0
  0
VERTEX
  5
39E
  8
0
 10
354.83497806
 20
195.42901683
 30
0.0
  0
VERTEX
  5
39F
  8
0
 10
355.17752016
 20
197.15109227
 30
0.0
  0
VERTEX
  5
3A0
  8
0
 10
356.15299754
 20
198.61099734
 30
0.0
  0
VERTEX
  5
3A1
  8
0
 10
357.61290261
 20
199.58647472
 30
0.0
  0
VERTEX
  5
3A2
  8
0
 10
359.33497806
 20
199.92901683
 30
0.0
  0
VERTEX
  5
3A3
  8
0
 10
361.0570535
 20
199.58647472
 30
0.0
  0
VERTEX
  5
3A4
  8
0
 10
362.51695857
 20
198.61099734
 30
0.0
  0
VERTEX
  5
3A5
  8
0
 10
363.49243595
 20
197.15109227
 30
0.0
  0
VERTEX
  5
3A6
  8
0
 10
363.83497806
 20
195.42901683
 30
0.0
  0
VERTEX
  5
3A7
  8
0
 10
363.49243595
 20
193.70694138
 30
0.0
  0
VERTEX
  5
3A8
  8
0
 10
362.51695857
 20
192.24703631
 30
0.0
  0
SEQEND
  5
3A9
  8
0
  0
POLYLINE
  5
3AA
  8
0
 66
     1
 10
0.0
 20
0.0
 30
0.0
 70
     1
  0
VERTEX
  5
3AB
  8
0
 10
341.0570535
 20
160.27155893
 30
0.0
  0
VERTEX
  5
3AC
  8
0
 10
339.33497806
 20
159.92901683
 30
0.0
  0
VERTEX
  5
3AD
  8
0
 10
337.61290261
 20
160.27155893
 30
0.0
  0
VERTEX
  5
3AE
  8
0
 10
336.15299754
 20
161.24703631
 30
0.0
  0
VERTEX
  5
3AF
  8
0
 10
335.17752016
 20
162.70694138
 30
0.0
  0
VERTEX
  5
3B0
  8
0
 10
334.83497806
 20
164.42901683
 30
0.0
  0
VERTEX
  5
3B1
  8
0
 10
335.17752016
 20
166.15109227
 30
0.0
  0
VERTEX
  5
3B2
  8
0
 10
336.15299754
 20
167.61099734
 30
0.0
  0
VERTEX
  5
3B3
  8
0
 10
337.61290261
 20
168.58647472
 30
0.0
  0
VERTEX
  5
3B4
  8
0
 10
339.33497806
 20
168.92901683
 30
0.0
  0
VERTEX
  5
3B5
  8
0
 10
341.0570535
 20
168.58647472
 30
0.0
  0
VERTEX
  5
3B6
  8
0
 10
342.51695857
 20
167.61099734
 30
0.0
  0
VERTEX
  5
3B7
  8
0
 10
343.49243595
 20
166.15109227
 30
0.0
  0
VERTEX
  5
3B8
  8
0
 10
343.83497806
 20
164.42901683
 30
0.0
  0
VERTEX
  5
3B9
  8
0
 10
343.49243595
 20
162.70694138
 30
0.0
  0
VERTEX
  5
3BA
  8
0
 10
342.51695857
 20
161.24703631
 30
0.0
  0
SEQEND
  5
3BB
  8
0
  0
POLYLINE
  5
3BC
  8
0
 66
     1
 10
0.0
 20
0.0
 30
0.0
 70
     1
  0
VERTEX
  5
3BD
  8
0
 10
291.0570535
 20
191.27155893
 30
0.0
  0
VERTEX
  5
3BE
  8
0
 10
289.33497806
 20
190.92901683
 30
0.0
  0
VERTEX
  5
3BF
  8
0
 10
287.61290261
 20
191.27155893
 30
0.0
  0
VERTEX
  5
3C0
  8
0
 10
286.15299754
 20
192.24703631
 30
0.0
  0
VERTEX
  5
3C1
  8
0
 10
285.17752016
 20
193.70694138
 30
0.0
  0
VERTEX
  5
3C2
  8
0
 10
284.83497806
 20
195.42901683
 30
0.0
  0
VERTEX
  5
3C3
  8
0
 10
285.17752016
 20
197.15109227
 30
0.0
  0
VERTEX
  5
3C4
  8
0
 10
286.15299754
 20
198.61099734
 30
0.0
  0
VERTEX
  5
3C5
  8
0
 10
287.61290261
 20
199.58647472
 30
0.0
  0
VERTEX
  5
3C6
  8
0
 10
289.33497806
 20
199.92901683
 30
0.0
  0
VERTEX
  5
3C7
  8
0
 10
291.0570535
 20
199.58647472
 30
0.0
  0
VERTEX
  5
3C8
  8
0
 10
292.51695857
 20
198.61099734
 30
0.0
  0
VERTEX
  5
3C9
  8
0
 10
293.49243595
 20
197.15109227
 30
0.0
  0
VERTEX
  5
3CA
  8
0
 10
293.83497806
 20
195.42901683
 30
0.0
  0
VERTEX
  5
3CB
  8
0
 10
293.49243595
 20
193.70694138
 30
0.0
  0
VERTEX
  5
3CC
  8
0
 10
292.51695857
 20
192.24703631
 30
0.0
  0
SEQEND
  5
3CD
  8
0
  0
POLYLINE
  5
3CE
  8
0
 66
     1
 10
0.0
 20
0.0
 30
0.0
 70
     1
  0
VERTEX
  5
3CF
  8
0
 10
271.0570535
 20
160.27155893
 30
0.0
  0
VERTEX
  5
3D0
  8
0
 10
269.33497806
 20
159.92901683
 30
0.0
  0
VERTEX
  5
3D1
  8
0
 10
267.61290261
 20
160.27155893
 30
0.0
  0
VERTEX
  5
3D2
  8
0
 10
266.15299754
 20
161.24703631
 30
0.0
  0
VERTEX
  5
3D3
  8
0
 10
265.17752016
 20
162.70694138
 30
0.0
  0
VERTEX
  5
3D4
  8
0
 10
264.83497806
 20
164.42901683
 30
0.0
  0
VERTEX
  5
3D5
  8
0
 10
265.17752016
 20
166.15109227
 30
0.0
  0
VERTEX
  5
3D6
  8
0
 10
266.15299754
 20
167.61099734
 30
0.0
  0
VERTEX
  5
3D7
  8
0
 10
267.61290261
 20
168.58647472
 30
0.0
  0
VERTEX
  5
3D8
  8
0
 10
269.33497806
 20
168.92901683
 30
0.0
  0
VERTEX
  5
3D9
  8
0
 10
271.0570535
 20
168.58647472
 30
0.0
  0
VERTEX
  5
3DA
  8
0
 10
272.51695857
 20
167.61099734
 30
0.0
  0
VERTEX
  5
3DB
  8
0
 10
273.49243595
 20
166.15109227
 30
0.0
  0
VERTEX
  5
3DC
  8
0
 10
273.83497806
 20
164.42901683
 30
0.0
  0
VERTEX
  5
3DD
  8
0
 10
273.49243595
 20
162.70694138
 30
0.0
  0
VERTEX
  5
3DE
  8
0
 10
272.51695857
 20
161.24703631
 30
0.0
  0
SEQEND
  5
3DF
  8
0
  0
POLYLINE
  5
3E0
  8
0
 66
     1
 10
0.0
 20
0.0
 30
0.0
 70
     1
  0
VERTEX
  5
3E1
  8
0
 10
321.82242037
 20
173.92379986
 30
0.0
  0
VERTEX
  5
3E2
  8
0
 10
319.33497806
 20
173.42901683
 30
0.0
  0
VERTEX
  5
3E3
  8
0
 10
316.84753575
 20
173.92379986
 30
0.0
  0
VERTEX
  5
3E4
  8
0
 10
314.73878398
 20
175.33282275
 30
0.0
  0
VERTEX
  5
3E5
  8
0
 10
313.3297611
 20
177.44157452
 30
0.0
  0
VERTEX
  5
3E6
  8
0
 10
312.83497806
 20
179.92901683
 30
0.0
  0
VERTEX
  5
3E7
  8
0
 10
313.3297611
 20
182.41645914
 30
0.0
  0
VERTEX
  5
3E8
  8
0
 10
314.73878398
 20
184.5252109
 30
0.0
  0
VERTEX
  5
3E9
  8
0
 10
316.84753575
 20
185.93423379
 30
0.0
  0
VERTEX
  5
3EA
  8
0
 10
319.33497806
 20
186.42901683
 30
0.0
  0
VERTEX
  5
3EB
  8
0
 10
321.82242037
 20
185.93423379
 30
0.0
  0
VERTEX
  5
3EC
  8
0
 10
323.93117213
 20
184.5252109
 30
0.0
  0
VERTEX
  5
3ED
  8
0
 10
325.34019502
 20
182.41645914
 30
0.0
  0
VERTEX
  5
3EE
  8
0
 10
325.83497806
 20
179.92901683
 30
0.0
  0
VERTEX
  5
3EF
  8
0
 10
325.34019502
 20
177.44157452
 30
0.0
  0
VERTEX
  5
3F0
  8
0
 10
323.93117213
 20
175.33282275
 30
0.0
  0
SEQEND
  5
3F1
  8
0
  0
POLYLINE
  5
3F2
  8
0
 66
     1
 10
0.0
 20
0.0
 30
0.0
 70
     1
  0
VERTEX
  5
3F3
  8
0
 10
320.67437007
 20
192.19543846
 30
0.0
  0
VERTEX
  5
3F4
  8
0
 10
319.33497806
 20
191.92901683
 30
0.0
  0
VERTEX
  5
3F5
  8
0
 10
317.99558604
 20
192.19543846
 30
0.0
  0
VERTEX
  5
3F6
  8
0
 10
316.86010432
 20
192.95414309
 30
0.0
  0
VERTEX
  5
3F7
  8
0
 10
316.10139969
 20
194.08962481
 30
0.0
  0
VERTEX
  5
3F8
  8
0
 10
315.83497806
 20
195.42901683
 30
0.0
  0
VERTEX
  5
3F9
  8
0
 10
316.10139969
 20
196.76840884
 30
0.0
  0
VERTEX
  5
3FA
  8
0
 10
316.86010432
 20
197.90389056
 30
0.0
  0
VERTEX
  5
3FB
  8
0
 10
317.99558604
 20
198.66259519
 30
0.0
  0
VERTEX
  5
3FC
  8
0
 10
319.33497806
 20
198.92901683
 30
0.0
  0
VERTEX
  5
3FD
  8
0
 10
320.67437007
 20
198.66259519
 30
0.0
  0
VERTEX
  5
3FE
  8
0
 10
321.80985179
 20
197.90389056
 30
0.0
  0
VERTEX
  5
3FF
  8
0
 10
322.56855642
 20
196.76840884
 30
0.0
  0
VERTEX
  5
400
  8
0
 10
322.83497806
 20
195.42901683
 30
0.0
  0
VERTEX
  5
401
  8
0
 10
322.56855642
 20
194.08962481
 30
0.0
  0
VERTEX
  5
402
  8
0
 10
321.80985179
 20
192.95414309
 30
0.0
  0
SEQEND
  5
403
  8
0
  0
POLYLINE
  5
404
  8
0
 66
     1
 10
0.0
 20
0.0
 30
0.0
 70
     1
  0
VERTEX
  5
405
  8
0
 10
350.83497806
 20
186.42901683
 30
0.0
  0
VERTEX
  5
406
  8
0
 10
367.83497806
 20
186.42901683
 30
0.0
  0
VERTEX
  5
407
  8
0
 10
370.32242037
 20
185.93423379
 30
0.0
  0
VERTEX
  5
408
  8
0
 10
372.43117213
 20
184.5252109
 30
0.0
  0
VERTEX
  5
409
  8
0
 10
373.84019502
 20
182.41645914
 30
0.0
  0
VERTEX
  5
40A
  8
0
 10
374.33497806
 20
179.92901683
 30
0.0
  0
VERTEX
  5
40B
  8
0
 10
373.84019502
 20
177.44157452
 30
0.0
  0
VERTEX
  5
40C
  8
0
 10
372.43117213
 20
175.33282275
 30
0.0
  0
VERTEX
  5
40D
  8
0
 10
370.32242037
 20
173.92379986
 30
0.0
  0
VERTEX
  5
40E
  8
0
 10
367.83497806
 20
173.42901683
 30
0.0
  0
VERTEX
  5
40F
  8
0
 10
350.83497806
 20
173.42901683
 30
0.0
  0
VERTEX
  5
410
  8
0
 10
348.34753575
 20
173.92379986
 30
0.0
  0
VERTEX
  5
411
  8
0
 10
346.23878398
 20
175.33282275
 30
0.0
  0
VERTEX
  5
412
  8
0
 10
344.8297611
 20
177.44157452
 30
0.0
  0
VERTEX
  5
413
  8
0
 10
344.33497806
 20
179.92901683
 30
0.0
  0
VERTEX
  5
414
  8
0
 10
344.8297611
 20
182.41645914
 30
0.0
  0
VERTEX
  5
415
  8
0
 10
346.23878398
 20
184.5252109
 30
0.0
  0
VERTEX
  5
416
  8
0
 10
348.34753575
 20
185.93423379
 30
0.0
  0
SEQEND
  5
417
  8
0
  0
POLYLINE
  5
418
  8
0
 66
     1
 10
0.0
 20
0.0
 30
0.0
  0
VERTEX
  5
419
  8
0
 10
319.33497806
 20
158.92901683
 30
0.0
  0
VERTEX
  5
41A
  8
0
 10
318.79126043
 20
157.01559966
 30
0.0
  0
VERTEX
  5
41B
  8
0
 10
317.24288364
 20
155.39348292
 30
0.0
  0
VERTEX
  5
41C
  8
0
 10
314.925574
 20
154.30961916
 30
0.0
  0
VERTEX
  5
41D
  8
0
 10
312.19212091
 20
153.92901683
 30
0.0
  0
VERTEX
  5
41E
  8
0
 10
309.33497806
 20
153.92901683
 30
0.0
  0
VERTEX
  5
41F
  8
0
 10
309.33497806
 20
148.92901683
 30
0.0
  0
VERTEX
  5
420
  8
0
 10
312.19212091
 20
148.92901683
 30
0.0
  0
SEQEND
  5
421
  8
0
  0
LINE
  5
422
  8
0
 10
317.65902709
 20
149.6902215
 30
0.0
 11
312.19212091
 21
148.92901683
 31
0.0
  0
POLYLINE
  5
423
  8
0
 66
     1
 10
0.0
 20
0.0
 30
0.0
  0
VERTEX
  5
424
  8
0
 10
317.65902709
 20
149.6902215
 30
0.0
  0
VERTEX
  5
425
  8
0
 10
319.33497806
 20
150.26876279
 30
0.0
  0
VERTEX
  5
426
  8
0
 10
319.33497806
 20
158.92901683
 30
0.0
  0
SEQEND
  5
427
  8
0
  0
LINE
  5
428
  8
0
 10
242.42156089
 20
157.01559966
 30
0.0
 11
318.79126043
 21
157.01559966
 31
0.0
  0
LINE
  5
429
  8
0
 10
242.42156089
 20
157.01559966
 30
0.0
 11
241.33858612
 21
155.93262489
 31
0.0
  0
LINE
  5
42A
  8
0
 10
240.79944415
 20
156.83791794
 30
0.0
 11
240.79944415
 21
203.02011571
 31
0.0
  0
LINE
  5
42B
  8
0
 10
309.33497806
 20
205.92901683
 30
0.0
 11
312.19212091
 21
205.92901683
 31
0.0
  0
LINE
  5
42C
  8
0
 10
309.33497806
 20
210.92901683
 30
0.0
 11
309.33497806
 21
205.92901683
 31
0.0
  0
LINE
  5
42D
  8
0
 10
312.19212091
 20
210.92901683
 30
0.0
 11
309.33497806
 21
210.92901683
 31
0.0
  0
LINE
  5
42E
  8
0
 10
317.65902709
 20
210.16781215
 30
0.0
 11
312.19212091
 21
210.92901683
 31
0.0
  0
LINE
  5
42F
  8
0
 10
319.33497806
 20
209.58927086
 30
0.0
 11
317.65902709
 21
210.16781215
 31
0.0
  0
POLYLINE
  5
430
  8
0
 66
     1
 10
0.0
 20
0.0
 30
0.0
  0
VERTEX
  5
431
  8
0
 10
319.33497806
 20
209.58927086
 30
0.0
  0
VERTEX
  5
432
  8
0
 10
319.33497806
 20
215.92901683
 30
0.0
  0
VERTEX
  5
433
  8
0
 10
374.33497806
 20
215.92901683
 30
0.0
  0
VERTEX
  5
434
  8
0
 10
374.33497806
 20
212.92901683
 30
0.0
  0
VERTEX
  5
435
  8
0
 10
380.33497806
 20
212.92901683
 30
0.0
  0
VERTEX
  5
436
  8
0
 10
384.33497806
 20
206.92901683
 30
0.0
  0
VERTEX
  5
437
  8
0
 10
384.33497806
 20
152.92901683
 30
0.0
  0
VERTEX
  5
438
  8
0
 10
380.33497806
 20
146.92901683
 30
0.0
  0
VERTEX
  5
439
  8
0
 10
374.33497806
 20
146.92901683
 30
0.0
  0
VERTEX
  5
43A
  8
0
 10
374.33497806
 20
143.92901683
 30
0.0
  0
VERTEX
  5
43B
  8
0
 10
319.33497806
 20
143.92901683
 30
0.0
  0
VERTEX
  5
43C
  8
0
 10
319.33497806
 20
150.26876279
 30
0.0
  0
SEQEND
  5
43D
  8
0
  0
LINE
  5
43E
  8
0
 10
319.33497806
 20
209.58927086
 30
0.0
 11
319.33497806
 21
200.92901683
 31
0.0
  0
LINE
  5
43F
  8
0
 10
242.4215609
 20
202.84243399
 30
0.0
 11
241.33858612
 21
203.92540876
 31
0.0
  0
LINE
  5
440
  8
0
 10
317.24288364
 20
204.46455073
 30
0.0
 11
241.81021996
 21
204.46455073
 31
0.0
  0
LINE
  5
441
  8
0
 10
314.925574
 20
205.54841449
 30
0.0
 11
317.24288364
 21
204.46455073
 31
0.0
  0
POLYLINE
  5
442
  8
0
 66
     1
 10
0.0
 20
0.0
 30
0.0
  0
VERTEX
  5
443
  8
0
 10
312.19212091
 20
205.92901683
 30
0.0
  0
VERTEX
  5
444
  8
0
 10
314.925574
 20
205.54841449
 30
0.0
  0
VERTEX
  5
445
  8
0
 10
243.42898719
 20
205.54841449
 30
0.0
  0
SEQEND
  5
446
  8
0
  0
POLYLINE
  5
447
  8
0
 66
     1
 10
0.0
 20
0.0
 30
0.0
  0
VERTEX
  5
448
  8
0
 10
317.24288364
 20
204.46455073
 30
0.0
  0
VERTEX
  5
449
  8
0
 10
318.79126043
 20
202.84243399
 30
0.0
  0
VERTEX
  5
44A
  8
0
 10
319.33497806
 20
200.92901683
 30
0.0
  0
SEQEND
  5
44B
  8
0
  0
LINE
  5
44C
  8
0
 10
318.79126043
 20
202.84243399
 30
0.0
 11
242.4215609
 21
202.84243399
 31
0.0
  0
LINE
  5
44D
  8
0
 10
242.42156089
 20
157.01559966
 30
0.0
 11
242.4215609
 21
202.84243399
 31
0.0
  0
LINE
  5
44E
  8
0
 10
239.71558039
 20
158.92901683
 30
0.0
 11
239.71558039
 21
200.92901683
 31
0.0
  0
LINE
  5
44F
  8
0
 10
317.24288364
 20
155.39348292
 30
0.0
 11
241.81021996
 21
155.39348292
 31
0.0
  0
LINE
  5
450
  8
0
 10
314.925574
 20
154.30961916
 30
0.0
 11
243.42898719
 21
154.30961916
 31
0.0
  0
LINE
  5
451
  8
0
 10
309.33497806
 20
210.92901683
 30
0.0
 11
246.33497806
 21
210.92901683
 31
0.0
  0
LINE
  5
452
  8
0
 10
309.33497806
 20
205.92901683
 30
0.0
 11
246.33497806
 21
205.92901683
 31
0.0
  0
LINE
  5
453
  8
0
 10
309.33497806
 20
148.92901683
 30
0.0
 11
246.33497806
 21
148.92901683
 31
0.0
  0
LINE
  5
454
  8
0
 10
246.33497806
 20
153.92901683
 30
0.0
 11
309.33497806
 21
153.92901683
 31
0.0
  0
ENDBLK
  8
0
  0
BLOCK
  8
0
  2
1X_BL_10X7_143X72_000_S233
 70
     0
 10
0.0
 20
0.0
 30
0.0
  0
INSERT
  5
457
  8
0
  2
1X_BL_10X7_143X72_000_S234
 10
241.02222567
 20
214.85915369
 30
0.0
  0
ENDBLK
  8
0
  0
BLOCK
  8
0
  2
1X_BL_10X7_143X72_000_S234
 70
     0
 10
241.02222567
 20
214.85915369
 30
0.0
  0
POLYLINE
  5
45A
  8
0
 66
     1
 10
0.0
 20
0.0
 30
0.0
  0
VERTEX
  5
45B
  8
0
 10
241.02222567
 20
214.85915369
 30
0.0
  0
VERTEX
  5
45C
  8
0
 10
240.33497806
 20
215.92901683
 30
0.0
  0
VERTEX
  5
45D
  8
0
 10
240.33497806
 20
200.92901683
 30
0.0
  0
SEQEND
  5
45E
  8
0
  0
LINE
  5
45F
  8
0
 10
240.35804089
 20
201.40870056
 30
0.0
 11
240.33497806
 21
200.92901683
 31
0.0
  0
LINE
  5
460
  8
0
 10
240.43032078
 20
201.90078685
 30
0.0
 11
240.35804089
 21
201.40870056
 31
0.0
  0
POLYLINE
  5
461
  8
0
 66
     1
 10
0.0
 20
0.0
 30
0.0
  0
VERTEX
  5
462
  8
0
 10
240.43032078
 20
201.90078685
 30
0.0
  0
VERTEX
  5
463
  8
0
 10
240.55566183
 20
202.39807651
 30
0.0
  0
VERTEX
  5
464
  8
0
 10
240.73653329
 20
202.8922554
 30
0.0
  0
VERTEX
  5
465
  8
0
 10
240.97367596
 20
203.37422521
 30
0.0
  0
VERTEX
  5
466
  8
0
 10
241.26584788
 20
203.83455973
 30
0.0
  0
VERTEX
  5
467
  8
0
 10
241.3629401
 20
203.965942
 30
0.0
  0
VERTEX
  5
468
  8
0
 10
241.60971869
 20
204.26404946
 30
0.0
  0
VERTEX
  5
469
  8
0
 10
241.99994542
 20
204.65427619
 30
0.0
  0
VERTEX
  5
46A
  8
0
 10
242.42943515
 20
204.99814701
 30
0.0
  0
VERTEX
  5
46B
  8
0
 10
242.88976967
 20
205.29031892
 30
0.0
  0
VERTEX
  5
46C
  8
0
 10
243.25903785
 20
205.47769491
 30
0.0
  0
VERTEX
  5
46D
  8
0
 10
243.37173948
 20
205.5274616
 30
0.0
  0
VERTEX
  5
46E
  8
0
 10
243.86591837
 20
205.70833306
 30
0.0
  0
VERTEX
  5
46F
  8
0
 10
244.36320803
 20
205.8336741
 30
0.0
  0
VERTEX
  5
470
  8
0
 10
244.85529432
 20
205.90595399
 30
0.0
  0
VERTEX
  5
471
  8
0
 10
245.33497806
 20
205.92901683
 30
0.0
  0
VERTEX
  5
472
  8
0
 10
245.33497806
 20
210.92901683
 30
0.0
  0
VERTEX
  5
473
  8
0
 10
244.86626742
 20
211.18985857
 30
0.0
  0
VERTEX
  5
474
  8
0
 10
241.02222567
 20
214.85915369
 30
0.0
  0
SEQEND
  5
475
  8
0
  0
LINE
  5
476
  8
0
 10
243.37173948
 20
205.5274616
 30
0.0
 11
242.88976967
 21
205.29031892
 31
0.0
  0
LINE
  5
477
  8
0
 10
241.60971869
 20
204.26404946
 30
0.0
 11
241.26584788
 21
203.83455973
 31
0.0
  0
LINE
  5
478
  8
0
 10
239.33497806
 20
200.92901683
 30
0.0
 11
240.33497806
 21
200.92901683
 31
0.0
  0
LINE
  5
479
  8
0
 10
239.33497806
 20
215.92901683
 30
0.0
 11
240.33497806
 21
215.92901683
 31
0.0
  0
POLYLINE
  5
47A
  8
0
 66
     1
 10
0.0
 20
0.0
 30
0.0
  0
VERTEX
  5
47B
  8
0
 10
239.33497806
 20
143.92901683
 30
0.0
  0
VERTEX
  5
47C
  8
0
 10
240.33497806
 20
143.92901683
 30
0.0
  0
VERTEX
  5
47D
  8
0
 10
240.33497806
 20
158.92901683
 30
0.0
  0
SEQEND
  5
47E
  8
0
  0
LINE
  5
47F
  8
0
 10
239.33497806
 20
158.92901683
 30
0.0
 11
240.33497806
 21
158.92901683
 31
0.0
  0
LINE
  5
480
  8
0
 10
240.35804089
 20
158.44933309
 30
0.0
 11
240.33497806
 21
158.92901683
 31
0.0
  0
POLYLINE
  5
481
  8
0
 66
     1
 10
0.0
 20
0.0
 30
0.0
  0
VERTEX
  5
482
  8
0
 10
240.35804089
 20
158.44933309
 30
0.0
  0
VERTEX
  5
483
  8
0
 10
240.43032078
 20
157.9572468
 30
0.0
  0
VERTEX
  5
484
  8
0
 10
240.55566183
 20
157.45995714
 30
0.0
  0
VERTEX
  5
485
  8
0
 10
240.73653329
 20
156.96577825
 30
0.0
  0
VERTEX
  5
486
  8
0
 10
240.97367596
 20
156.48380844
 30
0.0
  0
VERTEX
  5
487
  8
0
 10
241.26584788
 20
156.02347392
 30
0.0
  0
VERTEX
  5
488
  8
0
 10
241.36294043
 20
155.89209122
 30
0.0
  0
SEQEND
  5
489
  8
0
  0
LINE
  5
48A
  8
0
 10
241.60971869
 20
155.59398419
 30
0.0
 11
241.36294043
 21
155.89209122
 31
0.0
  0
LINE
  5
48B
  8
0
 10
241.99994542
 20
155.20375746
 30
0.0
 11
241.60971869
 21
155.59398419
 31
0.0
  0
LINE
  5
48C
  8
0
 10
242.42943515
 20
154.85988665
 30
0.0
 11
241.99994542
 21
155.20375746
 31
0.0
  0
LINE
  5
48D
  8
0
 10
242.88976967
 20
154.56771473
 30
0.0
 11
242.42943515
 21
154.85988665
 31
0.0
  0
LINE
  5
48E
  8
0
 10
243.25903859
 20
154.3803384
 30
0.0
 11
242.88976967
 21
154.56771473
 31
0.0
  0
LINE
  5
48F
  8
0
 10
243.37173948
 20
154.33057206
 30
0.0
 11
243.25903859
 21
154.3803384
 31
0.0
  0
LINE
  5
490
  8
0
 10
243.86591837
 20
154.1497006
 30
0.0
 11
243.37173948
 21
154.33057206
 31
0.0
  0
LINE
  5
491
  8
0
 10
244.36320803
 20
154.02435955
 30
0.0
 11
243.86591837
 21
154.1497006
 31
0.0
  0
LINE
  5
492
  8
0
 10
244.85529432
 20
153.95207966
 30
0.0
 11
244.36320803
 21
154.02435955
 31
0.0
  0
LINE
  5
493
  8
0
 10
245.33497806
 20
153.92901683
 30
0.0
 11
244.85529432
 21
153.95207966
 31
0.0
  0
LINE
  5
494
  8
0
 10
245.33497806
 20
153.92901683
 30
0.0
 11
245.33497806
 21
148.92901683
 31
0.0
  0
LINE
  5
495
  8
0
 10
244.86626742
 20
148.66817508
 30
0.0
 11
245.33497806
 21
148.92901683
 31
0.0
  0
LINE
  5
496
  8
0
 10
241.02222567
 20
144.99887996
 30
0.0
 11
244.86626742
 21
148.66817508
 31
0.0
  0
LINE
  5
497
  8
0
 10
240.33497806
 20
143.92901683
 30
0.0
 11
241.02222567
 21
144.99887996
 31
0.0
  0
LINE
  5
498
  8
0
 10
243.37173948
 20
154.33057206
 30
0.0
 11
242.88976967
 21
154.56771473
 31
0.0
  0
LINE
  5
499
  8
0
 10
241.26584788
 20
156.02347392
 30
0.0
 11
241.60971869
 21
155.59398419
 31
0.0
  0
ENDBLK
  8
0
  0
BLOCK
  8
0
  2
_ANS0004_00032
 70
     0
 10
0.0
 20
0.0
 30
0.0
  0
INSERT
  5
49C
  8
0
  2
_A3D0004_00033
 10
0.0
 20
0.0
 30
0.0
  0
ENDBLK
  8
0
  0
BLOCK
  8
0
  2
_A3D0004_00033
 70
     0
 10
0.0
 20
0.0
 30
0.0
  0
INSERT
  5
49F
  8
0
  2
SVH03-ANKER_00034
 10
0.0
 20
0.0
 30
0.0
  0
ENDBLK
  8
0
  0
BLOCK
  8
0
  2
SVH03-ANKER_00034
 70
     0
 10
0.0
 20
0.0
 30
0.0
  0
INSERT
  5
4A2
  8
0
  2
1X_PLAAT_5MM-215_210X72_04
 10
0.0
 20
0.0
 30
0.0
  0
INSERT
  5
4A3
  8
0
  2
1X_BL_10X7_143X72_000_S236
 10
0.0
 20
0.0
 30
0.0
  0
INSERT
  5
4A4
  8
0
  2
1X_BL_10X7_143X72_000_S238
 10
0.0
 20
0.0
 30
0.0
  0
ENDBLK
  8
0
  0
BLOCK
  8
0
  2
1X_PLAAT_5MM-215_210X72_04
 70
     0
 10
0.0
 20
0.0
 30
0.0
  0
INSERT
  5
4A7
  8
0
  2
1X_PLAAT_5MM-215_210X72_05
 10
178.58908045
 20
245.9661746
 30
0.0
  0
ENDBLK
  8
0
  0
BLOCK
  8
0
  2
1X_PLAAT_5MM-215_210X72_05
 70
     0
 10
178.58908045
 20
245.9661746
 30
0.0
  0
LINE
  5
4AA
  8
0
 10
178.58908045
 20
245.9661746
 30
0.0
 11
178.58908045
 21
250.9661746
 31
0.0
  0
LINE
  5
4AB
  8
0
 10
106.58908045
 20
245.9661746
 30
0.0
 11
106.58908045
 21
250.9661746
 31
0.0
  0
LINE
  5
4AC
  8
0
 10
163.58908045
 20
245.9661746
 30
0.0
 11
164.37366805
 21
245.99703675
 31
0.0
  0
LINE
  5
4AD
  8
0
 10
165.15342336
 20
246.08930694
 30
0.0
 11
164.37366805
 21
245.99703675
 31
0.0
  0
POLYLINE
  5
4AE
  8
0
 66
     1
 10
0.0
 20
0.0
 30
0.0
  0
VERTEX
  5
4AF
  8
0
 10
165.15342336
 20
246.08930694
 30
0.0
  0
VERTEX
  5
4B0
  8
0
 10
165.92352967
 20
246.24249061
 30
0.0
  0
VERTEX
  5
4B1
  8
0
 10
166.67923991
 20
246.45564351
 30
0.0
  0
SEQEND
  5
4B2
  8
0
  0
LINE
  5
4B3
  8
0
 10
167.41591477
 20
246.72737927
 30
0.0
 11
166.67923991
 21
246.45564351
 31
0.0
  0
LINE
  5
4B4
  8
0
 10
168.12896876
 20
247.05614086
 30
0.0
 11
167.41591477
 21
246.72737927
 31
0.0
  0
LINE
  5
4B5
  8
0
 10
168.81405846
 20
247.43978684
 30
0.0
 11
168.12896876
 21
247.05614086
 31
0.0
  0
LINE
  5
4B6
  8
0
 10
169.46692307
 20
247.87601702
 30
0.0
 11
168.81405846
 21
247.43978684
 31
0.0
  0
LINE
  5
4B7
  8
0
 10
170.08353821
 20
248.36214241
 30
0.0
 11
169.46692307
 21
247.87601702
 31
0.0
  0
LINE
  5
4B8
  8
0
 10
170.66014826
 20
248.89510679
 30
0.0
 11
170.08353821
 21
248.36214241
 31
0.0
  0
LINE
  5
4B9
  8
0
 10
170.66014826
 20
248.89510679
 30
0.0
 11
168.69416851
 21
250.86108654
 31
0.0
  0
LINE
  5
4BA
  8
0
 10
171.19311264
 20
249.47171684
 30
0.0
 11
170.66014826
 21
248.89510679
 31
0.0
  0
LINE
  5
4BB
  8
0
 10
171.67923803
 20
250.08833198
 30
0.0
 11
171.19311264
 21
249.47171684
 31
0.0
  0
LINE
  5
4BC
  8
0
 10
172.11546821
 20
250.74119658
 30
0.0
 11
171.67923803
 21
250.08833198
 31
0.0
  0
LINE
  5
4BD
  8
0
 10
172.49911418
 20
251.42628628
 30
0.0
 11
172.11546821
 21
250.74119658
 31
0.0
  0
LINE
  5
4BE
  8
0
 10
172.82787577
 20
252.13934027
 30
0.0
 11
172.49911418
 21
251.42628628
 31
0.0
  0
LINE
  5
4BF
  8
0
 10
173.09961154
 20
252.87601514
 30
0.0
 11
172.82787577
 21
252.13934027
 31
0.0
  0
LINE
  5
4C0
  8
0
 10
173.31276444
 20
253.63172538
 30
0.0
 11
173.09961154
 21
252.87601514
 31
0.0
  0
LINE
  5
4C1
  8
0
 10
173.46594811
 20
254.40183169
 30
0.0
 11
173.31276444
 21
253.63172538
 31
0.0
  0
LINE
  5
4C2
  8
0
 10
173.55821829
 20
255.181587
 30
0.0
 11
173.46594811
 21
254.40183169
 31
0.0
  0
LINE
  5
4C3
  8
0
 10
173.58908045
 20
255.9661746
 30
0.0
 11
173.55821829
 21
255.181587
 31
0.0
  0
LINE
  5
4C4
  8
0
 10
117.76224612
 20
246.72737927
 30
0.0
 11
117.04919213
 21
247.05614086
 31
0.0
  0
LINE
  5
4C5
  8
0
 10
116.36410243
 20
247.43978684
 30
0.0
 11
117.04919213
 21
247.05614086
 31
0.0
  0
LINE
  5
4C6
  8
0
 10
115.71123783
 20
247.87601702
 30
0.0
 11
116.36410243
 21
247.43978684
 31
0.0
  0
LINE
  5
4C7
  8
0
 10
115.09462269
 20
248.36214241
 30
0.0
 11
115.71123783
 21
247.87601702
 31
0.0
  0
LINE
  5
4C8
  8
0
 10
114.51801264
 20
248.89510679
 30
0.0
 11
115.09462269
 21
248.36214241
 31
0.0
  0
LINE
  5
4C9
  8
0
 10
114.51801264
 20
248.89510679
 30
0.0
 11
116.48399239
 21
250.86108654
 31
0.0
  0
LINE
  5
4CA
  8
0
 10
113.98504826
 20
249.47171684
 30
0.0
 11
114.51801264
 21
248.89510679
 31
0.0
  0
LINE
  5
4CB
  8
0
 10
113.49892287
 20
250.08833198
 30
0.0
 11
113.98504826
 21
249.47171684
 31
0.0
  0
LINE
  5
4CC
  8
0
 10
113.06269269
 20
250.74119658
 30
0.0
 11
113.49892287
 21
250.08833198
 31
0.0
  0
LINE
  5
4CD
  8
0
 10
112.67904671
 20
251.42628628
 30
0.0
 11
113.06269269
 21
250.74119658
 31
0.0
  0
LINE
  5
4CE
  8
0
 10
112.35028512
 20
252.13934027
 30
0.0
 11
112.67904671
 21
251.42628628
 31
0.0
  0
LINE
  5
4CF
  8
0
 10
112.07854936
 20
252.87601514
 30
0.0
 11
112.35028512
 21
252.13934027
 31
0.0
  0
LINE
  5
4D0
  8
0
 10
111.86539646
 20
253.63172538
 30
0.0
 11
112.07854936
 21
252.87601514
 31
0.0
  0
LINE
  5
4D1
  8
0
 10
111.71221279
 20
254.40183169
 30
0.0
 11
111.86539646
 21
253.63172538
 31
0.0
  0
LINE
  5
4D2
  8
0
 10
111.6199426
 20
255.181587
 30
0.0
 11
111.71221279
 21
254.40183169
 31
0.0
  0
LINE
  5
4D3
  8
0
 10
111.6199426
 20
255.181587
 30
0.0
 11
111.58908045
 21
255.9661746
 31
0.0
  0
POLYLINE
  5
4D4
  8
0
 66
     1
 10
0.0
 20
0.0
 30
0.0
  0
VERTEX
  5
4D5
  8
0
 10
117.76224612
 20
246.72737927
 30
0.0
  0
VERTEX
  5
4D6
  8
0
 10
118.49892099
 20
246.45564351
 30
0.0
  0
VERTEX
  5
4D7
  8
0
 10
119.25463123
 20
246.24249061
 30
0.0
  0
VERTEX
  5
4D8
  8
0
 10
120.02473754
 20
246.08930694
 30
0.0
  0
VERTEX
  5
4D9
  8
0
 10
120.80449285
 20
245.99703675
 30
0.0
  0
VERTEX
  5
4DA
  8
0
 10
121.58908045
 20
245.9661746
 30
0.0
  0
SEQEND
  5
4DB
  8
0
  0
POLYLINE
  5
4DC
  8
0
 66
     1
 10
0.0
 20
0.0
 30
0.0
 70
     1
  0
VERTEX
  5
4DD
  8
0
 10
156.367005
 20
291.12363249
 30
0.0
  0
VERTEX
  5
4DE
  8
0
 10
158.08908045
 20
291.4661746
 30
0.0
  0
VERTEX
  5
4DF
  8
0
 10
159.81115589
 20
291.12363249
 30
0.0
  0
VERTEX
  5
4E0
  8
0
 10
161.27106096
 20
290.14815511
 30
0.0
  0
VERTEX
  5
4E1
  8
0
 10
162.24653834
 20
288.68825004
 30
0.0
  0
VERTEX
  5
4E2
  8
0
 10
162.58908045
 20
286.9661746
 30
0.0
  0
VERTEX
  5
4E3
  8
0
 10
162.24653834
 20
285.24409915
 30
0.0
  0
VERTEX
  5
4E4
  8
0
 10
161.27106096
 20
283.78419408
 30
0.0
  0
VERTEX
  5
4E5
  8
0
 10
159.81115589
 20
282.8087167
 30
0.0
  0
VERTEX
  5
4E6
  8
0
 10
158.08908045
 20
282.4661746
 30
0.0
  0
VERTEX
  5
4E7
  8
0
 10
156.367005
 20
282.8087167
 30
0.0
  0
VERTEX
  5
4E8
  8
0
 10
154.90709993
 20
283.78419408
 30
0.0
  0
VERTEX
  5
4E9
  8
0
 10
153.93162255
 20
285.24409915
 30
0.0
  0
VERTEX
  5
4EA
  8
0
 10
153.58908045
 20
286.9661746
 30
0.0
  0
VERTEX
  5
4EB
  8
0
 10
153.93162255
 20
288.68825004
 30
0.0
  0
VERTEX
  5
4EC
  8
0
 10
154.90709993
 20
290.14815511
 30
0.0
  0
SEQEND
  5
4ED
  8
0
  0
POLYLINE
  5
4EE
  8
0
 66
     1
 10
0.0
 20
0.0
 30
0.0
 70
     1
  0
VERTEX
  5
4EF
  8
0
 10
156.74968843
 20
308.19975296
 30
0.0
  0
VERTEX
  5
4F0
  8
0
 10
158.08908045
 20
308.4661746
 30
0.0
  0
VERTEX
  5
4F1
  8
0
 10
159.42847246
 20
308.19975296
 30
0.0
  0
VERTEX
  5
4F2
  8
0
 10
160.56395418
 20
307.44104833
 30
0.0
  0
VERTEX
  5
4F3
  8
0
 10
161.32265881
 20
306.30556661
 30
0.0
  0
VERTEX
  5
4F4
  8
0
 10
161.58908045
 20
304.9661746
 30
0.0
  0
VERTEX
  5
4F5
  8
0
 10
161.32265881
 20
303.62678258
 30
0.0
  0
VERTEX
  5
4F6
  8
0
 10
160.56395418
 20
302.49130086
 30
0.0
  0
VERTEX
  5
4F7
  8
0
 10
159.42847246
 20
301.73259623
 30
0.0
  0
VERTEX
  5
4F8
  8
0
 10
158.08908045
 20
301.4661746
 30
0.0
  0
VERTEX
  5
4F9
  8
0
 10
156.74968843
 20
301.73259623
 30
0.0
  0
VERTEX
  5
4FA
  8
0
 10
155.61420671
 20
302.49130086
 30
0.0
  0
VERTEX
  5
4FB
  8
0
 10
154.85550208
 20
303.62678258
 30
0.0
  0
VERTEX
  5
4FC
  8
0
 10
154.58908045
 20
304.9661746
 30
0.0
  0
VERTEX
  5
4FD
  8
0
 10
154.85550208
 20
306.30556661
 30
0.0
  0
VERTEX
  5
4FE
  8
0
 10
155.61420671
 20
307.44104833
 30
0.0
  0
SEQEND
  5
4FF
  8
0
  0
POLYLINE
  5
500
  8
0
 66
     1
 10
0.0
 20
0.0
 30
0.0
 70
     1
  0
VERTEX
  5
501
  8
0
 10
125.74968843
 20
290.19975296
 30
0.0
  0
VERTEX
  5
502
  8
0
 10
127.08908045
 20
290.4661746
 30
0.0
  0
VERTEX
  5
503
  8
0
 10
128.42847246
 20
290.19975296
 30
0.0
  0
VERTEX
  5
504
  8
0
 10
129.56395418
 20
289.44104833
 30
0.0
  0
VERTEX
  5
505
  8
0
 10
130.32265881
 20
288.30556661
 30
0.0
  0
VERTEX
  5
506
  8
0
 10
130.58908045
 20
286.9661746
 30
0.0
  0
VERTEX
  5
507
  8
0
 10
130.32265881
 20
285.62678258
 30
0.0
  0
VERTEX
  5
508
  8
0
 10
129.56395418
 20
284.49130086
 30
0.0
  0
VERTEX
  5
509
  8
0
 10
128.42847246
 20
283.73259623
 30
0.0
  0
VERTEX
  5
50A
  8
0
 10
127.08908045
 20
283.4661746
 30
0.0
  0
VERTEX
  5
50B
  8
0
 10
125.74968843
 20
283.73259623
 30
0.0
  0
VERTEX
  5
50C
  8
0
 10
124.61420671
 20
284.49130086
 30
0.0
  0
VERTEX
  5
50D
  8
0
 10
123.85550208
 20
285.62678258
 30
0.0
  0
VERTEX
  5
50E
  8
0
 10
123.58908045
 20
286.9661746
 30
0.0
  0
VERTEX
  5
50F
  8
0
 10
123.85550208
 20
288.30556661
 30
0.0
  0
VERTEX
  5
510
  8
0
 10
124.61420671
 20
289.44104833
 30
0.0
  0
SEQEND
  5
511
  8
0
  0
POLYLINE
  5
512
  8
0
 66
     1
 10
0.0
 20
0.0
 30
0.0
 70
     1
  0
VERTEX
  5
513
  8
0
 10
156.74968843
 20
272.19975296
 30
0.0
  0
VERTEX
  5
514
  8
0
 10
158.08908045
 20
272.4661746
 30
0.0
  0
VERTEX
  5
515
  8
0
 10
159.42847246
 20
272.19975296
 30
0.0
  0
VERTEX
  5
516
  8
0
 10
160.56395418
 20
271.44104833
 30
0.0
  0
VERTEX
  5
517
  8
0
 10
161.32265881
 20
270.30556661
 30
0.0
  0
VERTEX
  5
518
  8
0
 10
161.58908045
 20
268.9661746
 30
0.0
  0
VERTEX
  5
519
  8
0
 10
161.32265881
 20
267.62678258
 30
0.0
  0
VERTEX
  5
51A
  8
0
 10
160.56395418
 20
266.49130086
 30
0.0
  0
VERTEX
  5
51B
  8
0
 10
159.42847246
 20
265.73259623
 30
0.0
  0
VERTEX
  5
51C
  8
0
 10
158.08908045
 20
265.4661746
 30
0.0
  0
VERTEX
  5
51D
  8
0
 10
156.74968843
 20
265.73259623
 30
0.0
  0
VERTEX
  5
51E
  8
0
 10
155.61420671
 20
266.49130086
 30
0.0
  0
VERTEX
  5
51F
  8
0
 10
154.85550208
 20
267.62678258
 30
0.0
  0
VERTEX
  5
520
  8
0
 10
154.58908045
 20
268.9661746
 30
0.0
  0
VERTEX
  5
521
  8
0
 10
154.85550208
 20
270.30556661
 30
0.0
  0
VERTEX
  5
522
  8
0
 10
155.61420671
 20
271.44104833
 30
0.0
  0
SEQEND
  5
523
  8
0
  0
POLYLINE
  5
524
  8
0
 66
     1
 10
0.0
 20
0.0
 30
0.0
 70
     1
  0
VERTEX
  5
525
  8
0
 10
125.367005
 20
309.12363249
 30
0.0
  0
VERTEX
  5
526
  8
0
 10
127.08908045
 20
309.4661746
 30
0.0
  0
VERTEX
  5
527
  8
0
 10
128.81115589
 20
309.12363249
 30
0.0
  0
VERTEX
  5
528
  8
0
 10
130.27106096
 20
308.14815511
 30
0.0
  0
VERTEX
  5
529
  8
0
 10
131.24653834
 20
306.68825004
 30
0.0
  0
VERTEX
  5
52A
  8
0
 10
131.58908045
 20
304.9661746
 30
0.0
  0
VERTEX
  5
52B
  8
0
 10
131.24653834
 20
303.24409915
 30
0.0
  0
VERTEX
  5
52C
  8
0
 10
130.27106096
 20
301.78419408
 30
0.0
  0
VERTEX
  5
52D
  8
0
 10
128.81115589
 20
300.8087167
 30
0.0
  0
VERTEX
  5
52E
  8
0
 10
127.08908045
 20
300.4661746
 30
0.0
  0
VERTEX
  5
52F
  8
0
 10
125.367005
 20
300.8087167
 30
0.0
  0
VERTEX
  5
530
  8
0
 10
123.90709993
 20
301.78419408
 30
0.0
  0
VERTEX
  5
531
  8
0
 10
122.93162255
 20
303.24409915
 30
0.0
  0
VERTEX
  5
532
  8
0
 10
122.58908045
 20
304.9661746
 30
0.0
  0
VERTEX
  5
533
  8
0
 10
122.93162255
 20
306.68825004
 30
0.0
  0
VERTEX
  5
534
  8
0
 10
123.90709993
 20
308.14815511
 30
0.0
  0
SEQEND
  5
535
  8
0
  0
POLYLINE
  5
536
  8
0
 66
     1
 10
0.0
 20
0.0
 30
0.0
 70
     1
  0
VERTEX
  5
537
  8
0
 10
125.367005
 20
273.12363249
 30
0.0
  0
VERTEX
  5
538
  8
0
 10
127.08908045
 20
273.4661746
 30
0.0
  0
VERTEX
  5
539
  8
0
 10
128.81115589
 20
273.12363249
 30
0.0
  0
VERTEX
  5
53A
  8
0
 10
130.27106096
 20
272.14815511
 30
0.0
  0
VERTEX
  5
53B
  8
0
 10
131.24653834
 20
270.68825004
 30
0.0
  0
VERTEX
  5
53C
  8
0
 10
131.58908045
 20
268.9661746
 30
0.0
  0
VERTEX
  5
53D
  8
0
 10
131.24653834
 20
267.24409915
 30
0.0
  0
VERTEX
  5
53E
  8
0
 10
130.27106096
 20
265.78419408
 30
0.0
  0
VERTEX
  5
53F
  8
0
 10
128.81115589
 20
264.8087167
 30
0.0
  0
VERTEX
  5
540
  8
0
 10
127.08908045
 20
264.4661746
 30
0.0
  0
VERTEX
  5
541
  8
0
 10
125.367005
 20
264.8087167
 30
0.0
  0
VERTEX
  5
542
  8
0
 10
123.90709993
 20
265.78419408
 30
0.0
  0
VERTEX
  5
543
  8
0
 10
122.93162255
 20
267.24409915
 30
0.0
  0
VERTEX
  5
544
  8
0
 10
122.58908045
 20
268.9661746
 30
0.0
  0
VERTEX
  5
545
  8
0
 10
122.93162255
 20
270.68825004
 30
0.0
  0
VERTEX
  5
546
  8
0
 10
123.90709993
 20
272.14815511
 30
0.0
  0
SEQEND
  5
547
  8
0
  0
POLYLINE
  5
548
  8
0
 66
     1
 10
0.0
 20
0.0
 30
0.0
 70
     1
  0
VERTEX
  5
549
  8
0
 10
136.08908045
 20
278.4661746
 30
0.0
  0
VERTEX
  5
54A
  8
0
 10
136.08908045
 20
295.4661746
 30
0.0
  0
VERTEX
  5
54B
  8
0
 10
136.58386349
 20
297.95361691
 30
0.0
  0
VERTEX
  5
54C
  8
0
 10
137.99288637
 20
300.06236868
 30
0.0
  0
VERTEX
  5
54D
  8
0
 10
140.10163814
 20
301.47139156
 30
0.0
  0
VERTEX
  5
54E
  8
0
 10
142.58908045
 20
301.9661746
 30
0.0
  0
VERTEX
  5
54F
  8
0
 10
145.07652276
 20
301.47139156
 30
0.0
  0
VERTEX
  5
550
  8
0
 10
147.18527453
 20
300.06236868
 30
0.0
  0
VERTEX
  5
551
  8
0
 10
148.59429741
 20
297.95361691
 30
0.0
  0
VERTEX
  5
552
  8
0
 10
149.08908045
 20
295.4661746
 30
0.0
  0
VERTEX
  5
553
  8
0
 10
149.08908045
 20
278.4661746
 30
0.0
  0
VERTEX
  5
554
  8
0
 10
148.59429741
 20
275.97873229
 30
0.0
  0
VERTEX
  5
555
  8
0
 10
147.18527453
 20
273.86998052
 30
0.0
  0
VERTEX
  5
556
  8
0
 10
145.07652276
 20
272.46095764
 30
0.0
  0
VERTEX
  5
557
  8
0
 10
142.58908045
 20
271.9661746
 30
0.0
  0
VERTEX
  5
558
  8
0
 10
140.10163814
 20
272.46095764
 30
0.0
  0
VERTEX
  5
559
  8
0
 10
137.99288637
 20
273.86998052
 30
0.0
  0
VERTEX
  5
55A
  8
0
 10
136.58386349
 20
275.97873229
 30
0.0
  0
SEQEND
  5
55B
  8
0
  0
LINE
  5
55C
  8
0
 10
121.07857164
 20
245.99703675
 30
0.0
 11
121.58908045
 21
245.9661746
 31
0.0
  0
LINE
  5
55D
  8
0
 10
163.58908045
 20
245.9661746
 30
0.0
 11
121.58908045
 21
245.9661746
 31
0.0
  0
POLYLINE
  5
55E
  8
0
 66
     1
 10
0.0
 20
0.0
 30
0.0
  0
VERTEX
  5
55F
  8
0
 10
163.58908045
 20
245.9661746
 30
0.0
  0
VERTEX
  5
560
  8
0
 10
164.09958925
 20
245.99703675
 30
0.0
  0
VERTEX
  5
561
  8
0
 10
164.61009806
 20
246.08930694
 30
0.0
  0
VERTEX
  5
562
  8
0
 10
165.12060687
 20
246.24249061
 30
0.0
  0
VERTEX
  5
563
  8
0
 10
165.63111567
 20
246.45564351
 30
0.0
  0
VERTEX
  5
564
  8
0
 10
166.14162448
 20
246.72737927
 30
0.0
  0
SEQEND
  5
565
  8
0
  0
POLYLINE
  5
566
  8
0
 66
     1
 10
0.0
 20
0.0
 30
0.0
  0
VERTEX
  5
567
  8
0
 10
121.07857164
 20
245.99703675
 30
0.0
  0
VERTEX
  5
568
  8
0
 10
120.56806284
 20
246.08930694
 30
0.0
  0
VERTEX
  5
569
  8
0
 10
120.05755403
 20
246.24249061
 30
0.0
  0
SEQEND
  5
56A
  8
0
  0
LINE
  5
56B
  8
0
 10
119.54704522
 20
246.45564351
 30
0.0
 11
120.05755403
 21
246.24249061
 31
0.0
  0
LINE
  5
56C
  8
0
 10
119.03653642
 20
246.72737927
 30
0.0
 11
119.54704522
 21
246.45564351
 31
0.0
  0
LINE
  5
56D
  8
0
 10
118.52602761
 20
247.05614086
 30
0.0
 11
119.03653642
 21
246.72737927
 31
0.0
  0
POLYLINE
  5
56E
  8
0
 66
     1
 10
0.0
 20
0.0
 30
0.0
  0
VERTEX
  5
56F
  8
0
 10
166.14162448
 20
246.72737927
 30
0.0
  0
VERTEX
  5
570
  8
0
 10
166.65213329
 20
247.05614086
 30
0.0
  0
VERTEX
  5
571
  8
0
 10
167.16264209
 20
247.43978684
 30
0.0
  0
VERTEX
  5
572
  8
0
 10
167.6731509
 20
247.87601702
 30
0.0
  0
VERTEX
  5
573
  8
0
 10
168.1836597
 20
248.36214241
 30
0.0
  0
VERTEX
  5
574
  8
0
 10
168.69416851
 20
248.89510679
 30
0.0
  0
SEQEND
  5
575
  8
0
  0
POLYLINE
  5
576
  8
0
 66
     1
 10
0.0
 20
0.0
 30
0.0
  0
VERTEX
  5
577
  8
0
 10
118.52602761
 20
247.05614086
 30
0.0
  0
VERTEX
  5
578
  8
0
 10
118.0155188
 20
247.43978684
 30
0.0
  0
VERTEX
  5
579
  8
0
 10
117.50501
 20
247.87601702
 30
0.0
  0
SEQEND
  5
57A
  8
0
  0
LINE
  5
57B
  8
0
 10
116.99450119
 20
248.36214241
 30
0.0
 11
117.50501
 21
247.87601702
 31
0.0
  0
LINE
  5
57C
  8
0
 10
116.48399239
 20
248.89510679
 30
0.0
 11
116.99450119
 21
248.36214241
 31
0.0
  0
LINE
  5
57D
  8
0
 10
116.99450119
 20
249.47171684
 30
0.0
 11
116.48399239
 21
248.89510679
 31
0.0
  0
LINE
  5
57E
  8
0
 10
117.50499005
 20
251.88210415
 30
0.0
 11
116.99450303
 21
251.37159534
 31
0.0
  0
LINE
  5
57F
  8
0
 10
120.02473754
 20
254.94515699
 30
0.0
 11
120.80449285
 21
255.45566579
 31
0.0
  0
LINE
  5
580
  8
0
 10
121.58908045
 20
255.9661746
 30
0.0
 11
120.80449285
 21
255.45566579
 31
0.0
  0
LINE
  5
581
  8
0
 10
121.07857164
 20
255.181587
 30
0.0
 11
121.58908045
 21
255.9661746
 31
0.0
  0
LINE
  5
582
  8
0
 10
118.01550044
 20
252.39261295
 30
0.0
 11
117.50499005
 21
251.88210415
 31
0.0
  0
LINE
  5
583
  8
0
 10
118.52602818
 20
252.90312176
 30
0.0
 11
118.01550044
 21
252.39261295
 31
0.0
  0
LINE
  5
584
  8
0
 10
119.03653704
 20
253.41363057
 30
0.0
 11
118.52602818
 21
252.90312176
 31
0.0
  0
LINE
  5
585
  8
0
 10
119.54705702
 20
253.92413937
 30
0.0
 11
119.03653704
 21
253.41363057
 31
0.0
  0
LINE
  5
586
  8
0
 10
120.05755938
 20
254.43464818
 30
0.0
 11
119.54705702
 21
253.92413937
 31
0.0
  0
LINE
  5
587
  8
0
 10
120.56806239
 20
254.94515699
 30
0.0
 11
120.05755938
 21
254.43464818
 31
0.0
  0
LINE
  5
588
  8
0
 10
121.07857178
 20
255.45566579
 30
0.0
 11
120.56806239
 21
254.94515699
 31
0.0
  0
LINE
  5
589
  8
0
 10
121.58908045
 20
255.9661746
 30
0.0
 11
121.07857178
 21
255.45566579
 31
0.0
  0
LINE
  5
58A
  8
0
 10
120.56806284
 20
254.40183169
 30
0.0
 11
121.07857164
 21
255.181587
 31
0.0
  0
LINE
  5
58B
  8
0
 10
120.05755403
 20
253.63172538
 30
0.0
 11
120.56806284
 21
254.40183169
 31
0.0
  0
LINE
  5
58C
  8
0
 10
119.54704522
 20
252.87601514
 30
0.0
 11
120.05755403
 21
253.63172538
 31
0.0
  0
LINE
  5
58D
  8
0
 10
119.03653642
 20
252.13934027
 30
0.0
 11
119.54704522
 21
252.87601514
 31
0.0
  0
LINE
  5
58E
  8
0
 10
118.52602761
 20
251.42628628
 30
0.0
 11
119.03653642
 21
252.13934027
 31
0.0
  0
LINE
  5
58F
  8
0
 10
118.0155188
 20
250.74119658
 30
0.0
 11
118.52602761
 21
251.42628628
 31
0.0
  0
LINE
  5
590
  8
0
 10
117.50501
 20
250.08833198
 30
0.0
 11
118.0155188
 21
250.74119658
 31
0.0
  0
LINE
  5
591
  8
0
 10
116.99450119
 20
249.47171684
 30
0.0
 11
117.50501
 21
250.08833198
 31
0.0
  0
LINE
  5
592
  8
0
 10
164.61009806
 20
254.40183169
 30
0.0
 11
164.09958925
 21
255.181587
 31
0.0
  0
LINE
  5
593
  8
0
 10
106.58908045
 20
304.9661746
 30
0.0
 11
121.58908045
 21
304.9661746
 31
0.0
  0
LINE
  5
594
  8
0
 10
106.58908045
 20
310.9661746
 30
0.0
 11
106.58908045
 21
304.9661746
 31
0.0
  0
LINE
  5
595
  8
0
 10
109.58908045
 20
310.9661746
 30
0.0
 11
106.58908045
 21
310.9661746
 31
0.0
  0
LINE
  5
596
  8
0
 10
109.58908045
 20
316.9661746
 30
0.0
 11
109.58908045
 21
310.9661746
 31
0.0
  0
LINE
  5
597
  8
0
 10
115.58908045
 20
320.9661746
 30
0.0
 11
109.58908045
 21
316.9661746
 31
0.0
  0
LINE
  5
598
  8
0
 10
169.58908045
 20
320.9661746
 30
0.0
 11
115.58908045
 21
320.9661746
 31
0.0
  0
LINE
  5
599
  8
0
 10
175.58908045
 20
316.9661746
 30
0.0
 11
169.58908045
 21
320.9661746
 31
0.0
  0
LINE
  5
59A
  8
0
 10
175.58908045
 20
310.9661746
 30
0.0
 11
175.58908045
 21
316.9661746
 31
0.0
  0
LINE
  5
59B
  8
0
 10
178.58908045
 20
310.9661746
 30
0.0
 11
175.58908045
 21
310.9661746
 31
0.0
  0
LINE
  5
59C
  8
0
 10
178.58908045
 20
304.9661746
 30
0.0
 11
178.58908045
 21
310.9661746
 31
0.0
  0
LINE
  5
59D
  8
0
 10
163.58908045
 20
304.9661746
 30
0.0
 11
178.58908045
 21
304.9661746
 31
0.0
  0
LINE
  5
59E
  8
0
 10
164.37366805
 20
255.45566579
 30
0.0
 11
163.58908045
 21
255.9661746
 31
0.0
  0
POLYLINE
  5
59F
  8
0
 66
     1
 10
0.0
 20
0.0
 30
0.0
  0
VERTEX
  5
5A0
  8
0
 10
164.61009806
 20
254.40183169
 30
0.0
  0
VERTEX
  5
5A1
  8
0
 10
165.12060687
 20
253.63172538
 30
0.0
  0
VERTEX
  5
5A2
  8
0
 10
165.63111567
 20
252.87601514
 30
0.0
  0
VERTEX
  5
5A3
  8
0
 10
166.14162448
 20
252.13934027
 30
0.0
  0
VERTEX
  5
5A4
  8
0
 10
166.65213329
 20
251.42628628
 30
0.0
  0
VERTEX
  5
5A5
  8
0
 10
167.16264209
 20
250.74119658
 30
0.0
  0
VERTEX
  5
5A6
  8
0
 10
167.6731509
 20
250.08833198
 30
0.0
  0
VERTEX
  5
5A7
  8
0
 10
168.1836597
 20
249.47171684
 30
0.0
  0
SEQEND
  5
5A8
  8
0
  0
POLYLINE
  5
5A9
  8
0
 66
     1
 10
0.0
 20
0.0
 30
0.0
  0
VERTEX
  5
5AA
  8
0
 10
168.69416851
 20
250.86108654
 30
0.0
  0
VERTEX
  5
5AB
  8
0
 10
168.18365787
 20
251.37159534
 30
0.0
  0
VERTEX
  5
5AC
  8
0
 10
167.67317085
 20
251.88210415
 30
0.0
  0
VERTEX
  5
5AD
  8
0
 10
167.16266046
 20
252.39261295
 30
0.0
  0
VERTEX
  5
5AE
  8
0
 10
166.65213271
 20
252.90312176
 30
0.0
  0
VERTEX
  5
5AF
  8
0
 10
166.14162386
 20
253.41363057
 30
0.0
  0
VERTEX
  5
5B0
  8
0
 10
165.63110387
 20
253.92413937
 30
0.0
  0
VERTEX
  5
5B1
  8
0
 10
165.12060151
 20
254.43464818
 30
0.0
  0
VERTEX
  5
5B2
  8
0
 10
164.61009851
 20
254.94515699
 30
0.0
  0
SEQEND
  5
5B3
  8
0
  0
POLYLINE
  5
5B4
  8
0
 66
     1
 10
0.0
 20
0.0
 30
0.0
  0
VERTEX
  5
5B5
  8
0
 10
164.09958925
 20
255.181587
 30
0.0
  0
VERTEX
  5
5B6
  8
0
 10
163.58908045
 20
255.9661746
 30
0.0
  0
VERTEX
  5
5B7
  8
0
 10
164.09958912
 20
255.45566579
 30
0.0
  0
VERTEX
  5
5B8
  8
0
 10
164.61009851
 20
254.94515699
 30
0.0
  0
SEQEND
  5
5B9
  8
0
  0
LINE
  5
5BA
  8
0
 10
170.66014826
 20
250.86108654
 30
0.0
 11
168.69416851
 21
250.86108654
 31
0.0
  0
LINE
  5
5BB
  8
0
 10
168.69416851
 20
248.89510679
 30
0.0
 11
168.69416851
 21
250.86108654
 31
0.0
  0
LINE
  5
5BC
  8
0
 10
168.1836597
 20
249.47171684
 30
0.0
 11
168.69416851
 21
248.89510679
 31
0.0
  0
POLYLINE
  5
5BD
  8
0
 66
     1
 10
0.0
 20
0.0
 30
0.0
  0
VERTEX
  5
5BE
  8
0
 10
170.66014826
 20
250.86108654
 30
0.0
  0
VERTEX
  5
5BF
  8
0
 10
170.08353821
 20
251.37159534
 30
0.0
  0
VERTEX
  5
5C0
  8
0
 10
169.46692307
 20
251.88210415
 30
0.0
  0
VERTEX
  5
5C1
  8
0
 10
168.81405846
 20
252.39261295
 30
0.0
  0
VERTEX
  5
5C2
  8
0
 10
168.12896876
 20
252.90312176
 30
0.0
  0
VERTEX
  5
5C3
  8
0
 10
167.41591477
 20
253.41363057
 30
0.0
  0
VERTEX
  5
5C4
  8
0
 10
166.67923991
 20
253.92413937
 30
0.0
  0
VERTEX
  5
5C5
  8
0
 10
165.92352967
 20
254.43464818
 30
0.0
  0
VERTEX
  5
5C6
  8
0
 10
165.15342336
 20
254.94515699
 30
0.0
  0
VERTEX
  5
5C7
  8
0
 10
164.37366805
 20
255.45566579
 30
0.0
  0
SEQEND
  5
5C8
  8
0
  0
LINE
  5
5C9
  8
0
 10
171.19311264
 20
251.37159534
 30
0.0
 11
170.66014826
 21
250.86108654
 31
0.0
  0
LINE
  5
5CA
  8
0
 10
171.67923803
 20
251.88210415
 30
0.0
 11
171.19311264
 21
251.37159534
 31
0.0
  0
LINE
  5
5CB
  8
0
 10
172.11546821
 20
252.39261295
 30
0.0
 11
171.67923803
 21
251.88210415
 31
0.0
  0
LINE
  5
5CC
  8
0
 10
172.49911418
 20
252.90312176
 30
0.0
 11
172.11546821
 21
252.39261295
 31
0.0
  0
LINE
  5
5CD
  8
0
 10
172.82787577
 20
253.41363057
 30
0.0
 11
172.49911418
 21
252.90312176
 31
0.0
  0
LINE
  5
5CE
  8
0
 10
173.09961154
 20
253.92413937
 30
0.0
 11
172.82787577
 21
253.41363057
 31
0.0
  0
LINE
  5
5CF
  8
0
 10
173.31276444
 20
254.43464818
 30
0.0
 11
173.09961154
 21
253.92413937
 31
0.0
  0
LINE
  5
5D0
  8
0
 10
173.46594811
 20
254.94515699
 30
0.0
 11
173.31276444
 21
254.43464818
 31
0.0
  0
LINE
  5
5D1
  8
0
 10
173.55821829
 20
255.45566579
 30
0.0
 11
173.46594811
 21
254.94515699
 31
0.0
  0
POLYLINE
  5
5D2
  8
0
 66
     1
 10
0.0
 20
0.0
 30
0.0
  0
VERTEX
  5
5D3
  8
0
 10
173.58908045
 20
297.82331746
 30
0.0
  0
VERTEX
  5
5D4
  8
0
 10
173.58908045
 20
255.9661746
 30
0.0
  0
VERTEX
  5
5D5
  8
0
 10
173.55821829
 20
255.45566579
 30
0.0
  0
SEQEND
  5
5D6
  8
0
  0
LINE
  5
5D7
  8
0
 10
120.02473754
 20
254.94515699
 30
0.0
 11
119.25463123
 21
254.43464818
 31
0.0
  0
LINE
  5
5D8
  8
0
 10
118.49892099
 20
253.92413937
 30
0.0
 11
119.25463123
 21
254.43464818
 31
0.0
  0
LINE
  5
5D9
  8
0
 10
118.49892099
 20
253.92413937
 30
0.0
 11
117.76224612
 21
253.41363057
 31
0.0
  0
LINE
  5
5DA
  8
0
 10
117.04919213
 20
252.90312176
 30
0.0
 11
117.76224612
 21
253.41363057
 31
0.0
  0
LINE
  5
5DB
  8
0
 10
117.04919213
 20
252.90312176
 30
0.0
 11
116.36410243
 21
252.39261295
 31
0.0
  0
LINE
  5
5DC
  8
0
 10
115.71123783
 20
251.88210415
 30
0.0
 11
116.36410243
 21
252.39261295
 31
0.0
  0
LINE
  5
5DD
  8
0
 10
115.71123783
 20
251.88210415
 30
0.0
 11
115.09462269
 21
251.37159534
 31
0.0
  0
LINE
  5
5DE
  8
0
 10
114.51801264
 20
250.86108654
 30
0.0
 11
115.09462269
 21
251.37159534
 31
0.0
  0
LINE
  5
5DF
  8
0
 10
114.51801264
 20
250.86108654
 30
0.0
 11
114.51801264
 21
297.82331746
 31
0.0
  0
LINE
  5
5E0
  8
0
 10
114.51801264
 20
250.86108654
 30
0.0
 11
113.98504826
 21
251.37159534
 31
0.0
  0
LINE
  5
5E1
  8
0
 10
113.49892287
 20
251.88210415
 30
0.0
 11
113.98504826
 21
251.37159534
 31
0.0
  0
LINE
  5
5E2
  8
0
 10
113.49892287
 20
251.88210415
 30
0.0
 11
113.06269269
 21
252.39261295
 31
0.0
  0
LINE
  5
5E3
  8
0
 10
112.67904671
 20
252.90312176
 30
0.0
 11
113.06269269
 21
252.39261295
 31
0.0
  0
LINE
  5
5E4
  8
0
 10
112.67904671
 20
252.90312176
 30
0.0
 11
112.35028512
 21
253.41363057
 31
0.0
  0
LINE
  5
5E5
  8
0
 10
112.07854936
 20
253.92413937
 30
0.0
 11
112.35028512
 21
253.41363057
 31
0.0
  0
LINE
  5
5E6
  8
0
 10
112.07854936
 20
253.92413937
 30
0.0
 11
111.86539646
 21
254.43464818
 31
0.0
  0
LINE
  5
5E7
  8
0
 10
111.71221279
 20
254.94515699
 30
0.0
 11
111.86539646
 21
254.43464818
 31
0.0
  0
LINE
  5
5E8
  8
0
 10
111.71221279
 20
254.94515699
 30
0.0
 11
111.6199426
 21
255.45566579
 31
0.0
  0
LINE
  5
5E9
  8
0
 10
111.58908045
 20
255.9661746
 30
0.0
 11
111.6199426
 21
255.45566579
 31
0.0
  0
LINE
  5
5EA
  8
0
 10
111.58908045
 20
255.9661746
 30
0.0
 11
111.58908045
 21
297.82331746
 31
0.0
  0
LINE
  5
5EB
  8
0
 10
116.48399239
 20
250.86108654
 30
0.0
 11
114.51801264
 21
250.86108654
 31
0.0
  0
LINE
  5
5EC
  8
0
 10
116.48399239
 20
250.86108654
 30
0.0
 11
116.99450303
 21
251.37159534
 31
0.0
  0
LINE
  5
5ED
  8
0
 10
116.48399239
 20
250.86108654
 30
0.0
 11
116.48399239
 21
248.89510679
 31
0.0
  0
ENDBLK
  8
0
  0
BLOCK
  8
0
  2
1X_BL_10X7_143X72_000_S236
 70
     0
 10
0.0
 20
0.0
 30
0.0
  0
INSERT
  5
5F0
  8
0
  2
1X_BL_10X7_143X72_000_S237
 10
163.58908045
 20
304.9661746
 30
0.0
  0
ENDBLK
  8
0
  0
BLOCK
  8
0
  2
1X_BL_10X7_143X72_000_S237
 70
     0
 10
163.58908045
 20
304.9661746
 30
0.0
  0
LINE
  5
5F3
  8
0
 10
163.58908045
 20
304.9661746
 30
0.0
 11
178.58908045
 21
304.9661746
 31
0.0
  0
LINE
  5
5F4
  8
0
 10
177.51921731
 20
303.98439229
 30
0.0
 11
178.58908045
 21
304.9661746
 31
0.0
  0
LINE
  5
5F5
  8
0
 10
173.8499222
 20
298.49290408
 30
0.0
 11
177.51921731
 21
303.98439229
 31
0.0
  0
LINE
  5
5F6
  8
0
 10
173.58908045
 20
297.82331746
 30
0.0
 11
173.8499222
 21
298.49290408
 31
0.0
  0
LINE
  5
5F7
  8
0
 10
167.80275484
 20
297.82331746
 30
0.0
 11
173.58908045
 21
297.82331746
 31
0.0
  0
LINE
  5
5F8
  8
0
 10
106.58908045
 20
304.9661746
 30
0.0
 11
121.58908045
 21
304.9661746
 31
0.0
  0
POLYLINE
  5
5F9
  8
0
 66
     1
 10
0.0
 20
0.0
 30
0.0
  0
VERTEX
  5
5FA
  8
0
 10
106.58908045
 20
304.9661746
 30
0.0
  0
VERTEX
  5
5FB
  8
0
 10
107.65894359
 20
303.98439229
 30
0.0
  0
VERTEX
  5
5FC
  8
0
 10
111.3282387
 20
298.49290408
 30
0.0
  0
VERTEX
  5
5FD
  8
0
 10
111.58908045
 20
297.82331746
 30
0.0
  0
VERTEX
  5
5FE
  8
0
 10
117.38442856
 20
297.82331746
 30
0.0
  0
SEQEND
  5
5FF
  8
0
  0
ENDBLK
  8
0
  0
BLOCK
  8
0
  2
1X_BL_10X7_143X72_000_S238
 70
     0
 10
0.0
 20
0.0
 30
0.0
  0
INSERT
  5
602
  8
0
  2
1X_BL_10X7_143X72_000_S239
 10
177.51921731
 20
251.65342221
 30
0.0
  0
ENDBLK
  8
0
  0
BLOCK
  8
0
  2
1X_BL_10X7_143X72_000_S239
 70
     0
 10
177.51921731
 20
251.65342221
 30
0.0
  0
LINE
  5
605
  8
0
 10
177.51921731
 20
251.65342221
 30
0.0
 11
178.58908045
 21
250.9661746
 31
0.0
  0
POLYLINE
  5
606
  8
0
 66
     1
 10
0.0
 20
0.0
 30
0.0
  0
VERTEX
  5
607
  8
0
 10
177.51921731
 20
245.9661746
 30
0.0
  0
VERTEX
  5
608
  8
0
 10
178.58908045
 20
245.9661746
 30
0.0
  0
VERTEX
  5
609
  8
0
 10
178.58908045
 20
250.9661746
 30
0.0
  0
SEQEND
  5
60A
  8
0
  0
LINE
  5
60B
  8
0
 10
177.51921731
 20
245.9661746
 30
0.0
 11
173.8499222
 21
245.9661746
 31
0.0
  0
LINE
  5
60C
  8
0
 10
173.8499222
 20
255.49746396
 30
0.0
 11
177.51921731
 21
251.65342221
 31
0.0
  0
LINE
  5
60D
  8
0
 10
173.58908045
 20
255.9661746
 30
0.0
 11
173.8499222
 21
255.49746396
 31
0.0
  0
POLYLINE
  5
60E
  8
0
 66
     1
 10
0.0
 20
0.0
 30
0.0
  0
VERTEX
  5
60F
  8
0
 10
173.8499222
 20
245.9661746
 30
0.0
  0
VERTEX
  5
610
  8
0
 10
173.58908045
 20
245.9661746
 30
0.0
  0
VERTEX
  5
611
  8
0
 10
173.58908045
 20
255.9661746
 30
0.0
  0
SEQEND
  5
612
  8
0
  0
LINE
  5
613
  8
0
 10
173.58908045
 20
245.9661746
 30
0.0
 11
163.58908045
 21
245.9661746
 31
0.0
  0
LINE
  5
614
  8
0
 10
121.58908045
 20
245.9661746
 30
0.0
 11
111.58908045
 21
245.9661746
 31
0.0
  0
POLYLINE
  5
615
  8
0
 66
     1
 10
0.0
 20
0.0
 30
0.0
  0
VERTEX
  5
616
  8
0
 10
111.58908045
 20
255.9661746
 30
0.0
  0
VERTEX
  5
617
  8
0
 10
111.58908045
 20
245.9661746
 30
0.0
  0
VERTEX
  5
618
  8
0
 10
111.3282387
 20
245.9661746
 30
0.0
  0
SEQEND
  5
619
  8
0
  0
LINE
  5
61A
  8
0
 10
111.3282387
 20
255.49746396
 30
0.0
 11
111.58908045
 21
255.9661746
 31
0.0
  0
LINE
  5
61B
  8
0
 10
107.65894359
 20
251.65342221
 30
0.0
 11
111.3282387
 21
255.49746396
 31
0.0
  0
LINE
  5
61C
  8
0
 10
111.3282387
 20
245.9661746
 30
0.0
 11
107.65894359
 21
245.9661746
 31
0.0
  0
LINE
  5
61D
  8
0
 10
106.58908045
 20
250.9661746
 30
0.0
 11
107.65894359
 21
251.65342221
 31
0.0
  0
LINE
  5
61E
  8
0
 10
106.58908045
 20
245.9661746
 30
0.0
 11
106.58908045
 21
250.9661746
 31
0.0
  0
LINE
  5
61F
  8
0
 10
107.65894359
 20
245.9661746
 30
0.0
 11
106.58908045
 21
245.9661746
 31
0.0
  0
ENDBLK
  8
0
  0
BLOCK
  8
0
  2
_ANS0005_00041
 70
     0
 10
0.0
 20
0.0
 30
0.0
  0
INSERT
  5
622
  8
0
  2
_A3D0005_00042
 10
0.0
 20
0.0
 30
0.0
  0
ENDBLK
  8
0
  0
BLOCK
  8
0
  2
_A3D0005_00042
 70
     0
 10
0.0
 20
0.0
 30
0.0
  0
INSERT
  5
625
  8
0
  2
SVH03-ANKER_00043
 10
0.0
 20
0.0
 30
0.0
  0
ENDBLK
  8
0
  0
BLOCK
  8
0
  2
SVH03-ANKER_00043
 70
     0
 10
0.0
 20
0.0
 30
0.0
  0
INSERT
  5
628
  8
0
  2
1X_PLAAT_5MM-215_210X72_06
 10
0.0
 20
0.0
 30
0.0
  0
INSERT
  5
629
  8
0
  2
1X_BL_10X7_143X72_000_S23A
 10
0.0
 20
0.0
 30
0.0
  0
INSERT
  5
62A
  8
0
  2
1X_BL_10X7_143X72_000_S23C
 10
0.0
 20
0.0
 30
0.0
  0
ENDBLK
  8
0
  0
BLOCK
  8
0
  2
1X_PLAAT_5MM-215_210X72_06
 70
     0
 10
0.0
 20
0.0
 30
0.0
  0
INSERT
  5
62D
  8
0
  2
1X_PLAAT_5MM-215_210X72_07
 10
48.11817262
 20
121.24247141
 30
0.0
  0
ENDBLK
  8
0
  0
BLOCK
  8
0
  2
1X_PLAAT_5MM-215_210X72_07
 70
     0
 10
48.11817262
 20
121.24247141
 30
0.0
  0
POLYLINE
  5
630
  8
0
 66
     1
 10
0.0
 20
0.0
 30
0.0
  0
VERTEX
  5
631
  8
0
 10
48.11817262
 20
121.24247141
 30
0.0
  0
VERTEX
  5
632
  8
0
 10
48.07298962
 20
121.26741688
 30
0.0
  0
VERTEX
  5
633
  8
0
 10
47.31852144
 20
121.74328594
 30
0.0
  0
VERTEX
  5
634
  8
0
 10
49.0220348
 20
123.39364443
 30
0.0
  0
SEQEND
  5
635
  8
0
  0
LINE
  5
636
  8
0
 10
47.11154794
 20
122.48161507
 30
0.0
 11
47.31852144
 21
121.74328594
 31
0.0
  0
LINE
  5
637
  8
0
 10
46.94549887
 20
123.25108682
 30
0.0
 11
47.11154794
 21
122.48161507
 31
0.0
  0
POLYLINE
  5
638
  8
0
 66
     1
 10
0.0
 20
0.0
 30
0.0
  0
VERTEX
  5
639
  8
0
 10
55.23102265
 20
165.03348659
 30
0.0
  0
VERTEX
  5
63A
  8
0
 10
55.26661868
 20
165.0355438
 30
0.0
  0
VERTEX
  5
63B
  8
0
 10
55.99538026
 20
164.41527026
 30
0.0
  0
VERTEX
  5
63C
  8
0
 10
56.48232318
 20
163.21947338
 30
0.0
  0
VERTEX
  5
63D
  8
0
 10
56.65331479
 20
161.6302024
 30
0.0
  0
VERTEX
  5
63E
  8
0
 10
56.48232318
 20
159.88940941
 30
0.0
  0
VERTEX
  5
63F
  8
0
 10
55.99538026
 20
158.26211437
 30
0.0
  0
VERTEX
  5
640
  8
0
 10
55.26661868
 20
156.9960582
 30
0.0
  0
VERTEX
  5
641
  8
0
 10
55.23102265
 20
156.96657244
 30
0.0
  0
SEQEND
  5
642
  8
0
  0
LINE
  5
643
  8
0
 10
55.99538026
 20
164.41527026
 30
0.0
 11
55.23102265
 21
164.52766764
 31
0.0
  0
LINE
  5
644
  8
0
 10
56.48232318
 20
163.21947338
 30
0.0
 11
55.23102265
 21
163.40347482
 31
0.0
  0
LINE
  5
645
  8
0
 10
56.65331479
 20
161.6302024
 30
0.0
 11
55.23102265
 21
161.83934784
 31
0.0
  0
LINE
  5
646
  8
0
 10
56.48232318
 20
159.88940941
 30
0.0
 11
55.23102265
 21
160.07341085
 31
0.0
  0
LINE
  5
647
  8
0
 10
55.99538026
 20
158.26211437
 30
0.0
 11
55.23102265
 21
158.37451175
 31
0.0
  0
LINE
  5
648
  8
0
 10
55.26661868
 20
156.9960582
 30
0.0
 11
55.23102265
 21
157.00129253
 31
0.0
  0
POLYLINE
  5
649
  8
0
 66
     1
 10
0.0
 20
0.0
 30
0.0
 70
     1
  0
VERTEX
  5
64A
  8
0
 10
54.40698579
 20
181.42274082
 30
0.0
  0
VERTEX
  5
64B
  8
0
 10
55.07558915
 20
181.46138146
 30
0.0
  0
VERTEX
  5
64C
  8
0
 10
55.64240371
 20
180.97894648
 30
0.0
  0
VERTEX
  5
64D
  8
0
 10
56.02113709
 20
180.04888224
 30
0.0
  0
VERTEX
  5
64E
  8
0
 10
56.15413057
 20
178.81278259
 30
0.0
  0
VERTEX
  5
64F
  8
0
 10
56.02113709
 20
177.45883249
 30
0.0
  0
VERTEX
  5
650
  8
0
 10
55.64240371
 20
176.19315857
 30
0.0
  0
VERTEX
  5
651
  8
0
 10
55.07558915
 20
175.20844822
 30
0.0
  0
VERTEX
  5
652
  8
0
 10
54.40698579
 20
174.65461465
 30
0.0
  0
VERTEX
  5
653
  8
0
 10
53.73838243
 20
174.61597401
 30
0.0
  0
VERTEX
  5
654
  8
0
 10
53.17156788
 20
175.09840898
 30
0.0
  0
VERTEX
  5
655
  8
0
 10
52.7928345
 20
176.02847322
 30
0.0
  0
VERTEX
  5
656
  8
0
 10
52.65984102
 20
177.26457287
 30
0.0
  0
VERTEX
  5
657
  8
0
 10
52.7928345
 20
178.61852297
 30
0.0
  0
VERTEX
  5
658
  8
0
 10
53.17156788
 20
179.88419689
 30
0.0
  0
VERTEX
  5
659
  8
0
 10
53.73838243
 20
180.86890725
 30
0.0
  0
SEQEND
  5
65A
  8
0
  0
LINE
  5
65B
  8
0
 10
55.64240371
 20
180.97894648
 30
0.0
 11
54.13824424
 21
181.20013037
 31
0.0
  0
LINE
  5
65C
  8
0
 10
56.02113709
 20
180.04888224
 30
0.0
 11
53.48133989
 21
180.42235475
 31
0.0
  0
LINE
  5
65D
  8
0
 10
56.15413057
 20
178.81278259
 30
0.0
 11
52.99018335
 21
179.27803521
 31
0.0
  0
LINE
  5
65E
  8
0
 10
56.02113709
 20
177.45883249
 30
0.0
 11
52.72650999
 21
177.94330134
 31
0.0
  0
LINE
  5
65F
  8
0
 10
55.64240371
 20
176.19315857
 30
0.0
 11
52.72902293
 21
176.62156585
 31
0.0
  0
LINE
  5
660
  8
0
 10
55.07558915
 20
175.20844822
 30
0.0
 11
53.00263024
 21
175.51327301
 31
0.0
  0
LINE
  5
661
  8
0
 10
54.40698579
 20
174.65461465
 30
0.0
 11
53.54386412
 21
174.7815351
 31
0.0
  0
POLYLINE
  5
662
  8
0
 66
     1
 10
0.0
 20
0.0
 30
0.0
 70
     1
  0
VERTEX
  5
663
  8
0
 10
69.88169665
 20
170.87534513
 30
0.0
  0
VERTEX
  5
664
  8
0
 10
70.55030001
 20
170.91398577
 30
0.0
  0
VERTEX
  5
665
  8
0
 10
71.11711457
 20
170.43155079
 30
0.0
  0
VERTEX
  5
666
  8
0
 10
71.49584795
 20
169.50148655
 30
0.0
  0
VERTEX
  5
667
  8
0
 10
71.62884142
 20
168.2653869
 30
0.0
  0
VERTEX
  5
668
  8
0
 10
71.49584795
 20
166.9114368
 30
0.0
  0
VERTEX
  5
669
  8
0
 10
71.11711457
 20
165.64576288
 30
0.0
  0
VERTEX
  5
66A
  8
0
 10
70.55030001
 20
164.66105253
 30
0.0
  0
VERTEX
  5
66B
  8
0
 10
69.88169665
 20
164.10721896
 30
0.0
  0
VERTEX
  5
66C
  8
0
 10
69.21309329
 20
164.06857832
 30
0.0
  0
VERTEX
  5
66D
  8
0
 10
68.64627873
 20
164.55101329
 30
0.0
  0
VERTEX
  5
66E
  8
0
 10
68.26754535
 20
165.48107753
 30
0.0
  0
VERTEX
  5
66F
  8
0
 10
68.13455188
 20
166.71717718
 30
0.0
  0
VERTEX
  5
670
  8
0
 10
68.26754535
 20
168.07112728
 30
0.0
  0
VERTEX
  5
671
  8
0
 10
68.64627873
 20
169.3368012
 30
0.0
  0
VERTEX
  5
672
  8
0
 10
69.21309329
 20
170.32151156
 30
0.0
  0
SEQEND
  5
673
  8
0
  0
LINE
  5
674
  8
0
 10
71.11711457
 20
170.43155079
 30
0.0
 11
69.61295509
 21
170.65273468
 31
0.0
  0
LINE
  5
675
  8
0
 10
71.49584795
 20
169.50148655
 30
0.0
 11
68.95605074
 21
169.87495906
 31
0.0
  0
LINE
  5
676
  8
0
 10
71.62884142
 20
168.2653869
 30
0.0
 11
68.46489421
 21
168.73063952
 31
0.0
  0
LINE
  5
677
  8
0
 10
71.49584795
 20
166.9114368
 30
0.0
 11
68.20122085
 21
167.39590565
 31
0.0
  0
LINE
  5
678
  8
0
 10
71.11711457
 20
165.64576288
 30
0.0
 11
68.20373379
 21
166.07417016
 31
0.0
  0
LINE
  5
679
  8
0
 10
70.55030001
 20
164.66105253
 30
0.0
 11
68.4773411
 21
164.96587732
 31
0.0
  0
LINE
  5
67A
  8
0
 10
69.88169665
 20
164.10721896
 30
0.0
 11
69.01857498
 21
164.23413941
 31
0.0
  0
POLYLINE
  5
67B
  8
0
 66
     1
 10
0.0
 20
0.0
 30
0.0
  0
VERTEX
  5
67C
  8
0
 10
55.23102265
 20
146.52158075
 30
0.0
  0
VERTEX
  5
67D
  8
0
 10
55.64240371
 20
146.17144046
 30
0.0
  0
VERTEX
  5
67E
  8
0
 10
56.02113709
 20
145.24137623
 30
0.0
  0
VERTEX
  5
67F
  8
0
 10
56.15413057
 20
144.00527657
 30
0.0
  0
VERTEX
  5
680
  8
0
 10
56.02113709
 20
142.65132647
 30
0.0
  0
VERTEX
  5
681
  8
0
 10
55.64240371
 20
141.38565255
 30
0.0
  0
VERTEX
  5
682
  8
0
 10
55.23102265
 20
140.67097226
 30
0.0
  0
SEQEND
  5
683
  8
0
  0
LINE
  5
684
  8
0
 10
55.64240371
 20
146.17144046
 30
0.0
 11
55.23102265
 21
146.23193329
 31
0.0
  0
LINE
  5
685
  8
0
 10
56.02113709
 20
145.24137623
 30
0.0
 11
55.23102265
 21
145.3575611
 31
0.0
  0
LINE
  5
686
  8
0
 10
56.15413057
 20
144.00527657
 30
0.0
 11
55.23102265
 21
144.14101789
 31
0.0
  0
LINE
  5
687
  8
0
 10
56.02113709
 20
142.65132647
 30
0.0
 11
55.23102265
 21
142.76751135
 31
0.0
  0
LINE
  5
688
  8
0
 10
55.64240371
 20
141.38565255
 30
0.0
 11
55.23102265
 21
141.44614538
 31
0.0
  0
POLYLINE
  5
689
  8
0
 66
     1
 10
0.0
 20
0.0
 30
0.0
 70
     1
  0
VERTEX
  5
68A
  8
0
 10
69.88169665
 20
189.24597331
 30
0.0
  0
VERTEX
  5
68B
  8
0
 10
70.74132954
 20
189.29565413
 30
0.0
  0
VERTEX
  5
68C
  8
0
 10
71.47009111
 20
188.67538059
 30
0.0
  0
VERTEX
  5
68D
  8
0
 10
71.95703403
 20
187.47958371
 30
0.0
  0
VERTEX
  5
68E
  8
0
 10
72.12802564
 20
185.89031273
 30
0.0
  0
VERTEX
  5
68F
  8
0
 10
71.95703403
 20
184.14951974
 30
0.0
  0
VERTEX
  5
690
  8
0
 10
71.47009111
 20
182.5222247
 30
0.0
  0
VERTEX
  5
691
  8
0
 10
70.74132954
 20
181.25616853
 30
0.0
  0
VERTEX
  5
692
  8
0
 10
69.88169665
 20
180.5440968
 30
0.0
  0
VERTEX
  5
693
  8
0
 10
69.02206376
 20
180.49441598
 30
0.0
  0
VERTEX
  5
694
  8
0
 10
68.29330218
 20
181.11468952
 30
0.0
  0
VERTEX
  5
695
  8
0
 10
67.80635927
 20
182.31048639
 30
0.0
  0
VERTEX
  5
696
  8
0
 10
67.63536765
 20
183.89975738
 30
0.0
  0
VERTEX
  5
697
  8
0
 10
67.80635927
 20
185.64055036
 30
0.0
  0
VERTEX
  5
698
  8
0
 10
68.29330218
 20
187.2678454
 30
0.0
  0
VERTEX
  5
699
  8
0
 10
69.02206376
 20
188.53390157
 30
0.0
  0
SEQEND
  5
69A
  8
0
  0
LINE
  5
69B
  8
0
 10
71.47009111
 20
188.67538059
 30
0.0
 11
69.53617179
 21
188.95975987
 31
0.0
  0
LINE
  5
69C
  8
0
 10
71.95703403
 20
187.47958371
 30
0.0
 11
68.69158048
 21
187.95976264
 31
0.0
  0
LINE
  5
69D
  8
0
 10
72.12802564
 20
185.89031273
 30
0.0
 11
68.06009351
 21
186.48849466
 31
0.0
  0
LINE
  5
69E
  8
0
 10
71.95703403
 20
184.14951974
 30
0.0
 11
67.7210849
 21
184.77240826
 31
0.0
  0
LINE
  5
69F
  8
0
 10
71.47009111
 20
182.5222247
 30
0.0
 11
67.72431583
 21
183.07303406
 31
0.0
  0
LINE
  5
6A0
  8
0
 10
70.74132954
 20
181.25616853
 30
0.0
 11
68.07609665
 21
181.64808612
 31
0.0
  0
LINE
  5
6A1
  8
0
 10
69.88169665
 20
180.5440968
 30
0.0
 11
68.77196878
 21
180.70728024
 31
0.0
  0
POLYLINE
  5
6A2
  8
0
 66
     1
 10
0.0
 20
0.0
 30
0.0
 70
     1
  0
VERTEX
  5
6A3
  8
0
 10
69.88169665
 20
154.43846729
 30
0.0
  0
VERTEX
  5
6A4
  8
0
 10
70.74132954
 20
154.48814811
 30
0.0
  0
VERTEX
  5
6A5
  8
0
 10
71.47009111
 20
153.86787457
 30
0.0
  0
VERTEX
  5
6A6
  8
0
 10
71.95703403
 20
152.67207769
 30
0.0
  0
VERTEX
  5
6A7
  8
0
 10
72.12802564
 20
151.08280671
 30
0.0
  0
VERTEX
  5
6A8
  8
0
 10
71.95703403
 20
149.34201372
 30
0.0
  0
VERTEX
  5
6A9
  8
0
 10
71.47009111
 20
147.71471868
 30
0.0
  0
VERTEX
  5
6AA
  8
0
 10
70.74132954
 20
146.44866251
 30
0.0
  0
VERTEX
  5
6AB
  8
0
 10
69.88169665
 20
145.73659078
 30
0.0
  0
VERTEX
  5
6AC
  8
0
 10
69.02206376
 20
145.68690996
 30
0.0
  0
VERTEX
  5
6AD
  8
0
 10
68.29330218
 20
146.3071835
 30
0.0
  0
VERTEX
  5
6AE
  8
0
 10
67.80635927
 20
147.50298038
 30
0.0
  0
VERTEX
  5
6AF
  8
0
 10
67.63536765
 20
149.09225136
 30
0.0
  0
VERTEX
  5
6B0
  8
0
 10
67.80635927
 20
150.83304434
 30
0.0
  0
VERTEX
  5
6B1
  8
0
 10
68.29330218
 20
152.46033938
 30
0.0
  0
VERTEX
  5
6B2
  8
0
 10
69.02206376
 20
153.72639555
 30
0.0
  0
SEQEND
  5
6B3
  8
0
  0
LINE
  5
6B4
  8
0
 10
71.47009111
 20
153.86787457
 30
0.0
 11
69.53617179
 21
154.15225385
 31
0.0
  0
LINE
  5
6B5
  8
0
 10
71.95703403
 20
152.67207769
 30
0.0
 11
68.69158048
 21
153.15225662
 31
0.0
  0
LINE
  5
6B6
  8
0
 10
72.12802564
 20
151.08280671
 30
0.0
 11
68.06009351
 21
151.68098864
 31
0.0
  0
LINE
  5
6B7
  8
0
 10
71.95703403
 20
149.34201372
 30
0.0
 11
67.7210849
 21
149.96490224
 31
0.0
  0
LINE
  5
6B8
  8
0
 10
71.47009111
 20
147.71471868
 30
0.0
 11
67.72431583
 21
148.26552804
 31
0.0
  0
LINE
  5
6B9
  8
0
 10
70.74132954
 20
146.44866251
 30
0.0
 11
68.07609665
 21
146.8405801
 31
0.0
  0
LINE
  5
6BA
  8
0
 10
69.88169665
 20
145.73659078
 30
0.0
 11
68.77196878
 21
145.89977422
 31
0.0
  0
POLYLINE
  5
6BB
  8
0
 66
     1
 10
0.0
 20
0.0
 30
0.0
 70
     1
  0
VERTEX
  5
6BC
  8
0
 10
65.38903866
 20
173.71916561
 30
0.0
  0
VERTEX
  5
6BD
  8
0
 10
65.38903866
 20
157.28228777
 30
0.0
  0
VERTEX
  5
6BE
  8
0
 10
65.14205077
 20
154.76780901
 30
0.0
  0
VERTEX
  5
6BF
  8
0
 10
64.43868878
 20
152.41727173
 30
0.0
  0
VERTEX
  5
6C0
  8
0
 10
63.38603317
 20
150.58852393
 30
0.0
  0
VERTEX
  5
6C1
  8
0
 10
62.14434122
 20
149.55997587
 30
0.0
  0
VERTEX
  5
6C2
  8
0
 10
60.90264927
 20
149.48821469
 30
0.0
  0
VERTEX
  5
6C3
  8
0
 10
59.84999366
 20
150.38416535
 30
0.0
  0
VERTEX
  5
6C4
  8
0
 10
59.14663167
 20
152.11142751
 30
0.0
  0
VERTEX
  5
6C5
  8
0
 10
58.89964378
 20
154.40704115
 30
0.0
  0
VERTEX
  5
6C6
  8
0
 10
58.89964378
 20
170.843919
 30
0.0
  0
VERTEX
  5
6C7
  8
0
 10
59.14663167
 20
173.35839775
 30
0.0
  0
VERTEX
  5
6C8
  8
0
 10
59.84999366
 20
175.70893503
 30
0.0
  0
VERTEX
  5
6C9
  8
0
 10
60.90264927
 20
177.53768284
 30
0.0
  0
VERTEX
  5
6CA
  8
0
 10
62.14434122
 20
178.56623089
 30
0.0
  0
VERTEX
  5
6CB
  8
0
 10
63.38603317
 20
178.63799208
 30
0.0
  0
VERTEX
  5
6CC
  8
0
 10
64.43868878
 20
177.74204141
 30
0.0
  0
VERTEX
  5
6CD
  8
0
 10
65.14205077
 20
176.01477925
 30
0.0
  0
SEQEND
  5
6CE
  8
0
  0
LINE
  5
6CF
  8
0
 10
61.05655925
 20
157.91937089
 30
0.0
 11
61.05655925
 21
174.35624873
 31
0.0
  0
LINE
  5
6D0
  8
0
 10
60.80957136
 20
155.40489213
 30
0.0
 11
61.05655925
 21
157.91937089
 31
0.0
  0
LINE
  5
6D1
  8
0
 10
65.14205077
 20
154.76780901
 30
0.0
 11
60.80957136
 21
155.40489213
 31
0.0
  0
LINE
  5
6D2
  8
0
 10
60.10620937
 20
153.05435486
 30
0.0
 11
60.80957136
 21
155.40489213
 31
0.0
  0
LINE
  5
6D3
  8
0
 10
64.43868878
 20
152.41727173
 30
0.0
 11
60.10620937
 21
153.05435486
 31
0.0
  0
LINE
  5
6D4
  8
0
 10
59.31932903
 20
151.68733065
 30
0.0
 11
60.10620937
 21
153.05435486
 31
0.0
  0
LINE
  5
6D5
  8
0
 10
63.38603317
 20
150.58852393
 30
0.0
 11
59.53625234
 21
151.15462712
 31
0.0
  0
LINE
  5
6D6
  8
0
 10
62.14434122
 20
149.55997587
 30
0.0
 11
60.54140097
 21
149.79568529
 31
0.0
  0
LINE
  5
6D7
  8
0
 10
61.05655925
 20
174.35624873
 30
0.0
 11
60.80957136
 21
176.65186238
 31
0.0
  0
POLYLINE
  5
6D8
  8
0
 66
     1
 10
0.0
 20
0.0
 30
0.0
  0
VERTEX
  5
6D9
  8
0
 10
65.14205077
 20
176.01477925
 30
0.0
  0
VERTEX
  5
6DA
  8
0
 10
60.80957136
 20
176.65186238
 30
0.0
  0
VERTEX
  5
6DB
  8
0
 10
60.636874
 20
177.07595924
 30
0.0
  0
SEQEND
  5
6DC
  8
0
  0
LINE
  5
6DD
  8
0
 10
64.43868878
 20
177.74204141
 30
0.0
 11
61.64524976
 21
178.15281148
 31
0.0
  0
POLYLINE
  5
6DE
  8
0
 66
     1
 10
0.0
 20
0.0
 30
0.0
 70
     1
  0
VERTEX
  5
6DF
  8
0
 10
95.42299947
 20
127.97543685
 30
0.0
  0
VERTEX
  5
6E0
  8
0
 10
94.12942833
 20
128.08717243
 30
0.0
  0
VERTEX
  5
6E1
  8
0
 10
93.10184415
 20
128.31675847
 30
0.0
  0
VERTEX
  5
6E2
  8
0
 10
92.49668729
 20
128.62924256
 30
0.0
  0
VERTEX
  5
6E3
  8
0
 10
92.40608741
 20
128.97705183
 30
0.0
  0
VERTEX
  5
6E4
  8
0
 10
92.84383752
 20
129.30723548
 30
0.0
  0
VERTEX
  5
6E5
  8
0
 10
93.74329413
 20
129.56952604
 30
0.0
  0
VERTEX
  5
6E6
  8
0
 10
94.96752312
 20
129.72399214
 30
0.0
  0
VERTEX
  5
6E7
  8
0
 10
96.33014674
 20
129.74711774
 30
0.0
  0
VERTEX
  5
6E8
  8
0
 10
97.62371788
 20
129.63538215
 30
0.0
  0
VERTEX
  5
6E9
  8
0
 10
98.65130207
 20
129.40579612
 30
0.0
  0
VERTEX
  5
6EA
  8
0
 10
99.25645892
 20
129.09331203
 30
0.0
  0
VERTEX
  5
6EB
  8
0
 10
99.3470588
 20
128.74550276
 30
0.0
  0
VERTEX
  5
6EC
  8
0
 10
98.90930869
 20
128.41531911
 30
0.0
  0
VERTEX
  5
6ED
  8
0
 10
98.00985208
 20
128.15302855
 30
0.0
  0
VERTEX
  5
6EE
  8
0
 10
96.78562309
 20
127.99856244
 30
0.0
  0
SEQEND
  5
6EF
  8
0
  0
LINE
  5
6F0
  8
0
 10
92.84383752
 20
128.44998503
 30
0.0
 11
92.84383752
 21
129.30723548
 31
0.0
  0
LINE
  5
6F1
  8
0
 10
93.74329413
 20
128.17344373
 30
0.0
 11
93.74329413
 21
129.56952604
 31
0.0
  0
LINE
  5
6F2
  8
0
 10
94.96752312
 20
128.01477981
 30
0.0
 11
94.96752312
 21
129.72399214
 31
0.0
  0
LINE
  5
6F3
  8
0
 10
96.33014674
 20
127.99083238
 30
0.0
 11
96.33014674
 21
129.74711774
 31
0.0
  0
LINE
  5
6F4
  8
0
 10
97.62371788
 20
128.10430838
 30
0.0
 11
97.62371788
 21
129.63538215
 31
0.0
  0
LINE
  5
6F5
  8
0
 10
98.65130207
 20
128.34008179
 30
0.0
 11
98.65130207
 21
129.40579612
 31
0.0
  0
LINE
  5
6F6
  8
0
 10
99.25645892
 20
128.6771656
 30
0.0
 11
99.25645892
 21
129.09331203
 31
0.0
  0
POLYLINE
  5
6F7
  8
0
 66
     1
 10
0.0
 20
0.0
 30
0.0
 70
     1
  0
VERTEX
  5
6F8
  8
0
 10
164.12077083
 20
106.38505547
 30
0.0
  0
VERTEX
  5
6F9
  8
0
 10
162.82719969
 20
106.49679105
 30
0.0
  0
VERTEX
  5
6FA
  8
0
 10
161.79961551
 20
106.72637709
 30
0.0
  0
VERTEX
  5
6FB
  8
0
 10
161.19445865
 20
107.03886118
 30
0.0
  0
VERTEX
  5
6FC
  8
0
 10
161.10385877
 20
107.38667045
 30
0.0
  0
VERTEX
  5
6FD
  8
0
 10
161.54160888
 20
107.7168541
 30
0.0
  0
VERTEX
  5
6FE
  8
0
 10
162.44106549
 20
107.97914466
 30
0.0
  0
VERTEX
  5
6FF
  8
0
 10
163.66529448
 20
108.13361077
 30
0.0
  0
VERTEX
  5
700
  8
0
 10
165.0279181
 20
108.15673636
 30
0.0
  0
VERTEX
  5
701
  8
0
 10
166.32148924
 20
108.04500077
 30
0.0
  0
VERTEX
  5
702
  8
0
 10
167.34907343
 20
107.81541474
 30
0.0
  0
VERTEX
  5
703
  8
0
 10
167.95423028
 20
107.50293065
 30
0.0
  0
VERTEX
  5
704
  8
0
 10
168.04483016
 20
107.15512138
 30
0.0
  0
VERTEX
  5
705
  8
0
 10
167.60708005
 20
106.82493773
 30
0.0
  0
VERTEX
  5
706
  8
0
 10
166.70762344
 20
106.56264717
 30
0.0
  0
VERTEX
  5
707
  8
0
 10
165.48339445
 20
106.40818106
 30
0.0
  0
SEQEND
  5
708
  8
0
  0
LINE
  5
709
  8
0
 10
161.54160888
 20
106.85960365
 30
0.0
 11
161.54160888
 21
107.7168541
 31
0.0
  0
LINE
  5
70A
  8
0
 10
162.44106549
 20
106.58306235
 30
0.0
 11
162.44106549
 21
107.97914466
 31
0.0
  0
LINE
  5
70B
  8
0
 10
163.66529448
 20
106.42439843
 30
0.0
 11
163.66529448
 21
108.13361077
 31
0.0
  0
LINE
  5
70C
  8
0
 10
165.0279181
 20
106.400451
 30
0.0
 11
165.0279181
 21
108.15673636
 31
0.0
  0
LINE
  5
70D
  8
0
 10
166.32148924
 20
106.513927
 30
0.0
 11
166.32148924
 21
108.04500077
 31
0.0
  0
LINE
  5
70E
  8
0
 10
167.34907343
 20
106.74970041
 30
0.0
 11
167.34907343
 21
107.81541474
 31
0.0
  0
LINE
  5
70F
  8
0
 10
167.95423028
 20
107.08678422
 30
0.0
 11
167.95423028
 21
107.50293065
 31
0.0
  0
POLYLINE
  5
710
  8
0
 66
     1
 10
0.0
 20
0.0
 30
0.0
 70
     1
  0
VERTEX
  5
711
  8
0
 10
187.58242923
 20
116.78017786
 30
0.0
  0
VERTEX
  5
712
  8
0
 10
186.28885809
 20
116.89191344
 30
0.0
  0
VERTEX
  5
713
  8
0
 10
185.2612739
 20
117.12149948
 30
0.0
  0
VERTEX
  5
714
  8
0
 10
184.65611704
 20
117.43398356
 30
0.0
  0
VERTEX
  5
715
  8
0
 10
184.56551716
 20
117.78179284
 30
0.0
  0
VERTEX
  5
716
  8
0
 10
185.00326727
 20
118.11197649
 30
0.0
  0
VERTEX
  5
717
  8
0
 10
185.90272388
 20
118.37426705
 30
0.0
  0
VERTEX
  5
718
  8
0
 10
187.12695288
 20
118.52873315
 30
0.0
  0
VERTEX
  5
719
  8
0
 10
188.48957649
 20
118.55185875
 30
0.0
  0
VERTEX
  5
71A
  8
0
 10
189.78314763
 20
118.44012316
 30
0.0
  0
VERTEX
  5
71B
  8
0
 10
190.81073182
 20
118.21053713
 30
0.0
  0
VERTEX
  5
71C
  8
0
 10
191.41588868
 20
117.89805304
 30
0.0
  0
VERTEX
  5
71D
  8
0
 10
191.50648855
 20
117.55024377
 30
0.0
  0
VERTEX
  5
71E
  8
0
 10
191.06873845
 20
117.22006012
 30
0.0
  0
VERTEX
  5
71F
  8
0
 10
190.16928184
 20
116.95776956
 30
0.0
  0
VERTEX
  5
720
  8
0
 10
188.94505284
 20
116.80330345
 30
0.0
  0
SEQEND
  5
721
  8
0
  0
LINE
  5
722
  8
0
 10
185.00326727
 20
117.25472603
 30
0.0
 11
185.00326727
 21
118.11197649
 31
0.0
  0
LINE
  5
723
  8
0
 10
185.90272388
 20
116.97818474
 30
0.0
 11
185.90272388
 21
118.37426705
 31
0.0
  0
LINE
  5
724
  8
0
 10
187.12695288
 20
116.81952082
 30
0.0
 11
187.12695288
 21
118.52873315
 31
0.0
  0
LINE
  5
725
  8
0
 10
188.48957649
 20
116.79557339
 30
0.0
 11
188.48957649
 21
118.55185875
 31
0.0
  0
LINE
  5
726
  8
0
 10
189.78314763
 20
116.90904939
 30
0.0
 11
189.78314763
 21
118.44012316
 31
0.0
  0
LINE
  5
727
  8
0
 10
190.81073182
 20
117.1448228
 30
0.0
 11
190.81073182
 21
118.21053713
 31
0.0
  0
LINE
  5
728
  8
0
 10
191.41588868
 20
117.48190661
 30
0.0
 11
191.41588868
 21
117.89805304
 31
0.0
  0
POLYLINE
  5
729
  8
0
 66
     1
 10
0.0
 20
0.0
 30
0.0
  0
VERTEX
  5
72A
  8
0
 10
81.73686172
 20
125.48367909
 30
0.0
  0
VERTEX
  5
72B
  8
0
 10
81.69402996
 20
125.64810848
 30
0.0
  0
VERTEX
  5
72C
  8
0
 10
82.50699445
 20
126.26130669
 30
0.0
  0
VERTEX
  5
72D
  8
0
 10
84.17741386
 20
126.74841773
 30
0.0
  0
VERTEX
  5
72E
  8
0
 10
86.450982
 20
127.03528336
 30
0.0
  0
VERTEX
  5
72F
  8
0
 10
88.98156871
 20
127.07823089
 30
0.0
  0
VERTEX
  5
730
  8
0
 10
91.38391512
 20
126.87072194
 30
0.0
  0
VERTEX
  5
731
  8
0
 10
93.29228575
 20
126.44434788
 30
0.0
  0
VERTEX
  5
732
  8
0
 10
94.41614848
 20
125.86402029
 30
0.0
  0
VERTEX
  5
733
  8
0
 10
94.5844054
 20
125.21808878
 30
0.0
  0
VERTEX
  5
734
  8
0
 10
93.77144091
 20
124.60489058
 30
0.0
  0
VERTEX
  5
735
  8
0
 10
92.10102149
 20
124.11777954
 30
0.0
  0
VERTEX
  5
736
  8
0
 10
91.52225821
 20
124.04475455
 30
0.0
  0
SEQEND
  5
737
  8
0
  0
LINE
  5
738
  8
0
 10
82.50699445
 20
125.37043249
 30
0.0
 11
82.50699445
 21
126.26130669
 31
0.0
  0
LINE
  5
739
  8
0
 10
84.17741386
 20
125.12480039
 30
0.0
 11
84.17741386
 21
126.74841773
 31
0.0
  0
LINE
  5
73A
  8
0
 10
86.450982
 20
124.79047638
 30
0.0
 11
86.450982
 21
127.03528336
 31
0.0
  0
LINE
  5
73B
  8
0
 10
88.98156871
 20
124.41835826
 30
0.0
 11
88.98156871
 21
127.07823089
 31
0.0
  0
LINE
  5
73C
  8
0
 10
91.38391512
 20
124.06509764
 30
0.0
 11
91.38391512
 21
126.87072194
 31
0.0
  0
LINE
  5
73D
  8
0
 10
93.29228575
 20
124.46516413
 30
0.0
 11
93.29228575
 21
126.44434788
 31
0.0
  0
LINE
  5
73E
  8
0
 10
94.41614848
 20
125.09117692
 30
0.0
 11
94.41614848
 21
125.86402029
 31
0.0
  0
POLYLINE
  5
73F
  8
0
 66
     1
 10
0.0
 20
0.0
 30
0.0
 70
     1
  0
VERTEX
  5
740
  8
0
 10
123.27308271
 20
114.74824831
 30
0.0
  0
VERTEX
  5
741
  8
0
 10
121.97951157
 20
114.8599839
 30
0.0
  0
VERTEX
  5
742
  8
0
 10
120.95192739
 20
115.08956993
 30
0.0
  0
VERTEX
  5
743
  8
0
 10
120.34677053
 20
115.40205402
 30
0.0
  0
VERTEX
  5
744
  8
0
 10
120.25617065
 20
115.74986329
 30
0.0
  0
VERTEX
  5
745
  8
0
 10
120.69392076
 20
116.08004694
 30
0.0
  0
VERTEX
  5
746
  8
0
 10
121.59337737
 20
116.3423375
 30
0.0
  0
VERTEX
  5
747
  8
0
 10
122.81760636
 20
116.49680361
 30
0.0
  0
VERTEX
  5
748
  8
0
 10
124.18022998
 20
116.5199292
 30
0.0
  0
VERTEX
  5
749
  8
0
 10
125.47380112
 20
116.40819362
 30
0.0
  0
VERTEX
  5
74A
  8
0
 10
126.50138531
 20
116.17860758
 30
0.0
  0
VERTEX
  5
74B
  8
0
 10
127.10654216
 20
115.86612349
 30
0.0
  0
VERTEX
  5
74C
  8
0
 10
127.19714204
 20
115.51831422
 30
0.0
  0
VERTEX
  5
74D
  8
0
 10
126.75939193
 20
115.18813057
 30
0.0
  0
VERTEX
  5
74E
  8
0
 10
125.85993532
 20
114.92584001
 30
0.0
  0
VERTEX
  5
74F
  8
0
 10
124.63570633
 20
114.77137391
 30
0.0
  0
SEQEND
  5
750
  8
0
  0
LINE
  5
751
  8
0
 10
120.69392076
 20
115.22279649
 30
0.0
 11
120.69392076
 21
116.08004694
 31
0.0
  0
LINE
  5
752
  8
0
 10
121.59337737
 20
114.94625519
 30
0.0
 11
121.59337737
 21
116.3423375
 31
0.0
  0
LINE
  5
753
  8
0
 10
122.81760636
 20
114.78759127
 30
0.0
 11
122.81760636
 21
116.49680361
 31
0.0
  0
LINE
  5
754
  8
0
 10
124.18022998
 20
114.76364385
 30
0.0
 11
124.18022998
 21
116.5199292
 31
0.0
  0
LINE
  5
755
  8
0
 10
125.47380112
 20
114.87711984
 30
0.0
 11
125.47380112
 21
116.40819362
 31
0.0
  0
LINE
  5
756
  8
0
 10
126.50138531
 20
115.11289325
 30
0.0
 11
126.50138531
 21
116.17860758
 31
0.0
  0
LINE
  5
757
  8
0
 10
127.10654216
 20
115.44997706
 30
0.0
 11
127.10654216
 21
115.86612349
 31
0.0
  0
POLYLINE
  5
758
  8
0
 66
     1
 10
0.0
 20
0.0
 30
0.0
 70
     1
  0
VERTEX
  5
759
  8
0
 10
156.07771121
 20
119.05627315
 30
0.0
  0
VERTEX
  5
75A
  8
0
 10
154.78414007
 20
119.16800873
 30
0.0
  0
VERTEX
  5
75B
  8
0
 10
153.75655588
 20
119.39759476
 30
0.0
  0
VERTEX
  5
75C
  8
0
 10
153.15139902
 20
119.71007885
 30
0.0
  0
VERTEX
  5
75D
  8
0
 10
153.06079915
 20
120.05788813
 30
0.0
  0
VERTEX
  5
75E
  8
0
 10
153.49854925
 20
120.38807177
 30
0.0
  0
VERTEX
  5
75F
  8
0
 10
154.39800586
 20
120.65036233
 30
0.0
  0
VERTEX
  5
760
  8
0
 10
155.62223486
 20
120.80482844
 30
0.0
  0
VERTEX
  5
761
  8
0
 10
156.98485847
 20
120.82795403
 30
0.0
  0
VERTEX
  5
762
  8
0
 10
158.27842961
 20
120.71621845
 30
0.0
  0
VERTEX
  5
763
  8
0
 10
159.3060138
 20
120.48663242
 30
0.0
  0
VERTEX
  5
764
  8
0
 10
159.91117066
 20
120.17414833
 30
0.0
  0
VERTEX
  5
765
  8
0
 10
160.00177054
 20
119.82633905
 30
0.0
  0
VERTEX
  5
766
  8
0
 10
159.56402043
 20
119.4961554
 30
0.0
  0
VERTEX
  5
767
  8
0
 10
158.66456382
 20
119.23386485
 30
0.0
  0
VERTEX
  5
768
  8
0
 10
157.44033482
 20
119.07939874
 30
0.0
  0
SEQEND
  5
769
  8
0
  0
LINE
  5
76A
  8
0
 10
153.49854925
 20
119.53082132
 30
0.0
 11
153.49854925
 21
120.38807177
 31
0.0
  0
LINE
  5
76B
  8
0
 10
154.39800586
 20
119.25428003
 30
0.0
 11
154.39800586
 21
120.65036233
 31
0.0
  0
LINE
  5
76C
  8
0
 10
155.62223486
 20
119.0956161
 30
0.0
 11
155.62223486
 21
120.80482844
 31
0.0
  0
LINE
  5
76D
  8
0
 10
156.98485847
 20
119.07166868
 30
0.0
 11
156.98485847
 21
120.82795403
 31
0.0
  0
LINE
  5
76E
  8
0
 10
158.27842961
 20
119.18514467
 30
0.0
 11
158.27842961
 21
120.71621845
 31
0.0
  0
LINE
  5
76F
  8
0
 10
159.3060138
 20
119.42091809
 30
0.0
 11
159.3060138
 21
120.48663242
 31
0.0
  0
LINE
  5
770
  8
0
 10
159.91117066
 20
119.7580019
 30
0.0
 11
159.91117066
 21
120.17414833
 31
0.0
  0
POLYLINE
  5
771
  8
0
 66
     1
 10
0.0
 20
0.0
 30
0.0
 70
     1
  0
VERTEX
  5
772
  8
0
 10
157.93291799
 20
109.65158334
 30
0.0
  0
VERTEX
  5
773
  8
0
 10
156.63934685
 20
109.76331892
 30
0.0
  0
VERTEX
  5
774
  8
0
 10
155.61176266
 20
109.99290496
 30
0.0
  0
VERTEX
  5
775
  8
0
 10
155.00660581
 20
110.30538905
 30
0.0
  0
VERTEX
  5
776
  8
0
 10
154.91600593
 20
110.65319832
 30
0.0
  0
VERTEX
  5
777
  8
0
 10
155.35375604
 20
110.98338197
 30
0.0
  0
VERTEX
  5
778
  8
0
 10
156.25321265
 20
111.24567253
 30
0.0
  0
VERTEX
  5
779
  8
0
 10
157.47744164
 20
111.40013864
 30
0.0
  0
VERTEX
  5
77A
  8
0
 10
158.84006526
 20
111.42326423
 30
0.0
  0
VERTEX
  5
77B
  8
0
 10
160.1336364
 20
111.31152864
 30
0.0
  0
VERTEX
  5
77C
  8
0
 10
161.16122058
 20
111.08194261
 30
0.0
  0
VERTEX
  5
77D
  8
0
 10
161.76637744
 20
110.76945852
 30
0.0
  0
VERTEX
  5
77E
  8
0
 10
161.85697732
 20
110.42164925
 30
0.0
  0
VERTEX
  5
77F
  8
0
 10
161.41922721
 20
110.0914656
 30
0.0
  0
VERTEX
  5
780
  8
0
 10
160.5197706
 20
109.82917504
 30
0.0
  0
VERTEX
  5
781
  8
0
 10
159.2955416
 20
109.67470893
 30
0.0
  0
SEQEND
  5
782
  8
0
  0
LINE
  5
783
  8
0
 10
155.35375604
 20
110.12613152
 30
0.0
 11
155.35375604
 21
110.98338197
 31
0.0
  0
LINE
  5
784
  8
0
 10
156.25321265
 20
109.84959022
 30
0.0
 11
156.25321265
 21
111.24567253
 31
0.0
  0
LINE
  5
785
  8
0
 10
157.47744164
 20
109.6909263
 30
0.0
 11
157.47744164
 21
111.40013864
 31
0.0
  0
LINE
  5
786
  8
0
 10
158.84006526
 20
109.66697887
 30
0.0
 11
158.84006526
 21
111.42326423
 31
0.0
  0
LINE
  5
787
  8
0
 10
160.1336364
 20
109.78045487
 30
0.0
 11
160.1336364
 21
111.31152864
 31
0.0
  0
LINE
  5
788
  8
0
 10
161.16122058
 20
110.01622828
 30
0.0
 11
161.16122058
 21
111.08194261
 31
0.0
  0
LINE
  5
789
  8
0
 10
161.76637744
 20
110.35331209
 30
0.0
 11
161.76637744
 21
110.76945852
 31
0.0
  0
POLYLINE
  5
78A
  8
0
 66
     1
 10
0.0
 20
0.0
 30
0.0
 70
     1
  0
VERTEX
  5
78B
  8
0
 10
173.27803638
 20
116.25484339
 30
0.0
  0
VERTEX
  5
78C
  8
0
 10
171.61487348
 20
116.39850343
 30
0.0
  0
VERTEX
  5
78D
  8
0
 10
170.29369381
 20
116.69368547
 30
0.0
  0
VERTEX
  5
78E
  8
0
 10
169.515635
 20
117.09545073
 30
0.0
  0
VERTEX
  5
78F
  8
0
 10
169.39914944
 20
117.54263408
 30
0.0
  0
VERTEX
  5
790
  8
0
 10
169.96197101
 20
117.96715591
 30
0.0
  0
VERTEX
  5
791
  8
0
 10
171.11841522
 20
118.30438663
 30
0.0
  0
VERTEX
  5
792
  8
0
 10
172.69242393
 20
118.50298591
 30
0.0
  0
VERTEX
  5
793
  8
0
 10
174.44436858
 20
118.53271882
 30
0.0
  0
VERTEX
  5
794
  8
0
 10
176.10753147
 20
118.38905878
 30
0.0
  0
VERTEX
  5
795
  8
0
 10
177.42871114
 20
118.09387674
 30
0.0
  0
VERTEX
  5
796
  8
0
 10
178.20676996
 20
117.69211148
 30
0.0
  0
VERTEX
  5
797
  8
0
 10
178.32325551
 20
117.24492813
 30
0.0
  0
VERTEX
  5
798
  8
0
 10
177.76043395
 20
116.82040629
 30
0.0
  0
VERTEX
  5
799
  8
0
 10
176.60398973
 20
116.48317558
 30
0.0
  0
VERTEX
  5
79A
  8
0
 10
175.02998103
 20
116.28457629
 30
0.0
  0
SEQEND
  5
79B
  8
0
  0
LINE
  5
79C
  8
0
 10
169.96197101
 20
116.86497676
 30
0.0
 11
169.96197101
 21
117.96715591
 31
0.0
  0
LINE
  5
79D
  8
0
 10
171.11841522
 20
116.50942367
 30
0.0
 11
171.11841522
 21
118.30438663
 31
0.0
  0
LINE
  5
79E
  8
0
 10
172.69242393
 20
116.30542719
 30
0.0
 11
172.69242393
 21
118.50298591
 31
0.0
  0
LINE
  5
79F
  8
0
 10
174.44436858
 20
116.27463765
 30
0.0
 11
174.44436858
 21
118.53271882
 31
0.0
  0
LINE
  5
7A0
  8
0
 10
176.10753147
 20
116.42053535
 30
0.0
 11
176.10753147
 21
118.38905878
 31
0.0
  0
LINE
  5
7A1
  8
0
 10
177.42871114
 20
116.7236726
 30
0.0
 11
177.42871114
 21
118.09387674
 31
0.0
  0
LINE
  5
7A2
  8
0
 10
178.20676996
 20
117.15706607
 30
0.0
 11
178.20676996
 21
117.69211148
 31
0.0
  0
POLYLINE
  5
7A3
  8
0
 66
     1
 10
0.0
 20
0.0
 30
0.0
 70
     1
  0
VERTEX
  5
7A4
  8
0
 10
140.47340788
 20
111.94681856
 30
0.0
  0
VERTEX
  5
7A5
  8
0
 10
138.81024499
 20
112.09047859
 30
0.0
  0
VERTEX
  5
7A6
  8
0
 10
137.48906532
 20
112.38566064
 30
0.0
  0
VERTEX
  5
7A7
  8
0
 10
136.71100651
 20
112.78742589
 30
0.0
  0
VERTEX
  5
7A8
  8
0
 10
136.59452095
 20
113.23460924
 30
0.0
  0
VERTEX
  5
7A9
  8
0
 10
137.15734252
 20
113.65913108
 30
0.0
  0
VERTEX
  5
7AA
  8
0
 10
138.31378673
 20
113.9963618
 30
0.0
  0
VERTEX
  5
7AB
  8
0
 10
139.88779544
 20
114.19496108
 30
0.0
  0
VERTEX
  5
7AC
  8
0
 10
141.63974008
 20
114.22469398
 30
0.0
  0
VERTEX
  5
7AD
  8
0
 10
143.30290298
 20
114.08103395
 30
0.0
  0
VERTEX
  5
7AE
  8
0
 10
144.62408265
 20
113.7858519
 30
0.0
  0
VERTEX
  5
7AF
  8
0
 10
145.40214146
 20
113.38408665
 30
0.0
  0
VERTEX
  5
7B0
  8
0
 10
145.51862702
 20
112.9369033
 30
0.0
  0
VERTEX
  5
7B1
  8
0
 10
144.95580545
 20
112.51238146
 30
0.0
  0
VERTEX
  5
7B2
  8
0
 10
143.79936124
 20
112.17515074
 30
0.0
  0
VERTEX
  5
7B3
  8
0
 10
142.22535253
 20
111.97655146
 30
0.0
  0
SEQEND
  5
7B4
  8
0
  0
LINE
  5
7B5
  8
0
 10
137.15734252
 20
112.55695193
 30
0.0
 11
137.15734252
 21
113.65913108
 31
0.0
  0
LINE
  5
7B6
  8
0
 10
138.31378673
 20
112.20139883
 30
0.0
 11
138.31378673
 21
113.9963618
 31
0.0
  0
LINE
  5
7B7
  8
0
 10
139.88779544
 20
111.99740236
 30
0.0
 11
139.88779544
 21
114.19496108
 31
0.0
  0
LINE
  5
7B8
  8
0
 10
141.63974008
 20
111.96661281
 30
0.0
 11
141.63974008
 21
114.22469398
 31
0.0
  0
LINE
  5
7B9
  8
0
 10
143.30290298
 20
112.11251052
 30
0.0
 11
143.30290298
 21
114.08103395
 31
0.0
  0
LINE
  5
7BA
  8
0
 10
144.62408265
 20
112.41564777
 30
0.0
 11
144.62408265
 21
113.7858519
 31
0.0
  0
LINE
  5
7BB
  8
0
 10
145.40214146
 20
112.84904124
 30
0.0
 11
145.40214146
 21
113.38408665
 31
0.0
  0
POLYLINE
  5
7BC
  8
0
 66
     1
 10
0.0
 20
0.0
 30
0.0
 70
     1
  0
VERTEX
  5
7BD
  8
0
 10
112.62332464
 20
125.17400709
 30
0.0
  0
VERTEX
  5
7BE
  8
0
 10
110.96016175
 20
125.31766713
 30
0.0
  0
VERTEX
  5
7BF
  8
0
 10
109.63898208
 20
125.61284917
 30
0.0
  0
VERTEX
  5
7C0
  8
0
 10
108.86092327
 20
126.01461443
 30
0.0
  0
VERTEX
  5
7C1
  8
0
 10
108.74443771
 20
126.46179778
 30
0.0
  0
VERTEX
  5
7C2
  8
0
 10
109.30725928
 20
126.88631962
 30
0.0
  0
VERTEX
  5
7C3
  8
0
 10
110.46370349
 20
127.22355033
 30
0.0
  0
VERTEX
  5
7C4
  8
0
 10
112.0377122
 20
127.42214962
 30
0.0
  0
VERTEX
  5
7C5
  8
0
 10
113.78965684
 20
127.45188252
 30
0.0
  0
VERTEX
  5
7C6
  8
0
 10
115.45281974
 20
127.30822248
 30
0.0
  0
VERTEX
  5
7C7
  8
0
 10
116.77399941
 20
127.01304044
 30
0.0
  0
VERTEX
  5
7C8
  8
0
 10
117.55205822
 20
126.61127518
 30
0.0
  0
VERTEX
  5
7C9
  8
0
 10
117.66854378
 20
126.16409183
 30
0.0
  0
VERTEX
  5
7CA
  8
0
 10
117.10572221
 20
125.73957
 30
0.0
  0
VERTEX
  5
7CB
  8
0
 10
115.949278
 20
125.40233928
 30
0.0
  0
VERTEX
  5
7CC
  8
0
 10
114.37526929
 20
125.20374
 30
0.0
  0
SEQEND
  5
7CD
  8
0
  0
LINE
  5
7CE
  8
0
 10
109.30725928
 20
125.78414046
 30
0.0
 11
109.30725928
 21
126.88631962
 31
0.0
  0
LINE
  5
7CF
  8
0
 10
110.46370349
 20
125.42858737
 30
0.0
 11
110.46370349
 21
127.22355033
 31
0.0
  0
LINE
  5
7D0
  8
0
 10
112.0377122
 20
125.2245909
 30
0.0
 11
112.0377122
 21
127.42214962
 31
0.0
  0
LINE
  5
7D1
  8
0
 10
113.78965684
 20
125.19380135
 30
0.0
 11
113.78965684
 21
127.45188252
 31
0.0
  0
LINE
  5
7D2
  8
0
 10
115.45281974
 20
125.33969906
 30
0.0
 11
115.45281974
 21
127.30822248
 31
0.0
  0
LINE
  5
7D3
  8
0
 10
116.77399941
 20
125.6428363
 30
0.0
 11
116.77399941
 21
127.01304044
 31
0.0
  0
LINE
  5
7D4
  8
0
 10
117.55205822
 20
126.07622977
 30
0.0
 11
117.55205822
 21
126.61127518
 31
0.0
  0
POLYLINE
  5
7D5
  8
0
 66
     1
 10
0.0
 20
0.0
 30
0.0
 70
     1
  0
VERTEX
  5
7D6
  8
0
 10
130.62166074
 20
117.41713516
 30
0.0
  0
VERTEX
  5
7D7
  8
0
 10
128.21931434
 20
117.62464411
 30
0.0
  0
VERTEX
  5
7D8
  8
0
 10
126.3109437
 20
118.05101817
 30
0.0
  0
VERTEX
  5
7D9
  8
0
 10
125.18708097
 20
118.63134576
 30
0.0
  0
VERTEX
  5
7DA
  8
0
 10
125.01882405
 20
119.27727727
 30
0.0
  0
VERTEX
  5
7DB
  8
0
 10
125.83178854
 20
119.89047547
 30
0.0
  0
VERTEX
  5
7DC
  8
0
 10
127.50220796
 20
120.37758651
 30
0.0
  0
VERTEX
  5
7DD
  8
0
 10
129.77577609
 20
120.66445214
 30
0.0
  0
VERTEX
  5
7DE
  8
0
 10
132.30636281
 20
120.70739967
 30
0.0
  0
VERTEX
  5
7DF
  8
0
 10
134.70870921
 20
120.49989073
 30
0.0
  0
VERTEX
  5
7E0
  8
0
 10
136.61707984
 20
120.07351666
 30
0.0
  0
VERTEX
  5
7E1
  8
0
 10
137.74094258
 20
119.49318907
 30
0.0
  0
VERTEX
  5
7E2
  8
0
 10
137.90919949
 20
118.84725757
 30
0.0
  0
VERTEX
  5
7E3
  8
0
 10
137.09623501
 20
118.23405936
 30
0.0
  0
VERTEX
  5
7E4
  8
0
 10
135.42581559
 20
117.74694832
 30
0.0
  0
VERTEX
  5
7E5
  8
0
 10
133.15224745
 20
117.46008269
 30
0.0
  0
SEQEND
  5
7E6
  8
0
  0
LINE
  5
7E7
  8
0
 10
125.83178854
 20
118.29843892
 30
0.0
 11
125.83178854
 21
119.89047547
 31
0.0
  0
LINE
  5
7E8
  8
0
 10
127.50220796
 20
117.78486223
 30
0.0
 11
127.50220796
 21
120.37758651
 31
0.0
  0
LINE
  5
7E9
  8
0
 10
129.77577609
 20
117.49020066
 30
0.0
 11
129.77577609
 21
120.66445214
 31
0.0
  0
LINE
  5
7EA
  8
0
 10
132.30636281
 20
117.44572687
 30
0.0
 11
132.30636281
 21
120.70739967
 31
0.0
  0
LINE
  5
7EB
  8
0
 10
134.70870921
 20
117.656468
 30
0.0
 11
134.70870921
 21
120.49989073
 31
0.0
  0
LINE
  5
7EC
  8
0
 10
136.61707984
 20
118.09433291
 30
0.0
 11
136.61707984
 21
120.07351666
 31
0.0
  0
LINE
  5
7ED
  8
0
 10
137.74094258
 20
118.7203457
 30
0.0
 11
137.74094258
 21
119.49318907
 31
0.0
  0
POLYLINE
  5
7EE
  8
0
 66
     1
 10
0.0
 20
0.0
 30
0.0
 70
     1
  0
VERTEX
  5
7EF
  8
0
 10
138.74779357
 20
121.60460563
 30
0.0
  0
VERTEX
  5
7F0
  8
0
 10
137.45422243
 20
121.71634122
 30
0.0
  0
VERTEX
  5
7F1
  8
0
 10
136.42663824
 20
121.94592725
 30
0.0
  0
VERTEX
  5
7F2
  8
0
 10
135.82148139
 20
122.25841134
 30
0.0
  0
VERTEX
  5
7F3
  8
0
 10
135.73088151
 20
122.60622061
 30
0.0
  0
VERTEX
  5
7F4
  8
0
 10
136.16863162
 20
122.93640426
 30
0.0
  0
VERTEX
  5
7F5
  8
0
 10
137.06808822
 20
123.19869482
 30
0.0
  0
VERTEX
  5
7F6
  8
0
 10
138.29231722
 20
123.35316093
 30
0.0
  0
VERTEX
  5
7F7
  8
0
 10
139.65494084
 20
123.37628652
 30
0.0
  0
VERTEX
  5
7F8
  8
0
 10
140.94851198
 20
123.26455094
 30
0.0
  0
VERTEX
  5
7F9
  8
0
 10
141.97609616
 20
123.0349649
 30
0.0
  0
VERTEX
  5
7FA
  8
0
 10
142.58125302
 20
122.72248081
 30
0.0
  0
VERTEX
  5
7FB
  8
0
 10
142.6718529
 20
122.37467154
 30
0.0
  0
VERTEX
  5
7FC
  8
0
 10
142.23410279
 20
122.04448789
 30
0.0
  0
VERTEX
  5
7FD
  8
0
 10
141.33464618
 20
121.78219733
 30
0.0
  0
VERTEX
  5
7FE
  8
0
 10
140.11041718
 20
121.62773122
 30
0.0
  0
SEQEND
  5
7FF
  8
0
  0
LINE
  5
800
  8
0
 10
136.16863162
 20
122.07915381
 30
0.0
 11
136.16863162
 21
122.93640426
 31
0.0
  0
LINE
  5
801
  8
0
 10
137.06808822
 20
121.80261251
 30
0.0
 11
137.06808822
 21
123.19869482
 31
0.0
  0
LINE
  5
802
  8
0
 10
138.29231722
 20
121.64394859
 30
0.0
 11
138.29231722
 21
123.35316093
 31
0.0
  0
LINE
  5
803
  8
0
 10
139.65494084
 20
121.62000117
 30
0.0
 11
139.65494084
 21
123.37628652
 31
0.0
  0
LINE
  5
804
  8
0
 10
140.94851198
 20
121.73347716
 30
0.0
 11
140.94851198
 21
123.26455094
 31
0.0
  0
LINE
  5
805
  8
0
 10
141.97609616
 20
121.96925057
 30
0.0
 11
141.97609616
 21
123.0349649
 31
0.0
  0
LINE
  5
806
  8
0
 10
142.58125302
 20
122.30633438
 30
0.0
 11
142.58125302
 21
122.72248081
 31
0.0
  0
POLYLINE
  5
807
  8
0
 66
     1
 10
0.0
 20
0.0
 30
0.0
 70
     1
  0
VERTEX
  5
808
  8
0
 10
162.00332949
 20
116.48626706
 30
0.0
  0
VERTEX
  5
809
  8
0
 10
176.73375948
 20
114.32018445
 30
0.0
  0
VERTEX
  5
80A
  8
0
 10
178.64213012
 20
113.89381038
 30
0.0
  0
VERTEX
  5
80B
  8
0
 10
179.76599285
 20
113.31348279
 30
0.0
  0
VERTEX
  5
80C
  8
0
 10
179.93424977
 20
112.66755129
 30
0.0
  0
VERTEX
  5
80D
  8
0
 10
179.12128528
 20
112.05435308
 30
0.0
  0
VERTEX
  5
80E
  8
0
 10
177.45086586
 20
111.56724204
 30
0.0
  0
VERTEX
  5
80F
  8
0
 10
175.17729773
 20
111.28037641
 30
0.0
  0
VERTEX
  5
810
  8
0
 10
172.64671101
 20
111.23742888
 30
0.0
  0
VERTEX
  5
811
  8
0
 10
170.24436461
 20
111.44493783
 30
0.0
  0
VERTEX
  5
812
  8
0
 10
155.51393462
 20
113.61102044
 30
0.0
  0
VERTEX
  5
813
  8
0
 10
153.60556398
 20
114.0373945
 30
0.0
  0
VERTEX
  5
814
  8
0
 10
152.48170125
 20
114.61772209
 30
0.0
  0
VERTEX
  5
815
  8
0
 10
152.31344433
 20
115.2636536
 30
0.0
  0
VERTEX
  5
816
  8
0
 10
153.12640882
 20
115.87685181
 30
0.0
  0
VERTEX
  5
817
  8
0
 10
154.79682824
 20
116.36396285
 30
0.0
  0
VERTEX
  5
818
  8
0
 10
157.07039637
 20
116.65082847
 30
0.0
  0
VERTEX
  5
819
  8
0
 10
159.60098309
 20
116.693776
 30
0.0
  0
SEQEND
  5
81A
  8
0
  0
LINE
  5
81B
  8
0
 10
178.64213012
 20
113.89381038
 30
0.0
 11
178.64213012
 21
111.91462663
 31
0.0
  0
LINE
  5
81C
  8
0
 10
179.76599285
 20
113.31348279
 30
0.0
 11
179.76599285
 21
112.54063942
 31
0.0
  0
LINE
  5
81D
  8
0
 10
159.60098309
 20
116.693776
 30
0.0
 11
159.60098309
 21
113.01002749
 31
0.0
  0
LINE
  5
81E
  8
0
 10
157.07039637
 20
116.65082847
 30
0.0
 11
157.07039637
 21
113.3821456
 31
0.0
  0
LINE
  5
81F
  8
0
 10
154.79682824
 20
116.36396285
 30
0.0
 11
154.79682824
 21
113.77123856
 31
0.0
  0
LINE
  5
820
  8
0
 10
153.12640882
 20
115.87685181
 30
0.0
 11
153.12640882
 21
114.28481525
 31
0.0
  0
POLYLINE
  5
821
  8
0
 66
     1
 10
0.0
 20
0.0
 30
0.0
  0
VERTEX
  5
822
  8
0
 10
161.15065332
 20
99.25775584
 30
0.0
  0
VERTEX
  5
823
  8
0
 10
161.15065332
 20
104.09213167
 30
0.0
  0
VERTEX
  5
824
  8
0
 10
113.49337981
 20
111.10004601
 30
0.0
  0
SEQEND
  5
825
  8
0
  0
LINE
  5
826
  8
0
 10
113.49337981
 20
106.26567018
 30
0.0
 11
113.49337981
 21
111.10004601
 31
0.0
  0
LINE
  5
827
  8
0
 10
161.15065332
 20
99.25775584
 30
0.0
 11
113.49337981
 21
106.26567018
 31
0.0
  0
LINE
  5
828
  8
0
 10
162.64820598
 20
99.92127429
 30
0.0
 11
161.15065332
 21
99.25775584
 31
0.0
  0
POLYLINE
  5
829
  8
0
 66
     1
 10
0.0
 20
0.0
 30
0.0
  0
VERTEX
  5
82A
  8
0
 10
162.64820598
 20
99.92127429
 30
0.0
  0
VERTEX
  5
82B
  8
0
 10
162.64820598
 20
104.75565013
 30
0.0
  0
VERTEX
  5
82C
  8
0
 10
161.15065332
 20
104.09213167
 30
0.0
  0
SEQEND
  5
82D
  8
0
  0
LINE
  5
82E
  8
0
 10
167.84718127
 20
103.99115038
 30
0.0
 11
162.64820598
 21
104.75565013
 31
0.0
  0
LINE
  5
82F
  8
0
 10
167.84718127
 20
99.15677454
 30
0.0
 11
167.84718127
 21
103.99115038
 31
0.0
  0
LINE
  5
830
  8
0
 10
167.84718127
 20
99.15677454
 30
0.0
 11
162.64820598
 21
99.92127429
 31
0.0
  0
LINE
  5
831
  8
0
 10
174.30827013
 20
99.97414495
 30
0.0
 11
167.84718127
 21
99.15677454
 31
0.0
  0
POLYLINE
  5
832
  8
0
 66
     1
 10
0.0
 20
0.0
 30
0.0
  0
VERTEX
  5
833
  8
0
 10
174.30827013
 20
99.97414495
 30
0.0
  0
VERTEX
  5
834
  8
0
 10
174.30827013
 20
104.80852078
 30
0.0
  0
VERTEX
  5
835
  8
0
 10
167.84718127
 20
103.99115038
 30
0.0
  0
SEQEND
  5
836
  8
0
  0
LINE
  5
837
  8
0
 10
201.26421807
 20
116.75185289
 30
0.0
 11
174.30827013
 21
104.80852078
 31
0.0
  0
LINE
  5
838
  8
0
 10
201.26421807
 20
111.91747705
 30
0.0
 11
201.26421807
 21
116.75185289
 31
0.0
  0
LINE
  5
839
  8
0
 10
201.26421807
 20
111.91747705
 30
0.0
 11
174.30827013
 21
99.97414495
 31
0.0
  0
LINE
  5
83A
  8
0
 10
200.79333987
 20
118.58855629
 30
0.0
 11
201.26421807
 21
116.75185289
 31
0.0
  0
LINE
  5
83B
  8
0
 10
195.59436458
 20
119.35305603
 30
0.0
 11
200.79333987
 21
118.58855629
 31
0.0
  0
LINE
  5
83C
  8
0
 10
197.09191724
 20
120.01657448
 30
0.0
 11
195.59436458
 21
119.35305603
 31
0.0
  0
LINE
  5
83D
  8
0
 10
149.43464374
 20
127.02448882
 30
0.0
 11
197.09191724
 21
120.01657448
 31
0.0
  0
LINE
  5
83E
  8
0
 10
146.26994258
 20
125.62230935
 30
0.0
 11
149.43464374
 21
127.02448882
 31
0.0
  0
LINE
  5
83F
  8
0
 10
146.26994258
 20
125.62230935
 30
0.0
 11
141.94688042
 21
123.70689657
 31
0.0
  0
LINE
  5
840
  8
0
 10
116.65808096
 20
112.50222549
 30
0.0
 11
120.98114313
 21
114.41763826
 31
0.0
  0
LINE
  5
841
  8
0
 10
113.49337981
 20
111.10004601
 30
0.0
 11
116.65808096
 21
112.50222549
 31
0.0
  0
LINE
  5
842
  8
0
 10
114.91707767
 20
113.72211665
 30
0.0
 11
116.65808096
 21
112.50222549
 31
0.0
  0
LINE
  5
843
  8
0
 10
114.91707767
 20
113.72211665
 30
0.0
 11
109.80004462
 21
117.95040468
 31
0.0
  0
LINE
  5
844
  8
0
 10
107.3243421
 20
120.24820251
 30
0.0
 11
109.80004462
 21
117.95040468
 31
0.0
  0
LINE
  5
845
  8
0
 10
109.82026321
 20
121.35406659
 30
0.0
 11
107.3243421
 21
120.24820251
 31
0.0
  0
LINE
  5
846
  8
0
 10
112.29596573
 20
119.05626876
 30
0.0
 11
109.82026321
 21
121.35406659
 31
0.0
  0
LINE
  5
847
  8
0
 10
114.85448225
 20
116.94212475
 30
0.0
 11
112.29596573
 21
119.05626876
 31
0.0
  0
LINE
  5
848
  8
0
 10
117.40346919
 20
115.31819778
 30
0.0
 11
114.85448225
 21
116.94212475
 31
0.0
  0
LINE
  5
849
  8
0
 10
119.55486639
 20
114.43171601
 30
0.0
 11
117.40346919
 21
115.31819778
 31
0.0
  0
LINE
  5
84A
  8
0
 10
51.0304158
 20
176.03129217
 30
0.0
 11
51.03611528
 21
176.35053631
 31
0.0
  0
LINE
  5
84B
  8
0
 10
47.95286951
 20
174.66772824
 30
0.0
 11
51.0304158
 21
176.03129217
 31
0.0
  0
POLYLINE
  5
84C
  8
0
 66
     1
 10
0.0
 20
0.0
 30
0.0
  0
VERTEX
  5
84D
  8
0
 10
47.95286951
 20
174.66772824
 30
0.0
  0
VERTEX
  5
84E
  8
0
 10
47.33841041
 20
174.90681446
 30
0.0
  0
VERTEX
  5
84F
  8
0
 10
44.17370926
 20
173.50463499
 30
0.0
  0
VERTEX
  5
850
  8
0
 10
44.17370926
 20
179.30588599
 30
0.0
  0
VERTEX
  5
851
  8
0
 10
45.67126192
 20
179.96940444
 30
0.0
  0
VERTEX
  5
852
  8
0
 10
45.67126192
 20
185.77065545
 30
0.0
  0
VERTEX
  5
853
  8
0
 10
48.66636725
 20
190.96519302
 30
0.0
  0
VERTEX
  5
854
  8
0
 10
75.62231519
 20
202.90852512
 30
0.0
  0
VERTEX
  5
855
  8
0
 10
78.61742052
 20
200.36806135
 30
0.0
  0
VERTEX
  5
856
  8
0
 10
78.61742052
 20
194.56681035
 30
0.0
  0
VERTEX
  5
857
  8
0
 10
80.11497318
 20
195.2303288
 30
0.0
  0
VERTEX
  5
858
  8
0
 10
80.11497318
 20
189.4290778
 30
0.0
  0
VERTEX
  5
859
  8
0
 10
76.95027203
 20
188.02689832
 30
0.0
  0
SEQEND
  5
85A
  8
0
  0
LINE
  5
85B
  8
0
 10
78.06880473
 20
188.01115124
 30
0.0
 11
76.95027203
 21
188.02689832
 31
0.0
  0
LINE
  5
85C
  8
0
 10
74.99125841
 20
186.64758737
 30
0.0
 11
78.06880473
 21
188.01115124
 31
0.0
  0
POLYLINE
  5
85D
  8
0
 66
     1
 10
0.0
 20
0.0
 30
0.0
  0
VERTEX
  5
85E
  8
0
 10
74.99125841
 20
186.64758737
 30
0.0
  0
VERTEX
  5
85F
  8
0
 10
75.66104644
 20
186.06530831
 30
0.0
  0
VERTEX
  5
860
  8
0
 10
77.60765161
 20
183.85779573
 30
0.0
  0
SEQEND
  5
861
  8
0
  0
LINE
  5
862
  8
0
 10
79.45561038
 20
181.05526555
 30
0.0
 11
77.60765161
 21
183.85779573
 31
0.0
  0
LINE
  5
863
  8
0
 10
81.18860214
 20
178.03793182
 30
0.0
 11
79.45561038
 21
181.05526555
 31
0.0
  0
LINE
  5
864
  8
0
 10
81.18860214
 20
178.03793182
 30
0.0
 11
83.68452325
 21
179.14379591
 31
0.0
  0
LINE
  5
865
  8
0
 10
83.68452325
 20
141.98816448
 30
0.0
 11
83.68452325
 21
179.14379591
 31
0.0
  0
LINE
  5
866
  8
0
 10
81.18860214
 20
140.8823004
 30
0.0
 11
83.68452325
 21
141.98816448
 31
0.0
  0
LINE
  5
867
  8
0
 10
135.7778427
 20
132.85505307
 30
0.0
 11
81.18860214
 21
140.8823004
 31
0.0
  0
LINE
  5
868
  8
0
 10
138.27376381
 20
133.96091715
 30
0.0
 11
135.7778427
 21
132.85505307
 31
0.0
  0
LINE
  5
869
  8
0
 10
140.74946633
 20
131.66311932
 30
0.0
 11
138.27376381
 21
133.96091715
 31
0.0
  0
LINE
  5
86A
  8
0
 10
145.10653666
 20
127.09811573
 30
0.0
 11
140.74946633
 21
131.66311932
 31
0.0
  0
LINE
  5
86B
  8
0
 10
146.26994258
 20
125.62230935
 30
0.0
 11
145.10653666
 21
127.09811573
 31
0.0
  0
LINE
  5
86C
  8
0
 10
138.27376381
 20
133.96091715
 30
0.0
 11
83.68452325
 21
141.98816448
 31
0.0
  0
POLYLINE
  5
86D
  8
0
 66
     1
 10
0.0
 20
0.0
 30
0.0
  0
VERTEX
  5
86E
  8
0
 10
135.7778427
 20
132.85505307
 30
0.0
  0
VERTEX
  5
86F
  8
0
 10
138.25354522
 20
130.55725523
 30
0.0
  0
VERTEX
  5
870
  8
0
 10
140.43208039
 20
128.27475344
 30
0.0
  0
VERTEX
  5
871
  8
0
 10
141.89897196
 20
126.17138407
 30
0.0
  0
VERTEX
  5
872
  8
0
 10
142.43089899
 20
124.56736604
 30
0.0
  0
VERTEX
  5
873
  8
0
 10
141.94688042
 20
123.70689657
 30
0.0
  0
SEQEND
  5
874
  8
0
  0
LINE
  5
875
  8
0
 10
136.71074872
 20
125.40850361
 30
0.0
 11
76.25686884
 21
134.29813536
 31
0.0
  0
POLYLINE
  5
876
  8
0
 66
     1
 10
0.0
 20
0.0
 30
0.0
  0
VERTEX
  5
877
  8
0
 10
62.6855979
 20
128.28513236
 30
0.0
  0
VERTEX
  5
878
  8
0
 10
76.25686884
 20
134.29813536
 30
0.0
  0
VERTEX
  5
879
  8
0
 10
75.66104644
 20
135.91154908
 30
0.0
  0
SEQEND
  5
87A
  8
0
  0
POLYLINE
  5
87B
  8
0
 66
     1
 10
0.0
 20
0.0
 30
0.0
  0
VERTEX
  5
87C
  8
0
 10
59.50418663
 20
128.75295303
 30
0.0
  0
VERTEX
  5
87D
  8
0
 10
75.66104644
 20
135.91154908
 30
0.0
  0
VERTEX
  5
87E
  8
0
 10
73.91214788
 20
137.25926761
 30
0.0
  0
SEQEND
  5
87F
  8
0
  0
POLYLINE
  5
880
  8
0
 66
     1
 10
0.0
 20
0.0
 30
0.0
  0
VERTEX
  5
881
  8
0
 10
72.62720987
 20
186.11148554
 30
0.0
  0
VERTEX
  5
882
  8
0
 10
73.91214788
 20
186.48618634
 30
0.0
  0
VERTEX
  5
883
  8
0
 10
74.99125841
 20
186.64758737
 30
0.0
  0
SEQEND
  5
884
  8
0
  0
LINE
  5
885
  8
0
 10
73.91214788
 20
137.25926761
 30
0.0
 11
73.91214788
 21
179.23235981
 31
0.0
  0
LINE
  5
886
  8
0
 10
55.90727013
 20
129.28187298
 30
0.0
 11
73.91214788
 21
137.25926761
 31
0.0
  0
LINE
  5
887
  8
0
 10
51.0304158
 20
176.03129217
 30
0.0
 11
51.16554368
 21
175.21212202
 31
0.0
  0
LINE
  5
888
  8
0
 10
52.03005347
 20
172.52516704
 30
0.0
 11
51.16554368
 21
175.21212202
 31
0.0
  0
LINE
  5
889
  8
0
 10
53.49803088
 20
169.55427908
 30
0.0
 11
52.03005347
 21
172.52516704
 31
0.0
  0
LINE
  5
88A
  8
0
 10
55.23102265
 20
166.53694535
 30
0.0
 11
53.49803088
 21
169.55427908
 31
0.0
  0
POLYLINE
  5
88B
  8
0
 66
     1
 10
0.0
 20
0.0
 30
0.0
  0
VERTEX
  5
88C
  8
0
 10
55.23102265
 20
166.53694535
 30
0.0
  0
VERTEX
  5
88D
  8
0
 10
55.23102265
 20
129.38131393
 30
0.0
  0
VERTEX
  5
88E
  8
0
 10
109.82026321
 20
121.35406659
 30
0.0
  0
SEQEND
  5
88F
  8
0
  0
LINE
  5
890
  8
0
 10
52.73510154
 20
128.27544984
 30
0.0
 11
55.23102265
 21
129.38131393
 31
0.0
  0
LINE
  5
891
  8
0
 10
107.3243421
 20
120.24820251
 30
0.0
 11
52.73510154
 21
128.27544984
 31
0.0
  0
LINE
  5
892
  8
0
 10
52.73510154
 20
165.43108127
 30
0.0
 11
52.73510154
 21
128.27544984
 31
0.0
  0
LINE
  5
893
  8
0
 10
52.73510154
 20
165.43108127
 30
0.0
 11
55.23102265
 21
166.53694535
 31
0.0
  0
LINE
  5
894
  8
0
 10
51.00210978
 20
168.448415
 30
0.0
 11
52.73510154
 21
165.43108127
 31
0.0
  0
LINE
  5
895
  8
0
 10
48.06615496
 20
174.39019091
 30
0.0
 11
51.00210978
 21
168.448415
 31
0.0
  0
LINE
  5
896
  8
0
 10
47.95286951
 20
174.66772824
 30
0.0
 11
48.06615496
 21
174.39019091
 31
0.0
  0
LINE
  5
897
  8
0
 10
51.00210978
 20
126.59653276
 30
0.0
 11
50.33767375
 21
126.20972984
 31
0.0
  0
LINE
  5
898
  8
0
 10
46.33713537
 20
123.20932166
 30
0.0
 11
49.0220348
 21
123.39364443
 31
0.0
  0
LINE
  5
899
  8
0
 10
48.06615496
 20
124.78450141
 30
0.0
 11
47.61240921
 21
124.45447119
 31
0.0
  0
LINE
  5
89A
  8
0
 10
49.11725173
 20
125.47429913
 30
0.0
 11
48.56883448
 21
125.12413451
 31
0.0
  0
LINE
  5
89B
  8
0
 10
49.70807881
 20
125.835893
 30
0.0
 11
49.11725173
 21
125.47429913
 31
0.0
  0
LINE
  5
89C
  8
0
 10
50.33767375
 20
126.20972984
 30
0.0
 11
49.70807881
 21
125.835893
 31
0.0
  0
LINE
  5
89D
  8
0
 10
51.00210978
 20
126.59653276
 30
0.0
 11
50.5751619
 21
125.90980767
 31
0.0
  0
LINE
  5
89E
  8
0
 10
48.2169551
 20
121.43255155
 30
0.0
 11
48.04064873
 21
121.05796616
 31
0.0
  0
LINE
  5
89F
  8
0
 10
49.32737892
 20
123.76148981
 30
0.0
 11
49.0220348
 21
123.39364443
 31
0.0
  0
LINE
  5
8A0
  8
0
 10
47.61240921
 20
124.45447119
 30
0.0
 11
47.21029182
 21
124.13301678
 31
0.0
  0
LINE
  5
8A1
  8
0
 10
48.56883448
 20
125.12413451
 30
0.0
 11
48.06615496
 21
124.78450141
 31
0.0
  0
LINE
  5
8A2
  8
0
 10
48.41664275
 20
121.85617639
 30
0.0
 11
48.2169551
 21
121.43255155
 31
0.0
  0
LINE
  5
8A3
  8
0
 10
48.64123731
 20
122.3258854
 30
0.0
 11
48.41664275
 21
121.85617639
 31
0.0
  0
LINE
  5
8A4
  8
0
 10
48.89208107
 20
122.83838224
 30
0.0
 11
48.64123731
 21
122.3258854
 31
0.0
  0
POLYLINE
  5
8A5
  8
0
 66
     1
 10
0.0
 20
0.0
 30
0.0
  0
VERTEX
  5
8A6
  8
0
 10
47.21029182
 20
124.13301678
 30
0.0
  0
VERTEX
  5
8A7
  8
0
 10
46.86234655
 20
123.81908655
 30
0.0
  0
VERTEX
  5
8A8
  8
0
 10
46.5707182
 20
123.51157301
 30
0.0
  0
VERTEX
  5
8A9
  8
0
 10
46.33713537
 20
123.20932166
 30
0.0
  0
SEQEND
  5
8AA
  8
0
  0
LINE
  5
8AB
  8
0
 10
51.66147258
 20
176.82222724
 30
0.0
 11
47.33841041
 21
174.90681446
 31
0.0
  0
LINE
  5
8AC
  8
0
 10
51.03611528
 20
176.35053631
 30
0.0
 11
51.66147258
 21
176.82222724
 31
0.0
  0
POLYLINE
  5
8AD
  8
0
 66
     1
 10
0.0
 20
0.0
 30
0.0
  0
VERTEX
  5
8AE
  8
0
 10
46.33713537
 20
123.20932166
 30
0.0
  0
VERTEX
  5
8AF
  8
0
 10
46.16315857
 20
123.89835894
 30
0.0
  0
VERTEX
  5
8B0
  8
0
 10
46.04973747
 20
124.59027619
 30
0.0
  0
SEQEND
  5
8B1
  8
0
  0
LINE
  5
8B2
  8
0
 10
45.99764552
 20
125.28385336
 30
0.0
 11
46.0645501
 21
167.79322382
 31
0.0
  0
LINE
  5
8B3
  8
0
 10
46.04973747
 20
124.59027619
 30
0.0
 11
45.99764552
 21
125.28385336
 31
0.0
  0
LINE
  5
8B4
  8
0
 10
49.17032225
 20
123.39005601
 30
0.0
 11
48.89208107
 21
122.83838224
 31
0.0
  0
POLYLINE
  5
8B5
  8
0
 66
     1
 10
0.0
 20
0.0
 30
0.0
  0
VERTEX
  5
8B6
  8
0
 10
49.81298103
 20
124.5956673
 30
0.0
  0
VERTEX
  5
8B7
  8
0
 10
49.47702982
 20
123.97718076
 30
0.0
  0
VERTEX
  5
8B8
  8
0
 10
49.17032225
 20
123.39005601
 30
0.0
  0
SEQEND
  5
8B9
  8
0
  0
LINE
  5
8BA
  8
0
 10
50.17886794
 20
125.24133659
 30
0.0
 11
49.81298103
 21
124.5956673
 31
0.0
  0
POLYLINE
  5
8BB
  8
0
 66
     1
 10
0.0
 20
0.0
 30
0.0
  0
VERTEX
  5
8BC
  8
0
 10
109.80004462
 20
111.97636068
 30
0.0
  0
VERTEX
  5
8BD
  8
0
 10
48.04064873
 20
121.05796616
 30
0.0
  0
VERTEX
  5
8BE
  8
0
 10
49.0220348
 20
123.39364443
 30
0.0
  0
SEQEND
  5
8BF
  8
0
  0
POLYLINE
  5
8C0
  8
0
 66
     1
 10
0.0
 20
0.0
 30
0.0
  0
VERTEX
  5
8C1
  8
0
 10
48.04064873
 20
121.05796616
 30
0.0
  0
VERTEX
  5
8C2
  8
0
 10
48.77083714
 20
120.6051393
 30
0.0
  0
VERTEX
  5
8C3
  8
0
 10
49.52099547
 20
120.20644793
 30
0.0
  0
VERTEX
  5
8C4
  8
0
 10
50.28924896
 20
119.86401639
 30
0.0
  0
VERTEX
  5
8C5
  8
0
 10
51.0735887
 20
119.57955453
 30
0.0
  0
VERTEX
  5
8C6
  8
0
 10
51.87188778
 20
119.35434397
 30
0.0
  0
VERTEX
  5
8C7
  8
0
 10
52.68197803
 20
119.18949455
 30
0.0
  0
SEQEND
  5
8C8
  8
0
  0
LINE
  5
8C9
  8
0
 10
109.80004462
 20
110.82972963
 30
0.0
 11
52.68197803
 21
119.18949455
 31
0.0
  0
LINE
  5
8CA
  8
0
 10
50.5751619
 20
125.90980767
 30
0.0
 11
50.17886794
 21
125.24133659
 31
0.0
  0
LINE
  5
8CB
  8
0
 10
49.42198041
 20
123.87180068
 30
0.0
 11
49.32737892
 21
123.76148981
 31
0.0
  0
LINE
  5
8CC
  8
0
 10
48.64117662
 20
122.3259144
 30
0.0
 11
49.32737892
 21
123.76148981
 31
0.0
  0
LINE
  5
8CD
  8
0
 10
137.51838388
 20
126.81554148
 30
0.0
 11
75.66104644
 21
135.91154908
 31
0.0
  0
LINE
  5
8CE
  8
0
 10
77.60765161
 20
137.51297004
 30
0.0
 11
75.66104644
 21
135.91154908
 31
0.0
  0
LINE
  5
8CF
  8
0
 10
138.06233385
 20
128.6232203
 30
0.0
 11
77.60765161
 21
137.51297004
 31
0.0
  0
LINE
  5
8D0
  8
0
 10
77.60765161
 20
179.71429557
 30
0.0
 11
77.60765161
 21
137.51297004
 31
0.0
  0
LINE
  5
8D1
  8
0
 10
75.66104644
 20
135.91154908
 30
0.0
 11
75.66104644
 21
179.59003028
 31
0.0
  0
LINE
  5
8D2
  8
0
 10
72.62720987
 20
186.11148554
 30
0.0
 11
76.95027203
 21
188.02689832
 31
0.0
  0
LINE
  5
8D3
  8
0
 10
81.18860214
 20
140.8823004
 30
0.0
 11
81.18860214
 21
178.03793182
 31
0.0
  0
POLYLINE
  5
8D4
  8
0
 66
     1
 10
0.0
 20
0.0
 30
0.0
  0
VERTEX
  5
8D5
  8
0
 10
83.68452325
 20
179.14379591
 30
0.0
  0
VERTEX
  5
8D6
  8
0
 10
81.95153149
 20
182.16112964
 30
0.0
  0
VERTEX
  5
8D7
  8
0
 10
78.25561394
 20
187.76618999
 30
0.0
  0
VERTEX
  5
8D8
  8
0
 10
78.06880473
 20
188.01115124
 30
0.0
  0
SEQEND
  5
8D9
  8
0
  0
LINE
  5
8DA
  8
0
 10
78.61742052
 20
195.45054116
 30
0.0
 11
80.11497318
 21
195.2303288
 31
0.0
  0
LINE
  5
8DB
  8
0
 10
71.28983578
 20
203.54560824
 30
0.0
 11
75.62231519
 21
202.90852512
 31
0.0
  0
LINE
  5
8DC
  8
0
 10
44.33388784
 20
191.60227614
 30
0.0
 11
71.28983578
 21
203.54560824
 31
0.0
  0
LINE
  5
8DD
  8
0
 10
44.33388784
 20
191.60227614
 30
0.0
 11
48.66636725
 21
190.96519302
 31
0.0
  0
LINE
  5
8DE
  8
0
 10
41.33878251
 20
186.40773857
 30
0.0
 11
44.33388784
 21
191.60227614
 31
0.0
  0
LINE
  5
8DF
  8
0
 10
41.33878251
 20
186.40773857
 30
0.0
 11
45.67126192
 21
185.77065545
 31
0.0
  0
LINE
  5
8E0
  8
0
 10
41.33878251
 20
180.60648756
 30
0.0
 11
41.33878251
 21
186.40773857
 31
0.0
  0
LINE
  5
8E1
  8
0
 10
41.33878251
 20
180.60648756
 30
0.0
 11
45.67126192
 21
179.96940444
 31
0.0
  0
LINE
  5
8E2
  8
0
 10
39.84122985
 20
179.94296911
 30
0.0
 11
41.33878251
 21
180.60648756
 31
0.0
  0
LINE
  5
8E3
  8
0
 10
39.84122985
 20
179.94296911
 30
0.0
 11
44.17370926
 21
179.30588599
 31
0.0
  0
LINE
  5
8E4
  8
0
 10
39.84122985
 20
174.14171811
 30
0.0
 11
39.84122985
 21
179.94296911
 31
0.0
  0
LINE
  5
8E5
  8
0
 10
39.84122985
 20
174.14171811
 30
0.0
 11
44.17370926
 21
173.50463499
 31
0.0
  0
LINE
  5
8E6
  8
0
 10
120.98114313
 20
114.41763826
 30
0.0
 11
119.55486639
 21
114.43171601
 31
0.0
  0
LINE
  5
8E7
  8
0
 10
197.09191724
 20
119.13284367
 30
0.0
 11
197.09191724
 21
120.01657448
 31
0.0
  0
ENDBLK
  8
0
  0
BLOCK
  8
0
  2
1X_BL_10X7_143X72_000_S23A
 70
     0
 10
0.0
 20
0.0
 30
0.0
  0
INSERT
  5
8EA
  8
0
  2
1X_BL_10X7_143X72_000_S23B
 10
52.30850176
 20
176.55372134
 30
0.0
  0
ENDBLK
  8
0
  0
BLOCK
  8
0
  2
1X_BL_10X7_143X72_000_S23B
 70
     0
 10
52.30850176
 20
176.55372134
 30
0.0
  0
LINE
  5
8ED
  8
0
 10
52.30850176
 20
176.55372134
 30
0.0
 11
52.52796846
 21
176.69481062
 31
0.0
  0
POLYLINE
  5
8EE
  8
0
 66
     1
 10
0.0
 20
0.0
 30
0.0
  0
VERTEX
  5
8EF
  8
0
 10
52.30850176
 20
176.55372134
 30
0.0
  0
VERTEX
  5
8F0
  8
0
 10
52.12549027
 20
176.33582549
 30
0.0
  0
VERTEX
  5
8F1
  8
0
 10
51.98585862
 20
176.03705678
 30
0.0
  0
VERTEX
  5
8F2
  8
0
 10
51.89589669
 20
175.65500484
 30
0.0
  0
VERTEX
  5
8F3
  8
0
 10
51.86078812
 20
175.1904176
 30
0.0
  0
VERTEX
  5
8F4
  8
0
 10
51.88416215
 20
174.64770555
 30
0.0
  0
VERTEX
  5
8F5
  8
0
 10
51.90270828
 20
174.47227245
 30
0.0
  0
SEQEND
  5
8F6
  8
0
  0
LINE
  5
8F7
  8
0
 10
51.9677303
 20
174.03405035
 30
0.0
 11
51.90270828
 21
174.47227245
 31
0.0
  0
LINE
  5
8F8
  8
0
 10
52.11106513
 20
173.35908662
 30
0.0
 11
51.9677303
 21
174.03405035
 31
0.0
  0
LINE
  5
8F9
  8
0
 10
52.31156133
 20
172.63496582
 30
0.0
 11
52.11106513
 21
173.35908662
 31
0.0
  0
LINE
  5
8FA
  8
0
 10
52.56459169
 20
171.87584973
 30
0.0
 11
52.31156133
 21
172.63496582
 31
0.0
  0
LINE
  5
8FB
  8
0
 10
52.79102637
 20
171.27733336
 30
0.0
 11
52.56459169
 21
171.87584973
 31
0.0
  0
LINE
  5
8FC
  8
0
 10
52.86383866
 20
171.09635643
 30
0.0
 11
52.79102637
 21
171.27733336
 31
0.0
  0
LINE
  5
8FD
  8
0
 10
53.20175445
 20
170.31074412
 30
0.0
 11
52.86383866
 21
171.09635643
 31
0.0
  0
LINE
  5
8FE
  8
0
 10
53.57008562
 20
169.53278054
 30
0.0
 11
53.20175445
 21
170.31074412
 31
0.0
  0
LINE
  5
8FF
  8
0
 10
53.96039539
 20
168.77438897
 30
0.0
 11
53.57008562
 21
169.53278054
 31
0.0
  0
LINE
  5
900
  8
0
 10
54.36452676
 20
168.04561222
 30
0.0
 11
53.96039539
 21
168.77438897
 31
0.0
  0
LINE
  5
901
  8
0
 10
54.36452676
 20
168.04561222
 30
0.0
 11
51.86860566
 21
166.93974813
 31
0.0
  0
LINE
  5
902
  8
0
 10
51.33226174
 20
167.58918523
 30
0.0
 11
51.86860566
 21
166.93974813
 31
0.0
  0
LINE
  5
903
  8
0
 10
46.16976117
 20
172.5770153
 30
0.0
 11
51.33226174
 21
167.58918523
 31
0.0
  0
LINE
  5
904
  8
0
 10
45.04020514
 20
173.37721837
 30
0.0
 11
46.16976117
 21
172.5770153
 31
0.0
  0
LINE
  5
905
  8
0
 10
45.04020514
 20
173.37721837
 30
0.0
 11
52.52796846
 21
176.69481062
 31
0.0
  0
LINE
  5
906
  8
0
 10
48.19548905
 20
177.33189374
 30
0.0
 11
52.52796846
 21
176.69481062
 31
0.0
  0
LINE
  5
907
  8
0
 10
40.70772573
 20
174.01430149
 30
0.0
 11
45.04020514
 21
173.37721837
 31
0.0
  0
LINE
  5
908
  8
0
 10
43.07343875
 20
168.80362995
 30
0.0
 11
41.24178453
 21
173.3016652
 31
0.0
  0
POLYLINE
  5
909
  8
0
 66
     1
 10
0.0
 20
0.0
 30
0.0
  0
VERTEX
  5
90A
  8
0
 10
51.86860566
 20
166.93974813
 30
0.0
  0
VERTEX
  5
90B
  8
0
 10
43.20364684
 20
168.21391438
 30
0.0
  0
VERTEX
  5
90C
  8
0
 10
43.07343875
 20
168.80362995
 30
0.0
  0
SEQEND
  5
90D
  8
0
  0
LINE
  5
90E
  8
0
 10
41.24178453
 20
173.3016652
 30
0.0
 11
40.70772573
 21
174.01430149
 31
0.0
  0
LINE
  5
90F
  8
0
 10
52.52796846
 20
174.39272689
 30
0.0
 11
52.52796846
 21
176.69481062
 31
0.0
  0
LINE
  5
910
  8
0
 10
52.52796846
 20
172.09064315
 30
0.0
 11
52.52796846
 21
174.39272689
 31
0.0
  0
LINE
  5
911
  8
0
 10
52.52796846
 20
171.98572303
 30
0.0
 11
52.52796846
 21
172.09064315
 31
0.0
  0
LINE
  5
912
  8
0
 10
74.06141209
 20
179.28059859
 30
0.0
 11
73.75314015
 21
179.18097214
 31
0.0
  0
LINE
  5
913
  8
0
 10
74.06141209
 20
186.05494202
 30
0.0
 11
73.75314015
 21
186.05516565
 31
0.0
  0
POLYLINE
  5
914
  8
0
 66
     1
 10
0.0
 20
0.0
 30
0.0
  0
VERTEX
  5
915
  8
0
 10
74.06141209
 20
186.05494202
 30
0.0
  0
VERTEX
  5
916
  8
0
 10
74.41825874
 20
185.97614722
 30
0.0
  0
VERTEX
  5
917
  8
0
 10
74.82166942
 20
185.81269315
 30
0.0
  0
VERTEX
  5
918
  8
0
 10
75.26774429
 20
185.56130315
 30
0.0
  0
VERTEX
  5
919
  8
0
 10
75.75070179
 20
185.22221808
 30
0.0
  0
VERTEX
  5
91A
  8
0
 10
75.90041576
 20
185.10490194
 30
0.0
  0
VERTEX
  5
91B
  8
0
 10
76.26305893
 20
184.79854578
 30
0.0
  0
VERTEX
  5
91C
  8
0
 10
76.7959838
 20
184.29619713
 30
0.0
  0
VERTEX
  5
91D
  8
0
 10
77.33978977
 20
183.7241861
 30
0.0
  0
VERTEX
  5
91E
  8
0
 10
77.88451535
 20
183.09431098
 30
0.0
  0
VERTEX
  5
91F
  8
0
 10
78.29801984
 20
182.57868075
 30
0.0
  0
VERTEX
  5
920
  8
0
 10
78.42051809
 20
182.41971669
 30
0.0
  0
VERTEX
  5
921
  8
0
 10
78.93901024
 20
181.71411211
 30
0.0
  0
VERTEX
  5
922
  8
0
 10
79.43247796
 20
180.99159258
 30
0.0
  0
VERTEX
  5
923
  8
0
 10
79.89494968
 20
180.26517368
 30
0.0
  0
VERTEX
  5
924
  8
0
 10
80.32210626
 20
179.54659869
 30
0.0
  0
VERTEX
  5
925
  8
0
 10
82.81802737
 20
180.65246277
 30
0.0
  0
VERTEX
  5
926
  8
0
 10
82.54209962
 20
181.41728208
 30
0.0
  0
VERTEX
  5
927
  8
0
 10
81.0429075
 20
188.02820882
 30
0.0
  0
VERTEX
  5
928
  8
0
 10
80.98146906
 20
189.30166117
 30
0.0
  0
VERTEX
  5
929
  8
0
 10
73.49370575
 20
185.98406892
 30
0.0
  0
SEQEND
  5
92A
  8
0
  0
LINE
  5
92B
  8
0
 10
73.75314015
 20
186.05516565
 30
0.0
 11
73.49370575
 21
185.98406892
 31
0.0
  0
LINE
  5
92C
  8
0
 10
73.49370575
 20
179.07781773
 30
0.0
 11
73.75314015
 21
179.18097214
 31
0.0
  0
LINE
  5
92D
  8
0
 10
73.49370575
 20
181.37990146
 30
0.0
 11
73.49370575
 21
179.07781773
 31
0.0
  0
LINE
  5
92E
  8
0
 10
73.49370575
 20
183.68198519
 30
0.0
 11
73.49370575
 21
181.37990146
 31
0.0
  0
LINE
  5
92F
  8
0
 10
73.49370575
 20
185.98406892
 30
0.0
 11
73.49370575
 21
183.68198519
 31
0.0
  0
LINE
  5
930
  8
0
 10
80.11497318
 20
189.4290778
 30
0.0
 11
80.98146906
 21
189.30166117
 31
0.0
  0
LINE
  5
931
  8
0
 10
72.62720987
 20
179.20523435
 30
0.0
 11
73.49370575
 21
179.07781773
 31
0.0
  0
POLYLINE
  5
932
  8
0
 66
     1
 10
0.0
 20
0.0
 30
0.0
  0
VERTEX
  5
933
  8
0
 10
80.32210626
 20
179.54659869
 30
0.0
  0
VERTEX
  5
934
  8
0
 10
79.89494968
 20
179.6026175
 30
0.0
  0
VERTEX
  5
935
  8
0
 10
79.43247796
 20
179.64933113
 30
0.0
  0
VERTEX
  5
936
  8
0
 10
78.93901024
 20
179.68497206
 30
0.0
  0
VERTEX
  5
937
  8
0
 10
78.42051809
 20
179.70793482
 30
0.0
  0
VERTEX
  5
938
  8
0
 10
77.88451535
 20
179.71689627
 30
0.0
  0
VERTEX
  5
939
  8
0
 10
77.82151058
 20
179.71698256
 30
0.0
  0
SEQEND
  5
93A
  8
0
  0
POLYLINE
  5
93B
  8
0
 66
     1
 10
0.0
 20
0.0
 30
0.0
  0
VERTEX
  5
93C
  8
0
 10
77.33978977
 20
179.71093006
 30
0.0
  0
VERTEX
  5
93D
  8
0
 10
76.7959838
 20
179.68959931
 30
0.0
  0
VERTEX
  5
93E
  8
0
 10
76.26305893
 20
179.65301314
 30
0.0
  0
VERTEX
  5
93F
  8
0
 10
75.75070179
 20
179.60183654
 30
0.0
  0
VERTEX
  5
940
  8
0
 10
75.32213533
 20
179.54540078
 30
0.0
  0
SEQEND
  5
941
  8
0
  0
POLYLINE
  5
942
  8
0
 66
     1
 10
0.0
 20
0.0
 30
0.0
  0
VERTEX
  5
943
  8
0
 10
75.26774429
 20
179.53725062
 30
0.0
  0
VERTEX
  5
944
  8
0
 10
74.82166942
 20
179.46086792
 30
0.0
  0
VERTEX
  5
945
  8
0
 10
74.41825874
 20
179.37461501
 30
0.0
  0
VERTEX
  5
946
  8
0
 10
74.06141209
 20
179.28059859
 30
0.0
  0
SEQEND
  5
947
  8
0
  0
LINE
  5
948
  8
0
 10
75.32213533
 20
179.54540078
 30
0.0
 11
75.26774429
 21
179.53725062
 31
0.0
  0
LINE
  5
949
  8
0
 10
77.82151058
 20
179.71698256
 30
0.0
 11
77.33978977
 21
179.71093006
 31
0.0
  0
ENDBLK
  8
0
  0
BLOCK
  8
0
  2
1X_BL_10X7_143X72_000_S23C
 70
     0
 10
0.0
 20
0.0
 30
0.0
  0
INSERT
  5
94C
  8
0
  2
1X_BL_10X7_143X72_000_S23D
 10
120.37783753
 20
114.31227671
 30
0.0
  0
ENDBLK
  8
0
  0
BLOCK
  8
0
  2
1X_BL_10X7_143X72_000_S23D
 70
     0
 10
120.37783753
 20
114.31227671
 30
0.0
  0
LINE
  5
94F
  8
0
 10
120.37783753
 20
114.31227671
 30
0.0
 11
120.71296307
 21
114.33806877
 31
0.0
  0
POLYLINE
  5
950
  8
0
 66
     1
 10
0.0
 20
0.0
 30
0.0
  0
VERTEX
  5
951
  8
0
 10
120.37783753
 20
114.31227671
 30
0.0
  0
VERTEX
  5
952
  8
0
 10
119.97472811
 20
114.34625229
 30
0.0
  0
VERTEX
  5
953
  8
0
 10
119.50425898
 20
114.44474033
 30
0.0
  0
VERTEX
  5
954
  8
0
 10
118.96992335
 20
114.61062358
 30
0.0
  0
VERTEX
  5
955
  8
0
 10
118.37836903
 20
114.84450039
 30
0.0
  0
VERTEX
  5
956
  8
0
 10
118.19269389
 20
114.92697745
 30
0.0
  0
VERTEX
  5
957
  8
0
 10
117.73842362
 20
115.14456557
 30
0.0
  0
VERTEX
  5
958
  8
0
 10
117.06064505
 20
115.50658039
 30
0.0
  0
VERTEX
  5
959
  8
0
 10
116.35724808
 20
115.92398017
 30
0.0
  0
VERTEX
  5
95A
  8
0
 10
115.64157108
 20
116.38823806
 30
0.0
  0
VERTEX
  5
95B
  8
0
 10
115.09096371
 20
116.77104345
 30
0.0
  0
VERTEX
  5
95C
  8
0
 10
114.92666519
 20
116.88951153
 30
0.0
  0
VERTEX
  5
95D
  8
0
 10
114.22460586
 20
117.4172768
 30
0.0
  0
VERTEX
  5
95E
  8
0
 10
113.54646953
 20
117.96088994
 30
0.0
  0
VERTEX
  5
95F
  8
0
 10
112.90124909
 20
118.51026245
 30
0.0
  0
VERTEX
  5
960
  8
0
 10
112.29596573
 20
119.05626876
 30
0.0
  0
VERTEX
  5
961
  8
0
 10
109.80004462
 20
117.95040468
 30
0.0
  0
VERTEX
  5
962
  8
0
 10
110.25003059
 20
117.35421243
 30
0.0
  0
VERTEX
  5
963
  8
0
 10
113.17672828
 20
112.1262487
 30
0.0
  0
VERTEX
  5
964
  8
0
 10
113.49337981
 20
111.10004601
 30
0.0
  0
VERTEX
  5
965
  8
0
 10
116.65808096
 20
112.50222549
 30
0.0
  0
SEQEND
  5
966
  8
0
  0
LINE
  5
967
  8
0
 10
120.71296307
 20
114.33806877
 30
0.0
 11
120.98114313
 21
114.41763826
 31
0.0
  0
LINE
  5
968
  8
0
 10
118.9180577
 20
114.72101118
 30
0.0
 11
118.8165541
 21
114.7359371
 31
0.0
  0
POLYLINE
  5
969
  8
0
 66
     1
 10
0.0
 20
0.0
 30
0.0
  0
VERTEX
  5
96A
  8
0
 10
113.17672828
 20
106.62739021
 30
0.0
  0
VERTEX
  5
96B
  8
0
 10
113.49337981
 20
106.26567018
 30
0.0
  0
VERTEX
  5
96C
  8
0
 10
113.49337981
 20
111.10004601
 30
0.0
  0
SEQEND
  5
96D
  8
0
  0
LINE
  5
96E
  8
0
 10
113.17672828
 20
106.62739021
 30
0.0
 11
110.25003059
 21
108.13864543
 31
0.0
  0
LINE
  5
96F
  8
0
 10
109.80004462
 20
108.28165301
 30
0.0
 11
109.80004462
 21
117.95040468
 31
0.0
  0
LINE
  5
970
  8
0
 10
110.25003059
 20
108.13864543
 30
0.0
 11
109.80004462
 21
108.28165301
 31
0.0
  0
LINE
  5
971
  8
0
 10
142.15760146
 20
123.83951308
 30
0.0
 11
141.94688042
 21
123.70689657
 31
0.0
  0
POLYLINE
  5
972
  8
0
 66
     1
 10
0.0
 20
0.0
 30
0.0
  0
VERTEX
  5
973
  8
0
 10
142.15760146
 20
123.83951308
 30
0.0
  0
VERTEX
  5
974
  8
0
 10
142.31375935
 20
124.03139324
 30
0.0
  0
VERTEX
  5
975
  8
0
 10
142.40712824
 20
124.28534273
 30
0.0
  0
SEQEND
  5
976
  8
0
  0
LINE
  5
977
  8
0
 10
136.70465162
 20
125.40147984
 30
0.0
 11
136.71726193
 21
125.41600674
 31
0.0
  0
POLYLINE
  5
978
  8
0
 66
     1
 10
0.0
 20
0.0
 30
0.0
  0
VERTEX
  5
979
  8
0
 10
142.40712824
 20
124.28534273
 30
0.0
  0
VERTEX
  5
97A
  8
0
 10
142.43003171
 20
124.60242865
 30
0.0
  0
VERTEX
  5
97B
  8
0
 10
142.37687952
 20
124.98150913
 30
0.0
  0
VERTEX
  5
97C
  8
0
 10
142.24490866
 20
125.41901291
 30
0.0
  0
VERTEX
  5
97D
  8
0
 10
142.19040124
 20
125.55960682
 30
0.0
  0
SEQEND
  5
97E
  8
0
  0
LINE
  5
97F
  8
0
 10
142.03375224
 20
125.90906099
 30
0.0
 11
142.19040124
 21
125.55960682
 31
0.0
  0
LINE
  5
980
  8
0
 10
141.74556373
 20
126.44369091
 30
0.0
 11
142.03375224
 21
125.90906099
 31
0.0
  0
LINE
  5
981
  8
0
 10
141.38547652
 20
127.01320044
 30
0.0
 11
141.74556373
 21
126.44369091
 31
0.0
  0
LINE
  5
982
  8
0
 10
140.96149473
 20
127.60669931
 30
0.0
 11
141.38547652
 21
127.01320044
 31
0.0
  0
LINE
  5
983
  8
0
 10
140.5979569
 20
128.07239057
 30
0.0
 11
140.96149473
 21
127.60669931
 31
0.0
  0
LINE
  5
984
  8
0
 10
140.48334463
 20
128.2128718
 30
0.0
 11
140.5979569
 21
128.07239057
 31
0.0
  0
LINE
  5
985
  8
0
 10
139.96186164
 20
128.82064477
 30
0.0
 11
140.48334463
 21
128.2128718
 31
0.0
  0
LINE
  5
986
  8
0
 10
139.40886186
 20
129.41970198
 30
0.0
 11
139.96186164
 21
128.82064477
 31
0.0
  0
LINE
  5
987
  8
0
 10
138.83580339
 20
130.00104717
 30
0.0
 11
139.40886186
 21
129.41970198
 31
0.0
  0
LINE
  5
988
  8
0
 10
138.25354522
 20
130.55725523
 30
0.0
 11
138.83580339
 21
130.00104717
 31
0.0
  0
LINE
  5
989
  8
0
 10
138.25354522
 20
130.55725523
 30
0.0
 11
140.74946633
 21
131.66311932
 31
0.0
  0
LINE
  5
98A
  8
0
 10
141.45986847
 20
131.18230928
 30
0.0
 11
140.74946633
 21
131.66311932
 31
0.0
  0
LINE
  5
98B
  8
0
 10
148.04987461
 20
127.57744222
 30
0.0
 11
141.45986847
 21
131.18230928
 31
0.0
  0
LINE
  5
98C
  8
0
 10
149.43464374
 20
127.02448882
 30
0.0
 11
148.04987461
 21
127.57744222
 31
0.0
  0
LINE
  5
98D
  8
0
 10
149.43464374
 20
127.02448882
 30
0.0
 11
141.94688042
 21
123.70689657
 31
0.0
  0
LINE
  5
98E
  8
0
 10
141.94688042
 20
121.96073097
 30
0.0
 11
141.94688042
 21
123.70689657
 31
0.0
  0
POLYLINE
  5
98F
  8
0
 66
     1
 10
0.0
 20
0.0
 30
0.0
  0
VERTEX
  5
990
  8
0
 10
135.75762412
 20
124.61701531
 30
0.0
  0
VERTEX
  5
991
  8
0
 10
137.82070955
 20
124.3136424
 30
0.0
  0
VERTEX
  5
992
  8
0
 10
139.88379499
 20
124.01026948
 30
0.0
  0
VERTEX
  5
993
  8
0
 10
141.94688042
 20
123.70689657
 30
0.0
  0
SEQEND
  5
994
  8
0
  0
LINE
  5
995
  8
0
 10
138.06055432
 20
128.61301447
 30
0.0
 11
138.06516974
 21
128.63948446
 31
0.0
  0
LINE
  5
996
  8
0
 10
137.50629598
 20
126.78677252
 30
0.0
 11
137.53333862
 21
126.85113344
 31
0.0
  0
ENDBLK
  8
0
  0
BLOCK
  8
0
  2
DVI_FIGURE_00050
 70
     0
 10
0.0
 20
0.0
 30
0.0
  0
INSERT
  5
999
  8
0
  2
VIEW_2_00051
 10
0.0
 20
0.0
 30
0.0
  0
INSERT
  5
99A
  8
0
  2
VIEW_3_00056
 10
0.0
 20
0.0
 30
0.0
  0
INSERT
  5
99B
  8
0
  2
VIEW_4_00073
 10
0.0
 20
0.0
 30
0.0
  0
ENDBLK
  8
0
  0
BLOCK
  8
0
  2
VIEW_2_00051
 70
     0
 10
0.0
 20
0.0
 30
0.0
  0
INSERT
  5
99E
  8
0
  2
PART_0_00052
 10
0.0
 20
0.0
 30
0.0
  0
ENDBLK
  8
0
  0
BLOCK
  8
0
  2
PART_0_00052
 70
     0
 10
0.0
 20
0.0
 30
0.0
  0
INSERT
  5
9A1
  8
0
  2
_D1
 10
306.45522494
 20
237.38631511
 30
0.0
  0
INSERT
  5
9A2
  8
0
  2
_D2
 10
226.05717634
 20
281.54633915
 30
0.0
  0
INSERT
  5
9A3
  8
0
  2
_D3
 10
391.05717634
 20
247.50625687
 30
0.0
  0
ENDBLK
  8
0
  0
BLOCK
  8
0
  2
VIEW_3_00056
 70
     0
 10
0.0
 20
0.0
 30
0.0
  0
INSERT
  5
9BE
  8
0
  2
PART_0_00057
 10
0.0
 20
0.0
 30
0.0
  0
ENDBLK
  8
0
  0
BLOCK
  8
0
  2
PART_0_00057
 70
     0
 10
0.0
 20
0.0
 30
0.0
  0
INSERT
  5
9C1
  8
0
  2
_D4
 10
249.91514261
 20
227.3668735
 30
0.0
  0
INSERT
  5
9C2
  8
0
  2
_D5
 10
277.41514261
 20
227.3668735
 30
0.0
  0
INSERT
  5
9C3
  8
0
  2
_D6
 10
302.41514261
 20
227.3668735
 30
0.0
  0
INSERT
  5
9C4
  8
0
  2
_D7
 10
327.41514261
 20
227.3668735
 30
0.0
  0
INSERT
  5
9C5
  8
0
  2
_D8
 10
347.41514261
 20
227.3668735
 30
0.0
  0
INSERT
  5
9C6
  8
0
  2
_D9
 10
363.29014261
 20
227.3668735
 30
0.0
  0
INSERT
  5
9C7
  8
0
  2
_D10
 10
375.79014261
 20
227.3668735
 30
0.0
  0
INSERT
  5
9C8
  8
0
  2
_D11
 10
397.26282223
 20
178.00918138
 30
0.0
  0
INSERT
  5
9C9
  8
0
  2
_D12
 10
298.60681929
 20
185.75918138
 30
0.0
  0
INSERT
  5
9CA
  8
0
  2
_D13
 10
298.60681929
 20
170.25918138
 30
0.0
  0
INSERT
  5
9CB
  8
0
  2
SHAPE_00068
 10
370.32242037
 20
185.93423379
 30
0.0
  0
INSERT
  5
9CC
  8
0
  2
_D14
 10
254.33497806
 20
178.00918138
 30
0.0
  0
INSERT
  5
9CD
  8
0
  2
SHAPE_00070
 10
275.34019502
 20
182.41645914
 30
0.0
  0
INSERT
  5
9CE
  8
0
  2
SHAPE_00071
 10
340.67437007
 20
198.66259519
 30
0.0
  0
INSERT
  5
9CF
  8
0
  2
SHAPE_00072
 10
360.19601578
 20
199.75774577
 30
0.0
  0
ENDBLK
  8
0
  0
BLOCK
  8
0
  2
SHAPE_00068
 70
     0
 10
370.32242037
 20
185.93423379
 30
0.0
  0
LINE
  5
A22
  8
DIM49
 62
     5
 10
370.32242037
 20
185.93423379
 30
0.0
 11
372.77313937
 21
191.19238935
 31
0.0
  0
TEXT
  5
A23
  8
TXT_DIM49
 10
372.77313937
 20
189.94238935
 30
0.0
 40
2.5
  1
Slobgat 13x30
  7
ARIAL
  0
ENDBLK
  8
0
  0
BLOCK
  8
0
  2
SHAPE_00070
 70
     0
 10
275.34019502
 20
182.41645914
 30
0.0
  0
LINE
  5
A2E
  8
DIM49
 62
     5
 10
275.34019502
 20
182.41645914
 30
0.0
 11
279.21667942
 21
187.87889462
 31
0.0
  0
TEXT
  5
A2F
  8
TXT_DIM49
 10
279.21667942
 20
186.62889462
 30
0.0
 40
2.5
  1
Ø13
  7
ARIAL
  0
ENDBLK
  8
0
  0
BLOCK
  8
0
  2
SHAPE_00071
 70
     0
 10
340.67437007
 20
198.66259519
 30
0.0
  0
LINE
  5
A32
  8
DIM49
 62
     5
 10
340.67437007
 20
198.66259519
 30
0.0
 11
343.1174582
 21
205.74737714
 31
0.0
  0
TEXT
  5
A33
  8
TXT_DIM49
 10
343.1174582
 20
204.49737714
 30
0.0
 40
2.5
  1
Ø7
  7
ARIAL
  0
ENDBLK
  8
0
  0
BLOCK
  8
0
  2
SHAPE_00072
 70
     0
 10
360.19601578
 20
199.75774577
 30
0.0
  0
LINE
  5
A36
  8
DIM49
 62
     5
 10
360.19601578
 20
199.75774577
 30
0.0
 11
363.24241483
 21
207.20899846
 31
0.0
  0
TEXT
  5
A37
  8
TXT_DIM49
 10
363.24241483
 20
205.95899846
 30
0.0
 40
2.5
  1
Ø9
  7
ARIAL
  0
ENDBLK
  8
0
  0
BLOCK
  8
0
  2
VIEW_4_00073
 70
     0
 10
0.0
 20
0.0
 30
0.0
  0
INSERT
  5
A3A
  8
0
  2
PART_0_00074
 10
0.0
 20
0.0
 30
0.0
  0
ENDBLK
  8
0
  0
BLOCK
  8
0
  2
PART_0_00074
 70
     0
 10
0.0
 20
0.0
 30
0.0
  0
INSERT
  5
A3D
  8
0
  2
SHAPE_00075
 10
127.08908045
 20
309.4661746
 30
0.0
  0
INSERT
  5
A3E
  8
0
  2
_D15
 10
97.81833355
 20
311.04633915
 30
0.0
  0
INSERT
  5
A3F
  8
0
  2
_D16
 10
97.81833355
 20
294.04633915
 30
0.0
  0
INSERT
  5
A40
  8
0
  2
_D17
 10
97.81833355
 20
276.04633915
 30
0.0
  0
INSERT
  5
A41
  8
0
  2
_D18
 10
97.81833355
 20
255.54633915
 30
0.0
  0
INSERT
  5
A42
  8
0
  2
SHAPE_00080
 10
158.08908045
 20
308.4661746
 30
0.0
  0
INSERT
  5
A43
  8
0
  2
SHAPE_00081
 10
149.08908045
 20
290.93038191
 30
0.0
  0
INSERT
  5
A44
  8
0
  2
_D19
 10
140.669245
 20
260.41274511
 30
0.0
  0
INSERT
  5
A45
  8
0
  2
_D20
 10
140.669245
 20
239.9661746
 30
0.0
  0
ENDBLK
  8
0
  0
BLOCK
  8
0
  2
SHAPE_00075
 70
     0
 10
127.08908045
 20
309.4661746
 30
0.0
  0
LINE
  5
A48
  8
DIM49
 62
     5
 10
127.08908045
 20
309.4661746
 30
0.0
 11
129.08275696
 21
316.45715932
 31
0.0
  0
TEXT
  5
A49
  8
TXT_DIM49
 10
129.08275696
 20
315.20715932
 30
0.0
 40
2.5
  1
Ø9
  7
ARIAL
  0
ENDBLK
  8
0
  0
BLOCK
  8
0
  2
SHAPE_00080
 70
     0
 10
158.08908045
 20
308.4661746
 30
0.0
  0
LINE
  5
A6C
  8
DIM49
 10
158.08908045
 20
308.4661746
 30
0.0
 11
161.03395149
 21
315.96360821
 31
0.0
  0
TEXT
  5
A6D
  8
TXT_DIM49
 10
161.03395149
 20
314.71360821
 30
0.0
 40
2.5
  1
Ø7
  7
ARIAL
  0
ENDBLK
  8
0
  0
BLOCK
  8
0
  2
SHAPE_00081
 70
     0
 10
149.08908045
 20
290.93038191
 30
0.0
  0
LINE
  5
A70
  8
DIM49
 62
     5
 10
149.08908045
 20
290.93038191
 30
0.0
 11
152.0738734
 21
296.91042125
 31
0.0
  0
TEXT
  5
A71
  8
TXT_DIM49
 10
152.0738734
 20
295.66042125
 30
0.0
 40
2.5
  1
Slobgat 13x30
  7
ARIAL
  0
ENDBLK
  8
0
  0
ENDSEC
  0
SECTION
  2
ENTITIES
  0
INSERT
  5
A83
  8
0
  2
_ZBL0001_00001
 10
0.0
 20
0.0
 30
0.0
  0
INSERT
  5
A84
  8
0
  2
_ANS0002_00016
 10
0.0
 20
0.0
 30
0.0
  0
INSERT
  5
A85
  8
0
  2
_ANS0003_00025
 10
0.0
 20
0.0
 30
0.0
  0
INSERT
  5
A86
  8
0
  2
_ANS0004_00032
 10
0.0
 20
0.0
 30
0.0
  0
INSERT
  5
A87
  8
0
  2
_ANS0005_00041
 10
0.0
 20
0.0
 30
0.0
  0
INSERT
  5
A88
  8
0
  2
DVI_FIGURE_00050
 10
0.0
 20
0.0
 30
0.0
  0
ENDSEC
  0
EOF
